  0
SECTION
  2
HEADER
  9
$ACADVER
  1
AC1009
  9
$INSBASE
 10
0.0
 20
0.0
 30
0.0
  9
$EXTMIN
 10
0.2713318665876585
 20
0.1654968775872874
 30
-0.0015258207003583
  9
$EXTMAX
 10
2.0274658622539898
 20
1.763397244461117
 30
0.0000000349246037
  9
$LIMMIN
 10
0.0
 20
0.0
  9
$LIMMAX
 10
34.0
 20
22.0
  9
$ORTHOMODE
 70
     1
  9
$REGENMODE
 70
     1
  9
$FILLMODE
 70
     1
  9
$QTEXTMODE
 70
     0
  9
$MIRRTEXT
 70
     1
  9
$DRAGMODE
 70
     2
  9
$LTSCALE
 40
1.0
  9
$OSMODE
 70
     1
  9
$ATTMODE
 70
     1
  9
$TEXTSIZE
 40
0.12
  9
$TRACEWID
 40
0.05
  9
$TEXTSTYLE
  7
STANDARD
  9
$CLAYER
  8
0
  9
$CELTYPE
  6
BYLAYER
  9
$CECOLOR
 62
   256
  9
$DIMSCALE
 40
1.0
  9
$DIMASZ
 40
0.156
  9
$DIMEXO
 40
0.05
  9
$DIMDLI
 40
0.38
  9
$DIMRND
 40
0.0
  9
$DIMDLE
 40
0.0
  9
$DIMEXE
 40
0.125
  9
$DIMTP
 40
0.0
  9
$DIMTM
 40
0.0
  9
$DIMTXT
 40
0.14
  9
$DIMCEN
 40
0.09
  9
$DIMTSZ
 40
0.0
  9
$DIMTOL
 70
     0
  9
$DIMLIM
 70
     0
  9
$DIMTIH
 70
     1
  9
$DIMTOH
 70
     1
  9
$DIMSE1
 70
     0
  9
$DIMSE2
 70
     0
  9
$DIMTAD
 70
     0
  9
$DIMZIN
 70
     0
  9
$DIMBLK
  1

  9
$DIMASO
 70
     1
  9
$DIMSHO
 70
     1
  9
$DIMPOST
  1

  9
$DIMAPOST
  1

  9
$DIMALT
 70
     0
  9
$DIMALTD
 70
     2
  9
$DIMALTF
 40
25.399999999999999
  9
$DIMLFAC
 40
1.0
  9
$DIMTOFL
 70
     0
  9
$DIMTVP
 40
0.0
  9
$DIMTIX
 70
     0
  9
$DIMSOXD
 70
     0
  9
$DIMSAH
 70
     0
  9
$DIMBLK1
  1

  9
$DIMBLK2
  1

  9
$DIMSTYLE
  2
STANDARD
  9
$DIMCLRD
 70
     0
  9
$DIMCLRE
 70
     0
  9
$DIMCLRT
 70
     0
  9
$DIMTFAC
 40
1.0
  9
$DIMGAP
 40
0.06
  9
$LUNITS
 70
     2
  9
$LUPREC
 70
     3
  9
$SKETCHINC
 40
0.1
  9
$FILLETRAD
 40
0.0
  9
$AUNITS
 70
     0
  9
$AUPREC
 70
     2
  9
$MENU
  1
.
  9
$ELEVATION
 40
0.0
  9
$PELEVATION
 40
0.0
  9
$THICKNESS
 40
0.0
  9
$LIMCHECK
 70
     0
  9
$BLIPMODE
 70
     0
  9
$CHAMFERA
 40
0.5
  9
$CHAMFERB
 40
0.5
  9
$SKPOLY
 70
     0
  9
$TDCREATE
 40
2457101.727104641
  9
$TDUPDATE
 40
2457101.5640940862
  9
$TDINDWG
 40
0.0032004861
  9
$TDUSRTIMER
 40
0.0032004861
  9
$USRTIMER
 70
     1
  9
$ANGBASE
 50
0.0
  9
$ANGDIR
 70
     0
  9
$PDMODE
 70
     0
  9
$PDSIZE
 40
-1.0
  9
$PLINEWID
 40
0.0
  9
$COORDS
 70
     1
  9
$SPLFRAME
 70
     0
  9
$SPLINETYPE
 70
     6
  9
$SPLINESEGS
 70
     8
  9
$ATTDIA
 70
     0
  9
$ATTREQ
 70
     1
  9
$HANDLING
 70
     1
  9
$HANDSEED
  5
679
  9
$SURFTAB1
 70
     6
  9
$SURFTAB2
 70
     6
  9
$SURFTYPE
 70
     6
  9
$SURFU
 70
     6
  9
$SURFV
 70
     6
  9
$UCSNAME
  2

  9
$UCSORG
 10
0.0
 20
0.0
 30
0.0
  9
$UCSXDIR
 10
1.0
 20
0.0
 30
0.0
  9
$UCSYDIR
 10
0.0
 20
1.0
 30
0.0
  9
$PUCSNAME
  2

  9
$PUCSORG
 10
0.0
 20
0.0
 30
0.0
  9
$PUCSXDIR
 10
1.0
 20
0.0
 30
0.0
  9
$PUCSYDIR
 10
0.0
 20
1.0
 30
0.0
  9
$USERI1
 70
     0
  9
$USERI2
 70
     0
  9
$USERI3
 70
     0
  9
$USERI4
 70
     0
  9
$USERI5
 70
     0
  9
$USERR1
 40
0.0
  9
$USERR2
 40
0.0
  9
$USERR3
 40
0.0
  9
$USERR4
 40
0.0
  9
$USERR5
 40
0.0
  9
$WORLDVIEW
 70
     0
  9
$SHADEDGE
 70
     3
  9
$SHADEDIF
 70
    70
  9
$TILEMODE
 70
     1
  9
$MAXACTVP
 70
    64
  9
$PLIMCHECK
 70
     0
  9
$PEXTMIN
 10
1.0000000000000000E+020
 20
1.0000000000000000E+020
 30
1.0000000000000000E+020
  9
$PEXTMAX
 10
-1.0000000000000000E+020
 20
-1.0000000000000000E+020
 30
-1.0000000000000000E+020
  9
$PLIMMIN
 10
0.0
 20
0.0
  9
$PLIMMAX
 10
12.0
 20
9.0
  9
$UNITMODE
 70
     0
  9
$VISRETAIN
 70
     1
  9
$PLINEGEN
 70
     0
  9
$PSLTSCALE
 70
     1
  0
ENDSEC
  0
SECTION
  2
TABLES
  0
TABLE
  2
VPORT
 70
     1
  0
VPORT
  2
*ACTIVE
 70
     0
 10
0.0
 20
0.0
 11
1.0
 21
1.0
 12
1.14939879093314
 22
0.9644470305667434
 13
0.0
 23
0.0
 14
0.5
 24
0.5
 15
0.5
 25
0.5
 16
0.0
 26
0.0
 36
1.0
 17
0.0
 27
0.0
 37
0.0
 40
1.9155519805207699
 41
2.0653514180024661
 42
50.0
 43
0.0
 44
0.0
 50
0.0
 51
0.0
 71
     0
 72
  2000
 73
     1
 74
     3
 75
     0
 76
     0
 77
     0
 78
     0
  0
ENDTAB
  0
TABLE
  2
LTYPE
 70
     7
  0
LTYPE
  2
CONTINUOUS
 70
     0
  3
Solid line
 72
    65
 73
     0
 40
0.0
  0
ENDTAB
  0
TABLE
  2
LAYER
 70
     2
  0
LAYER
  2
0
 70
     0
 62
     5
  6
CONTINUOUS
  0
ENDTAB
  0
TABLE
  2
STYLE
 70
     3
  0
STYLE
  2
STANDARD
 70
     0
 40
0.0
 41
1.0
 50
0.0
 71
     0
 42
0.12
  3
txt
  4

  0
STYLE
  2
P125
 70
     0
 40
0.125
 41
0.75
 50
15.0
 71
     0
 42
0.125
  3
print
  4

  0
ENDTAB
  0
TABLE
  2
VIEW
 70
     3
  0
ENDTAB
  0
TABLE
  2
UCS
 70
     0
  0
ENDTAB
  0
TABLE
  2
APPID
 70
    19
  0
APPID
  2
ACAD
 70
     0
  0
APPID
  2
ACADANNOTATIVE
 70
     0
  0
APPID
  2
ACAD_NAV_VCDISPLAY
 70
     0
  0
APPID
  2
ACAD_EXEMPT_FROM_CAD_STANDARDS
 70
     0
  0
APPID
  2
ACAD_MLEADERVER
 70
     0
  0
APPID
  2
ACAD_PSEXT
 70
     0
  0
APPID
  2
ACAD_DSTYLE_DIMJAG
 70
     0
  0
APPID
  2
ACAD_DSTYLE_DIMTALN
 70
     0
  0
APPID
  2
ACAECLAYERSTANDARD
 70
     0
  0
APPID
  2
ACAD_EXEMPT_FROM_CAD_STAND
 70
     0
  0
APPID
  2
ACAD_DSTYLE_DIMBREAK
 70
     0
  0
APPID
  2
ACAUTHENVIRON
 70
     0
  0
APPID
  2
ACDBDYNAMICBLOCKTRUENAME
 70
     0
  0
APPID
  2
ACDBDYNAMICBLOCKGUID
 70
     0
  0
APPID
  2
ACDBBLOCKREPETAG
 70
     0
  0
APPID
  2
ACAD_DSTYLE_DIMRADIAL_EXTE
 70
     0
  0
APPID
  2
GRADIENTCOLOR1ACI
 70
     0
  0
APPID
  2
GRADIENTCOLOR2ACI
 70
     0
  0
APPID
  2
ACCMTRANSPARENCY
 70
     0
  0
ENDTAB
  0
TABLE
  2
DIMSTYLE
 70
     3
  0
DIMSTYLE
  2
STANDARD
 70
     0
  3

  4

  5

  6

  7

 40
1.0
 41
0.18
 42
0.0625
 43
0.38
 44
0.18
 45
0.0
 46
0.0
 47
0.0
 48
0.0
140
0.18
141
0.09
142
0.0
143
25.399999999999999
144
1.0
145
0.0
146
1.0
147
0.09
 71
     0
 72
     0
 73
     1
 74
     1
 75
     0
 76
     0
 77
     0
 78
     0
170
     0
171
     2
172
     0
173
     0
174
     0
175
     0
176
     0
177
     0
178
     0
  0
ENDTAB
  0
ENDSEC
  0
SECTION
  2
BLOCKS
  0
BLOCK
  8
0
  2
$MODEL_SPACE
 70
     0
 10
0.0
 20
0.0
 30
0.0
  3
$MODEL_SPACE
  1

  0
ENDBLK
  5
3F6
  8
0
  0
BLOCK
 67
     1
  8
0
  2
$PAPER_SPACE
 70
     0
 10
0.0
 20
0.0
 30
0.0
  3
$PAPER_SPACE
  1

  0
ENDBLK
  5
3F4
 67
     1
  8
0
  0
ENDSEC
  0
SECTION
  2
ENTITIES
  0
ARC
  5
148
  8
0
 10
0.6670627991856009
 20
0.3294345186258915
 30
0.0
 40
0.0018501397846485
 50
270.0000000000008
 51
0.0
  0
ARC
  5
149
  8
0
 10
0.6353097751315689
 20
0.3294345186258915
 30
0.0
 40
0.0018501397846485
 50
180.0
 51
270.0000000000008
  0
LINE
  5
14A
  8
0
 10
0.6689129384767968
 20
0.3294345403427525
 30
0.0
 11
0.6689129384767968
 21
0.3312846569045569
 31
0.0
  0
LINE
  5
14B
  8
0
 10
0.6334596334893171
 20
0.3312846569045569
 30
0.0
 11
0.6334596334893171
 21
0.3294345403427525
 31
0.0
  0
ARC
  5
14C
  8
0
 10
0.6670627991856009
 20
0.3312846584105402
 30
0.0
 40
0.0018501397846485
 50
0.0
 51
40.016482518116291
  0
ARC
  5
14D
  8
0
 10
0.6353097751315689
 20
0.3312846584105402
 30
0.0
 40
0.0018501397846485
 50
139.98351748188369
 51
180.0
  0
ARC
  5
14E
  8
0
 10
0.651186287158585
 20
0.3179548981258584
 30
0.0
 40
0.0225804592079246
 50
105.8143529602592
 51
139.98351748188529
  0
ARC
  5
14F
  8
0
 10
0.651186287158585
 20
0.3179548981258584
 30
0.0
 40
0.0225804592079245
 50
40.016482518114771
 51
74.497374066479537
  0
LINE
  5
150
  8
0
 10
0.6461832568081709
 20
0.3393979885768359
 30
0.0
 11
0.6461832568081709
 21
0.339872709843445
 31
0.0
  0
LINE
  5
151
  8
0
 10
0.6107144801669278
 20
0.3275843762945756
 30
0.0
 11
0.6107144801669278
 21
0.3225658739819765
 31
0.0
  0
ARC
  5
152
  8
0
 10
0.651186287158585
 20
0.2201236347993906
 30
0.0
 40
0.0404718077891882
 50
127.97987244485179
 51
179.9999999999998
  0
ARC
  5
153
  8
0
 10
0.651186287158585
 20
0.2201236347993906
 30
0.0
 40
0.0404718077891882
 50
179.9999999999998
 51
52.020127555148107
  0
ARC
  5
154
  8
0
 10
0.6770882441436653
 20
0.253300644545406
 30
0.0
 40
0.0016188723115678
 50
179.9999999999994
 51
232.0201275551475
  0
ARC
  5
155
  8
0
 10
0.6252843301735052
 20
0.253300644545406
 30
0.0
 40
0.0016188723115673
 50
307.97987244483812
 51
0.0
  0
LINE
  5
156
  8
0
 10
0.6269032018997999
 20
0.3148276846530218
 30
0.0
 11
0.6269032018997999
 21
0.2533006364107892
 31
0.0
  0
LINE
  5
157
  8
0
 10
0.6754693715502633
 20
0.2533006364107892
 30
0.0
 11
0.6754693715502633
 21
0.3148276846530218
 31
0.0
  0
LINE
  5
158
  8
0
 10
0.6898206748741433
 20
0.6774037448181103
 30
0.0
 11
0.6892179366074921
 21
0.6784389596117881
 31
0.0
  0
LINE
  5
159
  8
0
 10
0.6889934499286033
 20
0.6595860386889118
 30
0.0
 11
0.6898206748741433
 21
0.6581707429691621
 31
0.0
  0
LINE
  5
15A
  8
0
 10
0.604781313153223
 20
1.420128945229177
 30
0.0
 11
0.4361972410954903
 21
1.420128945229177
 31
0.0
  0
LINE
  5
15B
  8
0
 10
0.4361972410954903
 20
0.2383521162703978
 30
0.0
 11
0.604781313153223
 21
0.2383521162703978
 31
0.0
  0
ARC
  5
15C
  8
0
 10
0.4361972432210142
 20
0.2545408601433156
 30
0.0
 40
0.0161887231156758
 50
250.0000000000008
 51
270.0000000000008
  0
ARC
  5
15D
  8
0
 10
0.4361972432210142
 20
1.403940201356259
 30
0.0
 40
0.0161887231156755
 50
90.0
 51
110.0000000000002
  0
LINE
  5
15E
  8
0
 10
0.4306603775398881
 20
1.4191526254090829
 30
0.0
 11
0.2778466188504931
 21
1.3635329768876381
 31
0.0
  0
LINE
  5
15F
  8
0
 10
0.2778466188504931
 20
0.2949480846119378
 30
0.0
 11
0.4306603775398881
 21
0.2393284360904924
 31
0.0
  0
ARC
  5
160
  8
0
 10
0.2811687372651551
 20
1.354405511447353
 30
0.0
 40
0.0097132338694053
 50
109.99999999999569
 51
179.9999999999998
  0
ARC
  5
161
  8
0
 10
0.2811687372651551
 20
0.3040755500522215
 30
0.0
 40
0.009713233869405
 50
179.9999999999998
 51
250.00000000000429
  0
LINE
  5
167
  8
0
 10
0.6383243452485435
 20
1.0214816191350331
 30
0.0
 11
0.604781313153223
 21
1.0214816191350331
 31
0.0
  0
LINE
  5
168
  8
0
 10
0.604781313153223
 20
0.9607739007651703
 30
0.0
 11
0.6383243452485435
 21
0.9607739007651703
 31
0.0
  0
LINE
  5
169
  8
0
 10
0.6898206748741456
 20
0.6977071607344058
 30
0.0
 11
0.604781313153223
 21
0.6977071607344058
 31
0.0
  0
LINE
  5
16A
  8
0
 10
0.604781313153223
 20
0.6369994423645422
 30
0.0
 11
0.6898206748741456
 21
0.6369994423645422
 31
0.0
  0
LINE
  5
16B
  8
0
 10
1.2774713260124131
 20
0.1662865598222269
 30
0.0
 11
1.439358543341134
 21
0.2268137350035691
 31
0.0
  0
LINE
  5
16C
  8
0
 10
1.439358543341134
 20
1.431667326496006
 30
0.0
 11
1.2774713260124131
 21
1.4921945016773479
 31
0.0
  0
LINE
  5
16D
  8
0
 10
1.2774713260124131
 20
1.4921945016773479
 30
0.0
 11
0.9620987977133744
 21
1.4506748867911661
 31
0.0
  0
LINE
  5
16E
  8
0
 10
0.7157134030445511
 20
0.2402434035172228
 30
0.0
 11
1.2774713260124131
 21
0.1662865598222269
 31
0.0
  0
ARC
  5
16F
  8
0
 10
0.7758206555576082
 20
0.3059311493371251
 30
0.0
 40
0.089037977136214
 50
195.0101927591117
 51
227.54007658658529
  0
ARC
  5
170
  8
0
 10
0.6526723480443863
 20
0.3341171815593338
 30
0.0
 40
0.0058044130896145
 50
74.948556403165398
 51
102.3519421251234
  0
ARC
  5
171
  8
0
 10
0.6472820355342412
 20
0.3350241129544149
 30
0.0
 40
0.0048763537732107
 50
84.096972654218419
 51
104.67417263076349
  0
POLYLINE
  5
172
  8
0
 66
     1
 10
0.0
 20
0.0
 30
0.0
  0
VERTEX
  5
60F
  8
0
 10
0.6449299994311311
 20
0.3396498562969612
 30
0.0
  0
VERTEX
  5
610
  8
0
 10
0.6455951321480612
 20
0.3398290223806781
 30
0.0
  0
VERTEX
  5
611
  8
0
 10
0.6460332681325014
 20
0.3399072799226779
 30
0.0
  0
VERTEX
  5
612
  8
0
 10
0.646183194482307
 20
0.3398755115394269
 30
0.0
  0
VERTEX
  5
613
  8
0
 10
0.6460506956312356
 20
0.33974378434191
 30
0.0
  0
VERTEX
  5
614
  8
0
 10
0.6458946168282845
 20
0.3396498562969612
 30
0.0
  0
SEQEND
  5
615
  8
0
  0
POLYLINE
  5
173
  8
0
 66
     1
 10
0.0
 20
0.0
 30
0.0
  0
VERTEX
  5
616
  8
0
 10
0.6458946168282845
 20
0.3396498562969612
 30
0.0
  0
VERTEX
  5
617
  8
0
 10
0.6457562890249803
 20
0.3395374560530817
 30
0.0
  0
VERTEX
  5
618
  8
0
 10
0.645784952986624
 20
0.3394505559912738
 30
0.0
  0
VERTEX
  5
619
  8
0
 10
0.6459766050184294
 20
0.339401977432132
 30
0.0
  0
VERTEX
  5
61A
  8
0
 10
0.6462985270096928
 20
0.3393957567173249
 30
0.0
  0
VERTEX
  5
61B
  8
0
 10
0.6467106938841321
 20
0.339429851932832
 30
0.0
  0
VERTEX
  5
61C
  8
0
 10
0.6471736622735297
 20
0.3394999418187494
 30
0.0
  0
VERTEX
  5
61D
  8
0
 10
0.6476459231524597
 20
0.3395999956057599
 30
0.0
  0
VERTEX
  5
61E
  8
0
 10
0.647839154106153
 20
0.3396498562969612
 30
0.0
  0
SEQEND
  5
61F
  8
0
  0
ARC
  5
174
  8
0
 10
0.6496391532535544
 20
0.3341188876415426
 30
0.0
 40
0.0058164947518131
 50
71.973032998359145
 51
108.0269670016408
  0
ARC
  5
175
  8
0
 10
0.652767297271492
 20
0.3423806900217738
 30
0.0
 40
0.0030366793755194
 50
244.06396238985511
 51
295.93603761014663
  0
ARC
  5
176
  8
0
 10
0.6554131325908519
 20
0.3363497863050395
 30
0.0
 40
0.0035534166756107
 50
68.23358567947129
 51
111.7664143205028
  0
POLYLINE
  5
177
  8
0
 66
     1
 10
0.0
 20
0.0
 30
0.0
  0
VERTEX
  5
620
  8
0
 10
0.6567308230396775
 20
0.3396498562969612
 30
0.0
  0
VERTEX
  5
621
  8
0
 10
0.6572085181403689
 20
0.3395375035394543
 30
0.0
  0
VERTEX
  5
622
  8
0
 10
0.6576256384370474
 20
0.3394506034776464
 30
0.0
  0
VERTEX
  5
623
  8
0
 10
0.6579224282656268
 20
0.3394020249185046
 30
0.0
  0
VERTEX
  5
624
  8
0
 10
0.6580694431072135
 20
0.3393957567173249
 30
0.0
  0
VERTEX
  5
625
  8
0
 10
0.6580658519502874
 20
0.3394109998429206
 30
0.0
  0
SEQEND
  5
626
  8
0
  0
ARC
  5
178
  8
0
 10
0.6563466930338472
 20
0.3355877318319431
 30
0.0
 40
0.0042073523212627
 50
65.948658509455015
 51
74.902140850981993
  0
POLYLINE
  5
179
  8
0
 66
     1
 10
0.0
 20
0.0
 30
0.0
  0
VERTEX
  5
627
  8
0
 10
0.6574425755028813
 20
0.3396498562969612
 30
0.0
  0
VERTEX
  5
628
  8
0
 10
0.6567774427859509
 20
0.3398290223806781
 30
0.0
  0
VERTEX
  5
629
  8
0
 10
0.6563393038336124
 20
0.3399072799226779
 30
0.0
  0
VERTEX
  5
62A
  8
0
 10
0.6562863416887022
 20
0.3399094642958162
 30
0.0
  0
VERTEX
  5
62B
  8
0
 10
0.6562109778475312
 20
0.3398657293466767
 30
0.0
  0
SEQEND
  5
62C
  8
0
  0
LINE
  5
17A
  8
0
 10
0.651186287467006
 20
0.3275843762945756
 30
0.0
 11
0.6107144801669278
 21
0.3275843762945756
 31
0.0
  0
LINE
  5
17B
  8
0
 10
0.6898206748741456
 20
0.3275843762945756
 30
0.0
 11
0.651186287467006
 21
0.3275843762945756
 31
0.0
  0
LINE
  5
17C
  8
0
 10
0.6519957223664905
 20
0.3225658739819765
 30
0.0
 11
0.6107144801669278
 21
0.3225658739819765
 31
0.0
  0
LINE
  5
17D
  8
0
 10
0.6377633056281901
 20
0.2533105135762843
 30
0.0
 11
0.6646092663379238
 21
0.2533105135762843
 31
0.0
  0
LINE
  5
17E
  8
0
 10
0.6646092663379238
 20
0.2533105135762843
 30
0.0
 11
0.6646092663379238
 21
0.3148276846530218
 31
0.0
  0
LINE
  5
17F
  8
0
 10
0.6377633056281901
 20
0.3148276846530218
 30
0.0
 11
0.6377633056281901
 21
0.2533105135762843
 31
0.0
  0
ARC
  5
180
  8
0
 10
0.7999898243481264
 20
0.8294622741544611
 30
0.0
 40
0.0446145995594008
 50
321.44577206680572
 51
37.401527628624997
  0
ARC
  5
181
  8
0
 10
1.01416961089413
 20
0.7351314681485511
 30
0.0
 40
0.1912342511467681
 50
159.6429508688671
 51
189.54647619276
  0
LINE
  5
182
  8
0
 10
0.8255836870425458
 20
0.7034157285748108
 30
0.0
 11
0.8260034072181225
 21
0.6969504352058533
 31
0.0
  0
LINE
  5
183
  8
0
 10
0.8260034072181225
 20
0.6969504352058533
 30
0.0
 11
0.8222971284857056
 21
0.5968290513438469
 31
0.0
  0
LINE
  5
184
  8
0
 10
0.7776825358449293
 20
0.5968290513438469
 30
0.0
 11
0.7739762571125118
 21
0.6969504352058533
 31
0.0
  0
LINE
  5
185
  8
0
 10
0.7739762571125118
 20
0.6969504352058533
 30
0.0
 11
0.774395977288089
 21
0.7034157285748108
 31
0.0
  0
ARC
  5
186
  8
0
 10
0.5858045909393358
 20
0.7351309512820281
 30
0.0
 40
0.1912395522801517
 50
350.45394793920212
 51
20.356624999172698
  0
ARC
  5
187
  8
0
 10
0.7999898490492793
 20
0.8294622742456677
 30
0.0
 40
0.0446146067066307
 50
142.59847953689041
 51
218.55422076767809
  0
ARC
  5
188
  8
0
 10
0.7999898321653171
 20
0.8282139685841997
 30
0.0
 40
0.0291803626280104
 50
103.7254719232002
 51
76.27452807680055
  0
LINE
  5
189
  8
0
 10
0.7783095859750056
 20
0.5915771535100529
 30
0.0
 11
0.7776825358449293
 21
0.5968290513438469
 31
0.0
  0
LINE
  5
18A
  8
0
 10
0.8222971284857056
 20
0.5968290513438469
 30
0.0
 11
0.8216700783556286
 21
0.5915771535100529
 31
0.0
  0
ARC
  5
18B
  8
0
 10
0.7999898321653171
 20
0.5968290485326832
 30
0.0
 40
0.0223072964789833
 50
193.6172042744555
 51
346.38279572554541
  0
POLYLINE
  5
18C
  8
0
 66
     1
 10
0.0
 20
0.0
 30
0.0
  0
VERTEX
  5
62D
  8
0
 10
0.8069134580665496
 20
0.8565610489891016
 30
0.0
  0
VERTEX
  5
62E
  8
0
 10
0.7977691621874193
 20
0.8573065019373405
 30
0.0
  0
VERTEX
  5
62F
  8
0
 10
0.7930662062640848
 20
0.8565610489891016
 30
0.0
  0
SEQEND
  5
630
  8
0
  0
ARC
  5
18D
  8
0
 10
0.7999898321653165
 20
0.840934599852207
 30
0.0
 40
0.0028680808669508
 50
13.341755903549849
 51
166.6582417727578
  0
ARC
  5
18E
  8
0
 10
0.7923154784219875
 20
0.8427546469831085
 30
0.0
 40
0.0050191415171627
 50
253.34175931137941
 51
346.65824177279183
  0
ARC
  5
18F
  8
0
 10
0.790054508601769
 20
0.8351984381183065
 30
0.0
 40
0.0028680808669505
 50
73.341756329942342
 51
226.65824177276451
  0
ARC
  5
190
  8
0
 10
0.7846411246786597
 20
0.8294622763844065
 30
0.0
 40
0.0050191415171619
 50
313.34175931135809
 51
46.658241772792387
  0
ARC
  5
191
  8
0
 10
0.790054508601769
 20
0.8237261146505061
 30
0.0
 40
0.0028680808669507
 50
133.34175632996559
 51
286.65824177278
  0
ARC
  5
192
  8
0
 10
0.7923154784219875
 20
0.8161699057857035
 30
0.0
 40
0.005019141517163
 50
13.341758227220829
 51
106.65824177277911
  0
ARC
  5
193
  8
0
 10
0.7999898321653165
 20
0.8179899529166048
 30
0.0
 40
0.0028680808669505
 50
193.34175822722159
 51
346.65824177278211
  0
ARC
  5
194
  8
0
 10
0.8076641859086461
 20
0.8161699057857035
 30
0.0
 40
0.0050191415171629
 50
73.341759555034102
 51
166.65824177277921
  0
ARC
  5
195
  8
0
 10
0.8099251557288653
 20
0.8237261146505061
 30
0.0
 40
0.0028680808669508
 50
253.3417559035436
 51
46.658241772775852
  0
ARC
  5
196
  8
0
 10
0.8153385396519746
 20
0.8294622763844065
 30
0.0
 40
0.005019141517162
 50
133.34175822721059
 51
226.65824177279069
  0
ARC
  5
197
  8
0
 10
0.8099251557288653
 20
0.8351984381183065
 30
0.0
 40
0.0028680808669508
 50
313.34175822723199
 51
106.6582417727861
  0
ARC
  5
198
  8
0
 10
0.8076641859086468
 20
0.8427546469831085
 30
0.0
 40
0.0050191415171627
 50
193.34175955503201
 51
286.65824177277699
  0
CIRCLE
  5
199
  8
0
 10
0.7999898321653165
 20
0.8294622763844065
 30
0.0
 40
0.0274061060619697
  0
LINE
  5
19A
  8
0
 10
0.7835913141544699
 20
0.8709538479828678
 30
0.0
 11
0.8163883501761649
 21
0.8709538479828678
 31
0.0
  0
ARC
  5
19B
  8
0
 10
0.7999900808330388
 20
0.8294619504194988
 30
0.0
 40
0.0446149875264719
 50
111.5653276937871
 51
142.5983299728629
  0
ARC
  5
19C
  8
0
 10
0.79998971893045
 20
0.829462129611927
 30
0.0
 40
0.0446147710977697
 50
37.401592859949929
 51
68.434749473401382
  0
LINE
  5
19D
  8
0
 10
0.604781313153223
 20
0.8292405307497878
 30
0.0
 11
0.604781313153223
 21
0.2383521162703978
 31
0.0
  0
LINE
  5
19E
  8
0
 10
0.604781313153223
 20
1.420128945229177
 30
0.0
 11
0.604781313153223
 21
0.8292405307497878
 31
0.0
  0
LINE
  5
19F
  8
0
 10
0.2714555229386805
 20
0.8292405307497878
 30
0.0
 11
0.2714555229386805
 21
1.3544055262426959
 31
0.0
  0
LINE
  5
1A0
  8
0
 10
0.2714555229386805
 20
0.3040755352568788
 30
0.0
 11
0.2714555229386805
 21
0.8292405307497878
 31
0.0
  0
LINE
  5
1A6
  8
0
 10
0.6383243452485435
 20
0.829462276389116
 30
0.0
 11
0.6383243452485435
 21
1.360517877147507
 31
0.0
  0
LINE
  5
1A7
  8
0
 10
0.9620987977133744
 20
1.360517877147507
 30
0.0
 11
0.9620987977133744
 21
0.829462276389116
 31
0.0
  0
LINE
  5
1AA
  8
0
 10
0.9620987977133744
 20
1.370335637190538
 30
0.0
 11
0.9620987977133744
 21
1.360517877147507
 31
0.0
  0
LINE
  5
1AB
  8
0
 10
0.6383243452485435
 20
1.360517877147507
 30
0.0
 11
0.6383243452485435
 21
1.370335637190538
 31
0.0
  0
LINE
  5
1AC
  8
0
 10
0.6383243452485435
 20
1.370335637190538
 30
0.0
 11
0.6383243452485435
 21
1.7633298649606151
 31
0.0
  0
LINE
  5
1AD
  8
0
 10
0.9620987977133744
 20
1.7633298649606151
 30
0.0
 11
0.9620987977133744
 21
1.370335637190538
 31
0.0
  0
LINE
  5
1B0
  8
0
 10
0.6383243452485435
 20
1.7633298649606151
 30
0.0
 11
0.9620987977133744
 21
1.7633298649606151
 31
0.0
  0
LINE
  5
1B1
  8
0
 10
0.6898206748741439
 20
0.3225658739819765
 30
0.0
 11
0.6528051602338728
 21
0.3225658739819765
 31
0.0
  0
LINE
  5
1B2
  8
0
 10
0.6898206748741439
 20
0.3148276846530218
 30
0.0
 11
0.6528051602338728
 21
0.3148276846530218
 31
0.0
  0
LINE
  5
1B3
  8
0
 10
0.6123333499658961
 20
0.3148276846530218
 30
0.0
 11
0.6123333499658961
 21
0.3225658739819765
 31
0.0
  0
LINE
  5
1B4
  8
0
 10
0.6519957223664905
 20
0.3225658739819765
 30
0.0
 11
0.6528051602338728
 21
0.3225658739819765
 31
0.0
  0
LINE
  5
1B5
  8
0
 10
0.6528051602338728
 20
0.3148276846530218
 30
0.0
 11
0.6123333499658961
 21
0.3148276846530218
 31
0.0
  0
LINE
  5
1B6
  8
0
 10
1.2774713260124131
 20
0.8292405307497878
 30
0.0
 11
1.2774713260124131
 21
0.1662865598222269
 31
0.0
  0
LINE
  5
1B7
  8
0
 10
1.2774713260124131
 20
1.4921945016773479
 30
0.0
 11
1.2774713260124131
 21
0.8292405307497878
 31
0.0
  0
LINE
  5
1B8
  8
0
 10
1.439358543341134
 20
0.8292405307497878
 30
0.0
 11
1.439358543341134
 21
0.2268137350035691
 31
0.0
  0
LINE
  5
1B9
  8
0
 10
1.439358543341134
 20
1.431667326496006
 30
0.0
 11
1.439358543341134
 21
0.8292405307497878
 31
0.0
  0
LINE
  5
1BB
  8
0
 10
0.6898206748741433
 20
0.7110506058670607
 30
0.0
 11
0.6898206748741456
 21
0.2828711129073893
 31
0.0
  0
LINE
  5
4A2
  8
0
 10
0.4333861009532231
 20
0.2385980801076301
 30
0.0
 11
0.4333861009532231
 21
1.4198829813919449
 31
0.0
  0
ARC
  5
4A4
  8
0
 10
0.800211577799936
 20
0.8294622763844067
 30
0.0
 40
0.1618872311567531
 50
179.99999999833321
 51
261.0371438223039
  0
ARC
  5
4A6
  8
0
 10
0.800211577799936
 20
0.8294622763844067
 30
0.0
 40
0.1618872311567531
 50
278.8030639400929
 51
0.0000000016668142
  0
TEXT
  5
5A2
  8
0
 10
1.8019540535099501
 20
0.7667405307497872
 30
0.0
 40
0.125
  1
LP1
 41
0.7500000000000002
 51
15.0
  7
P125
 72
     2
 11
1.9939183392242359
 21
0.8292405307497872
 31
0.0
 73
     2
  0
ENDSEC
  0
EOF
