  0
SECTION
  2
HEADER
  9
$ACADVER
  1
AC1009
  9
$INSBASE
 10
0.0
 20
0.0
 30
0.0
  9
$EXTMIN
 10
0.1685639408
 20
0.7406037145000001
 30
-0.0000000000000001
  9
$EXTMAX
 10
11.21712246526044
 20
8.2437724950000018
 30
0.0000000000000001
  9
$LIMMIN
 10
0.0
 20
0.0
  9
$LIMMAX
 10
11.0
 20
8.5
  9
$ORTHOMODE
 70
     1
  9
$REGENMODE
 70
     1
  9
$FILLMODE
 70
     1
  9
$QTEXTMODE
 70
     0
  9
$MIRRTEXT
 70
     1
  9
$DRAGMODE
 70
     2
  9
$LTSCALE
 40
1.0
  9
$OSMODE
 70
  1583
  9
$ATTMODE
 70
     1
  9
$TEXTSIZE
 40
0.1388888889
  9
$TRACEWID
 40
0.05
  9
$TEXTSTYLE
  7
STANDARD
  9
$CLAYER
  8
0
  9
$CELTYPE
  6
BYLAYER
  9
$CECOLOR
 62
   256
  9
$DIMSCALE
 40
1.0
  9
$DIMASZ
 40
0.1011149089
  9
$DIMEXO
 40
0.05
  9
$DIMDLI
 40
0.38
  9
$DIMRND
 40
0.0
  9
$DIMDLE
 40
0.0
  9
$DIMEXE
 40
0.125
  9
$DIMTP
 40
0.0
  9
$DIMTM
 40
0.0
  9
$DIMTXT
 40
0.1388888889
  9
$DIMCEN
 40
0.09
  9
$DIMTSZ
 40
0.0
  9
$DIMTOL
 70
     0
  9
$DIMLIM
 70
     0
  9
$DIMTIH
 70
     1
  9
$DIMTOH
 70
     1
  9
$DIMSE1
 70
     0
  9
$DIMSE2
 70
     0
  9
$DIMTAD
 70
     0
  9
$DIMZIN
 70
     0
  9
$DIMBLK
  1

  9
$DIMASO
 70
     1
  9
$DIMSHO
 70
     1
  9
$DIMPOST
  1

  9
$DIMAPOST
  1

  9
$DIMALT
 70
     0
  9
$DIMALTD
 70
     2
  9
$DIMALTF
 40
25.399999999999999
  9
$DIMLFAC
 40
4.0
  9
$DIMTOFL
 70
     0
  9
$DIMTVP
 40
0.0
  9
$DIMTIX
 70
     0
  9
$DIMSOXD
 70
     0
  9
$DIMSAH
 70
     0
  9
$DIMBLK1
  1

  9
$DIMBLK2
  1

  9
$DIMSTYLE
  2
STANDARD
  9
$DIMCLRD
 70
     0
  9
$DIMCLRE
 70
     0
  9
$DIMCLRT
 70
     0
  9
$DIMTFAC
 40
1.0
  9
$DIMGAP
 40
0.06
  9
$LUNITS
 70
     2
  9
$LUPREC
 70
     2
  9
$SKETCHINC
 40
0.1
  9
$FILLETRAD
 40
0.5
  9
$AUNITS
 70
     0
  9
$AUPREC
 70
     0
  9
$MENU
  1
.
  9
$ELEVATION
 40
0.0
  9
$PELEVATION
 40
0.0
  9
$THICKNESS
 40
0.0
  9
$LIMCHECK
 70
     0
  9
$BLIPMODE
 70
     0
  9
$CHAMFERA
 40
0.0
  9
$CHAMFERB
 40
0.0
  9
$SKPOLY
 70
     0
  9
$TDCREATE
 40
2459520.6362177888
  9
$TDUPDATE
 40
2459550.680275151
  9
$TDINDWG
 40
0.0070721644
  9
$TDUSRTIMER
 40
0.0070721181
  9
$USRTIMER
 70
     1
  9
$ANGBASE
 50
0.0
  9
$ANGDIR
 70
     0
  9
$PDMODE
 70
     0
  9
$PDSIZE
 40
-1.0
  9
$PLINEWID
 40
0.0
  9
$COORDS
 70
     1
  9
$SPLFRAME
 70
     0
  9
$SPLINETYPE
 70
     6
  9
$SPLINESEGS
 70
     8
  9
$ATTDIA
 70
     1
  9
$ATTREQ
 70
     1
  9
$HANDLING
 70
     1
  9
$HANDSEED
  5
22F0
  9
$SURFTAB1
 70
     6
  9
$SURFTAB2
 70
     6
  9
$SURFTYPE
 70
     6
  9
$SURFU
 70
     6
  9
$SURFV
 70
     6
  9
$UCSNAME
  2

  9
$UCSORG
 10
0.0
 20
0.0
 30
0.0
  9
$UCSXDIR
 10
1.0
 20
0.0
 30
0.0
  9
$UCSYDIR
 10
0.0
 20
1.0
 30
0.0
  9
$PUCSNAME
  2

  9
$PUCSORG
 10
0.0
 20
0.0
 30
0.0
  9
$PUCSXDIR
 10
1.0
 20
0.0
 30
0.0
  9
$PUCSYDIR
 10
0.0
 20
1.0
 30
0.0
  9
$USERI1
 70
     0
  9
$USERI2
 70
     0
  9
$USERI3
 70
     0
  9
$USERI4
 70
     0
  9
$USERI5
 70
     0
  9
$USERR1
 40
0.0
  9
$USERR2
 40
0.0
  9
$USERR3
 40
0.0
  9
$USERR4
 40
0.0
  9
$USERR5
 40
0.0
  9
$WORLDVIEW
 70
     1
  9
$SHADEDGE
 70
     3
  9
$SHADEDIF
 70
    70
  9
$TILEMODE
 70
     1
  9
$MAXACTVP
 70
    64
  9
$PLIMCHECK
 70
     0
  9
$PEXTMIN
 10
1.0000000000000000E+020
 20
1.0000000000000000E+020
 30
1.0000000000000000E+020
  9
$PEXTMAX
 10
-1.0000000000000000E+020
 20
-1.0000000000000000E+020
 30
-1.0000000000000000E+020
  9
$PLIMMIN
 10
0.0
 20
0.0
  9
$PLIMMAX
 10
12.0
 20
9.0
  9
$UNITMODE
 70
     0
  9
$VISRETAIN
 70
     1
  9
$PLINEGEN
 70
     0
  9
$PSLTSCALE
 70
     1
  0
ENDSEC
  0
SECTION
  2
TABLES
  0
TABLE
  2
VPORT
 70
     1
  0
VPORT
  2
*ACTIVE
 70
     0
 10
0.0
 20
0.0
 11
1.0
 21
1.0
 12
10.56531387073124
 22
3.049554310720981
 13
0.0
 23
0.0
 14
0.5
 24
0.5
 15
0.5
 25
0.5
 16
0.0
 26
0.0
 36
1.0
 17
0.0
 27
0.0
 37
0.0
 40
3.0702845769809128
 41
2.2190923317683882
 42
50.0
 43
0.0
 44
0.0
 50
0.0
 51
0.0
 71
     0
 72
  2000
 73
     1
 74
     3
 75
     0
 76
     0
 77
     0
 78
     0
  0
ENDTAB
  0
TABLE
  2
LTYPE
 70
     8
  0
LTYPE
  2
CONTINUOUS
 70
     0
  3
Solid line
 72
    65
 73
     0
 40
0.0
  0
LTYPE
  2
HIDDEN
 70
     0
  3
Hidden __ __ __ __ __ __ __ __ __ __ __ __ __ __
 72
    65
 73
     2
 40
0.075
 49
0.05
 49
-0.025
  0
LTYPE
  2
PHANTOM
 70
     0
  3
Phantom ______  __  __  ______  __  __  ______
 72
    65
 73
     6
 40
0.5
 49
0.25
 49
-0.05
 49
0.05
 49
-0.05
 49
0.05
 49
-0.05
  0
LTYPE
  2
CENTER
 70
     0
  3
Center ____ _ ____ _ ____ _ ____ _ ____ _ ____
 72
    65
 73
     4
 40
0.4
 49
0.25
 49
-0.05
 49
0.05
 49
-0.05
  0
LTYPE
  2
CENTERX2
 70
     0
  3
Center (2x) ________  __  ________  __  _____
 72
    65
 73
     4
 40
0.8
 49
0.5
 49
-0.1
 49
0.1
 49
-0.1
  0
LTYPE
  2
DOT2
 70
     0
  3
Dot (.5x) ........................................
 72
    65
 73
     2
 40
0.025
 49
0.0
 49
-0.025
  0
ENDTAB
  0
TABLE
  2
LAYER
 70
     1
  0
LAYER
  2
0
 70
     0
 62
     7
  6
CONTINUOUS
  0
ENDTAB
  0
TABLE
  2
STYLE
 70
     2
  0
STYLE
  2
STANDARD
 70
     0
 40
0.0
 41
1.0
 50
0.0
 71
     0
 42
0.1388888889
  3
txt
  4

  0
STYLE
  2
SLDTEXTSTYLE0
 70
     0
 40
0.0
 41
0.605
 50
0.0
 71
     0
 42
0.1388888889
  3
TXT
  4

  0
ENDTAB
  0
TABLE
  2
VIEW
 70
     0
  0
ENDTAB
  0
TABLE
  2
UCS
 70
     0
  0
ENDTAB
  0
TABLE
  2
APPID
 70
     4
  0
APPID
  2
ACAD
 70
     0
  0
APPID
  2
ACAD_EXEMPT_FROM_CAD_STANDARDS
 70
     0
  0
APPID
  2
ACAD_NAV_VCDISPLAY
 70
     0
  0
APPID
  2
ACAD_MLEADERVER
 70
     0
  0
ENDTAB
  0
TABLE
  2
DIMSTYLE
 70
     5
  0
DIMSTYLE
  2
STANDARD
 70
     0
  3

  4

  5

  6

  7

 40
1.0
 41
0.18
 42
0.0625
 43
0.38
 44
0.18
 45
0.0
 46
0.0
 47
0.0
 48
0.0
140
0.18
141
0.09
142
0.0
143
25.399999999999999
144
1.0
145
0.0
146
1.0
147
0.09
 71
     0
 72
     0
 73
     1
 74
     1
 75
     0
 76
     0
 77
     0
 78
     0
170
     0
171
     2
172
     0
173
     0
174
     0
175
     0
176
     0
177
     0
178
     0
  0
DIMSTYLE
  2
SLDDIMSTYLE0
 70
     0
  3

  4

  5

  6

  7

 40
1.0
 41
0.1011149089
 42
0.0625
 43
0.38
 44
0.0
 45
0.000000001
 46
0.0
 47
0.0
 48
0.0
140
0.1011149089
141
0.09
142
0.0
143
25.399999999999999
144
0.1666666667
145
0.0
146
1.0
147
0.0252787272
 71
     0
 72
     0
 73
     1
 74
     1
 75
     0
 76
     0
 77
     0
 78
    12
170
     0
171
     2
172
     0
173
     1
174
     0
175
     0
176
     0
177
     0
178
     0
  0
DIMSTYLE
  2
SLDDIMSTYLE1
 70
     0
  3

  4

  5

  6

  7

 40
1.0
 41
0.1011149089
 42
0.0625
 43
0.38
 44
0.0
 45
0.000000001
 46
0.0
 47
0.0
 48
0.0
140
0.1011149089
141
0.09
142
0.0
143
25.399999999999999
144
0.1666666667
145
0.0
146
1.0
147
0.0252787272
 71
     0
 72
     0
 73
     1
 74
     1
 75
     0
 76
     0
 77
     0
 78
    12
170
     0
171
     2
172
     0
173
     1
174
     0
175
     0
176
     0
177
     0
178
     0
  0
DIMSTYLE
  2
SLDDIMSTYLE2
 70
     0
  3

  4

  5

  6

  7

 40
1.0
 41
0.1011149089
 42
0.0625
 43
0.38
 44
0.0
 45
0.000000001
 46
0.0
 47
0.0
 48
0.0
140
0.1011149089
141
0.09
142
0.0
143
25.399999999999999
144
0.1666666667
145
0.0
146
1.0
147
0.0252787272
 71
     0
 72
     0
 73
     1
 74
     1
 75
     0
 76
     0
 77
     0
 78
    12
170
     0
171
     2
172
     1
173
     1
174
     0
175
     0
176
     0
177
     0
178
     0
  0
ENDTAB
  0
ENDSEC
  0
SECTION
  2
BLOCKS
  0
BLOCK
  8
0
  2
$MODEL_SPACE
 70
     0
 10
0.0
 20
0.0
 30
0.0
  3
$MODEL_SPACE
  1

  0
ENDBLK
  5
21
  8
0
  0
BLOCK
 67
     1
  8
0
  2
$PAPER_SPACE
 70
     0
 10
0.0
 20
0.0
 30
0.0
  3
$PAPER_SPACE
  1

  0
ENDBLK
  5
1D
 67
     1
  8
0
  0
BLOCK
  8
0
  2
SW_BROKEN_VIEW_0
 70
     0
 10
0.0
 20
0.0
 30
0.0
  3
SW_BROKEN_VIEW_0
  1

  0
ENDBLK
  5
BD0
  8
0
  0
BLOCK
  8
0
  2
_D
 70
     0
 10
0.0
 20
0.0
 30
0.0
  3
_D
  1

  0
SOLID
  5
105D
  8
0
  6
CONTINUOUS
 62
     7
 10
1.8045951057999989
 20
3.8176514401999988
 30
0.0
 11
1.905710014699999
 21
3.8020953004
 31
0.0
 12
1.905710014699999
 22
3.8332075799999989
 32
0.0
 13
1.905710014699999
 23
3.8332075799999989
 33
0.0
  0
SOLID
  5
105E
  8
0
  6
CONTINUOUS
 62
     7
 10
5.4435862355999989
 20
3.8176514401999988
 30
0.0
 11
5.3424713267000001
 21
3.8332075799999989
 31
0.0
 12
5.3424713267000001
 22
3.8020953004
 32
0.0
 13
5.3424713267000001
 23
3.8020953004
 33
0.0
  0
LINE
  5
105F
  8
0
  6
CONTINUOUS
 62
     7
 10
1.8045951057999989
 20
3.3781410407000001
 30
0.0
 11
1.8045951057999989
 21
3.9426514401999988
 31
0.0
  0
LINE
  5
1060
  8
0
  6
CONTINUOUS
 62
     7
 10
5.4435862355999989
 20
3.3781410407000001
 30
0.0
 11
5.4435862355999989
 21
3.9426514401999988
 31
0.0
  0
LINE
  5
1061
  8
0
  6
CONTINUOUS
 62
     7
 10
1.8045951057999989
 20
3.8176514401999988
 30
0.0
 11
3.4858769281999988
 21
3.8176514401999988
 31
0.0
  0
LINE
  5
1062
  8
0
  6
CONTINUOUS
 62
     7
 10
5.4435862355999989
 20
3.8176514401999988
 30
0.0
 11
4.6032828975999989
 21
3.8176514401999988
 31
0.0
  0
LINE
  5
1063
  8
0
  6
CONTINUOUS
 62
     7
 10
4.6032828975999989
 20
3.8176514401999988
 30
0.0
 11
4.5685606753999997
 21
3.887095884599999
 31
0.0
  0
LINE
  5
1064
  8
0
  6
CONTINUOUS
 62
     7
 10
4.5685606753999997
 20
3.887095884599999
 30
0.0
 11
4.4991162308999986
 21
3.7482069957999991
 31
0.0
  0
LINE
  5
1065
  8
0
  6
CONTINUOUS
 62
     7
 10
4.4991162308999986
 20
3.7482069957999991
 30
0.0
 11
4.4643940087000002
 21
3.8176514401999988
 31
0.0
  0
LINE
  5
1066
  8
0
  6
CONTINUOUS
 62
     7
 10
4.4643940087000002
 20
3.8176514401999988
 30
0.0
 11
3.762304413199999
 21
3.8176514401999988
 31
0.0
  0
INSERT
  5
1067
  8
0
  2
*U14
 10
0.0
 20
0.0
 30
0.0
  0
INSERT
  5
1068
  8
0
  2
*U15
 10
0.0
 20
0.0
 30
0.0
  0
ENDBLK
  5
105C
  8
0
  0
BLOCK
  8
0
  2
_D_1
 70
     0
 10
0.0
 20
0.0
 30
0.0
  3
_D_1
  1

  0
SOLID
  5
106D
  8
0
  6
CONTINUOUS
 62
     7
 10
5.4435862355999989
 20
3.8176514401999988
 30
0.0
 11
5.5447011444000003
 21
3.8020953004
 31
0.0
 12
5.5447011444000003
 22
3.8332075799999989
 32
0.0
 13
5.5447011444000003
 23
3.8332075799999989
 33
0.0
  0
SOLID
  5
106E
  8
0
  6
CONTINUOUS
 62
     7
 10
6.9402857286000001
 20
3.8176514401999988
 30
0.0
 11
6.8391708197999996
 21
3.8332075799999989
 31
0.0
 12
6.8391708197999996
 22
3.8020953004
 32
0.0
 13
6.8391708197999996
 23
3.8020953004
 33
0.0
  0
LINE
  5
106F
  8
0
  6
CONTINUOUS
 62
     7
 10
5.4435862355999989
 20
3.3781410407000001
 30
0.0
 11
5.4435862355999989
 21
3.9426514401999988
 31
0.0
  0
LINE
  5
1070
  8
0
  6
CONTINUOUS
 62
     7
 10
6.9402857286000001
 20
2.693026598199999
 30
0.0
 11
6.9402857286000001
 21
3.9426514401999988
 31
0.0
  0
LINE
  5
1071
  8
0
  6
CONTINUOUS
 62
     7
 10
5.4435862355999989
 20
3.8176514401999988
 30
0.0
 11
6.1286643738999986
 21
3.8176514401999988
 31
0.0
  0
LINE
  5
1072
  8
0
  6
CONTINUOUS
 62
     7
 10
6.9402857286000001
 20
3.8176514401999988
 30
0.0
 11
6.2552075902999986
 21
3.8176514401999988
 31
0.0
  0
INSERT
  5
1073
  8
0
  2
*U16
 10
0.0
 20
0.0
 30
0.0
  0
ENDBLK
  5
106C
  8
0
  0
BLOCK
  8
0
  2
_D_2
 70
     0
 10
0.0
 20
0.0
 30
0.0
  3
_D_2
  1

  0
SOLID
  5
1078
  8
0
  6
CONTINUOUS
 62
     7
 10
1.8045951057999989
 20
3.8176514401999988
 30
0.0
 11
1.703480197
 21
3.8332075799999989
 31
0.0
 12
1.703480197
 22
3.8020953004
 32
0.0
 13
1.703480197
 23
3.8020953004
 33
0.0
  0
SOLID
  5
1079
  8
0
  6
CONTINUOUS
 62
     7
 10
0.3078956128
 20
3.8176514401999988
 30
0.0
 11
0.4090105216
 21
3.8020953004
 31
0.0
 12
0.4090105216
 22
3.8332075799999989
 32
0.0
 13
0.4090105216
 23
3.8332075799999989
 33
0.0
  0
LINE
  5
107A
  8
0
  6
CONTINUOUS
 62
     7
 10
1.8045951057999989
 20
3.3781410407000001
 30
0.0
 11
1.8045951057999989
 21
3.9426514401999988
 31
0.0
  0
LINE
  5
107B
  8
0
  6
CONTINUOUS
 62
     7
 10
0.3078956128
 20
2.693026598199999
 30
0.0
 11
0.3078956128
 21
3.9426514401999988
 31
0.0
  0
LINE
  5
107C
  8
0
  6
CONTINUOUS
 62
     7
 10
1.8045951057999989
 20
3.8176514401999988
 30
0.0
 11
1.1195169675000001
 21
3.8176514401999988
 31
0.0
  0
LINE
  5
107D
  8
0
  6
CONTINUOUS
 62
     7
 10
0.3078956128
 20
3.8176514401999988
 30
0.0
 11
0.9929737509999999
 21
3.8176514401999988
 31
0.0
  0
INSERT
  5
107E
  8
0
  2
*U17
 10
0.0
 20
0.0
 30
0.0
  0
ENDBLK
  5
1077
  8
0
  0
BLOCK
  8
0
  2
_D_3
 70
     0
 10
0.0
 20
0.0
 30
0.0
  3
_D_3
  1

  0
SOLID
  5
1368
  8
0
  6
CONTINUOUS
 62
     7
 10
8.3097059167999987
 20
3.792808402099999
 30
0.0
 11
8.4108208256000001
 21
3.7772522623000002
 31
0.0
 12
8.4108208256000001
 22
3.8083645418999992
 32
0.0
 13
8.4108208256000001
 23
3.8083645418999992
 33
0.0
  0
SOLID
  5
1369
  8
0
  6
CONTINUOUS
 62
     7
 10
9.1992059167999987
 20
3.792808402099999
 30
0.0
 11
9.098091007899999
 21
3.8083645418999992
 31
0.0
 12
9.098091007899999
 22
3.7772522623000002
 32
0.0
 13
9.098091007899999
 23
3.7772522623000002
 33
0.0
  0
LINE
  5
136A
  8
0
  6
CONTINUOUS
 62
     7
 10
8.3097059167999987
 20
3.3156410407000001
 30
0.0
 11
8.3097059167999987
 21
3.9178084020999999
 31
0.0
  0
LINE
  5
136B
  8
0
  6
CONTINUOUS
 62
     7
 10
9.1992059167999987
 20
3.3156410407000001
 30
0.0
 11
9.1992059167999987
 21
3.9178084020999999
 31
0.0
  0
LINE
  5
136C
  8
0
  6
CONTINUOUS
 62
     7
 10
8.3097059167999987
 20
3.792808402099999
 30
0.0
 11
8.5754435630999986
 21
3.792808402099999
 31
0.0
  0
LINE
  5
136D
  8
0
  6
CONTINUOUS
 62
     7
 10
9.1992059167999987
 20
3.792808402099999
 30
0.0
 11
8.9334682704999988
 21
3.792808402099999
 31
0.0
  0
INSERT
  5
136E
  8
0
  2
*U18
 10
0.0
 20
0.0
 30
0.0
  0
ENDBLK
  5
1367
  8
0
  0
BLOCK
  8
0
  2
_D_4
 70
     0
 10
0.0
 20
0.0
 30
0.0
  3
_D_4
  1

  0
SOLID
  5
1373
  8
0
  6
CONTINUOUS
 62
     7
 10
9.5929067041999971
 20
2.6169469184
 30
0.0
 11
9.6084628439999982
 21
2.7180618273000001
 31
0.0
 12
9.5773505644000014
 22
2.7180618273000001
 32
0.0
 13
9.5773505644000014
 23
2.7180618273000001
 33
0.0
  0
SOLID
  5
1374
  8
0
  6
CONTINUOUS
 62
     7
 10
9.5929067041999971
 20
3.3281410406999989
 30
0.0
 11
9.5773505644000014
 21
3.2270261318999989
 31
0.0
 12
9.6084628439999982
 22
3.2270261318999989
 32
0.0
 13
9.6084628439999982
 23
3.2270261318999989
 33
0.0
  0
LINE
  5
1375
  8
0
  6
CONTINUOUS
 62
     7
 10
9.0045856873000005
 20
2.6169469184
 30
0.0
 11
9.7179067041999971
 21
2.6169469184
 31
0.0
  0
LINE
  5
1376
  8
0
  6
CONTINUOUS
 62
     7
 10
9.0819559168000001
 20
3.3281410406999989
 30
0.0
 11
9.7179067041999971
 21
3.3281410406999989
 31
0.0
  0
LINE
  5
1377
  8
0
  6
CONTINUOUS
 62
     7
 10
9.5929067041999971
 20
2.6169469184
 30
0.0
 11
9.5929067041999971
 21
2.8949012297999999
 31
0.0
  0
LINE
  5
1378
  8
0
  6
CONTINUOUS
 62
     7
 10
9.5929067041999971
 20
3.3281410406999989
 30
0.0
 11
9.5929067041999971
 21
3.0501867293
 31
0.0
  0
INSERT
  5
1379
  8
0
  2
*U19
 10
0.0
 20
0.0
 30
0.0
  0
ENDBLK
  5
1372
  8
0
  0
BLOCK
  8
0
  2
_D_5
 70
     0
 10
0.0
 20
0.0
 30
0.0
  3
_D_5
  1

  0
SOLID
  5
1507
  8
0
  6
CONTINUOUS
 62
     7
 10
8.3078521561999992
 20
1.9635913997000001
 30
0.0
 11
8.4089670650000006
 21
1.9480352598999999
 31
0.0
 12
8.4089670650000006
 22
1.9791475394999991
 32
0.0
 13
8.4089670650000006
 23
1.9791475394999991
 33
0.0
  0
SOLID
  5
1508
  8
0
  6
CONTINUOUS
 62
     7
 10
9.1956066497000002
 20
1.9635913997000001
 30
0.0
 11
9.0944917408000006
 21
1.9791475394999991
 31
0.0
 12
9.0944917408000006
 22
1.9480352598999999
 32
0.0
 13
9.0944917408000006
 23
1.9480352598999999
 33
0.0
  0
LINE
  5
1509
  8
0
  6
CONTINUOUS
 62
     7
 10
8.3078521561999992
 20
1.5643948984999989
 30
0.0
 11
8.3078521561999992
 21
2.088591399699999
 31
0.0
  0
LINE
  5
150A
  8
0
  6
CONTINUOUS
 62
     7
 10
9.1956066497000002
 20
1.5643948984999989
 30
0.0
 11
9.1956066497000002
 21
2.088591399699999
 31
0.0
  0
LINE
  5
150B
  8
0
  6
CONTINUOUS
 62
     7
 10
8.3078521561999992
 20
1.9635913997000001
 30
0.0
 11
8.5727170491999996
 21
1.9635913997000001
 31
0.0
  0
LINE
  5
150C
  8
0
  6
CONTINUOUS
 62
     7
 10
9.1956066497000002
 20
1.9635913997000001
 30
0.0
 11
8.9307417565999998
 21
1.9635913997000001
 31
0.0
  0
INSERT
  5
150D
  8
0
  2
*U20
 10
0.0
 20
0.0
 30
0.0
  0
ENDBLK
  5
1506
  8
0
  0
BLOCK
  8
0
  2
_D_6
 70
     0
 10
0.0
 20
0.0
 30
0.0
  3
_D_6
  1

  0
SOLID
  5
1512
  8
0
  6
CONTINUOUS
 62
     7
 10
9.5901801902999981
 20
1.5760221452000001
 30
0.0
 11
9.5746240504999989
 21
1.4749072363999991
 31
0.0
 12
9.6057363300999992
 22
1.4749072363999991
 32
0.0
 13
9.6057363300999992
 23
1.4749072363999991
 33
0.0
  0
SOLID
  5
1513
  8
0
  6
CONTINUOUS
 62
     7
 10
9.5901801902999981
 20
0.8677676517
 30
0.0
 11
9.6057363300999992
 21
0.9688825605999999
 31
0.0
 12
9.5746240504999989
 22
0.9688825605999999
 32
0.0
 13
9.5746240504999989
 23
0.9688825605999999
 33
0.0
  0
LINE
  5
1514
  8
0
  6
CONTINUOUS
 62
     7
 10
9.1839794029000004
 20
1.5760221452000001
 30
0.0
 11
9.7151801902999981
 21
1.5760221452000001
 31
0.0
  0
LINE
  5
1515
  8
0
  6
CONTINUOUS
 62
     7
 10
9.1839794029000004
 20
0.8677676517
 30
0.0
 11
9.7151801902999981
 21
0.8677676517
 31
0.0
  0
LINE
  5
1516
  8
0
  6
CONTINUOUS
 62
     7
 10
9.5901801902999981
 20
1.5760221452000001
 30
0.0
 11
9.5901801902999981
 21
1.299537648199999
 31
0.0
  0
LINE
  5
1517
  8
0
  6
CONTINUOUS
 62
     7
 10
9.5901801902999981
 20
0.8677676517
 30
0.0
 11
9.5901801902999981
 21
1.1442521486999999
 31
0.0
  0
INSERT
  5
1518
  8
0
  2
*U21
 10
0.0
 20
0.0
 30
0.0
  0
ENDBLK
  5
1511
  8
0
  0
BLOCK
  8
0
  2
SW_BROKEN_VIEW_1
 70
     0
 10
0.0
 20
0.0
 30
0.0
  3
SW_BROKEN_VIEW_1
  1

  0
ENDBLK
  5
151B
  8
0
  0
BLOCK
  8
0
  2
_D_7
 70
     0
 10
0.0
 20
0.0
 30
0.0
  3
_D_7
  1

  0
SOLID
  5
1796
  8
0
  6
CONTINUOUS
 62
     7
 10
0.3390387739
 20
2.0443857888000001
 30
0.0
 11
0.4401536827000001
 21
2.0288296489999991
 31
0.0
 12
0.4401536827000001
 22
2.0599419285999998
 32
0.0
 13
0.4401536827000001
 23
2.0599419285999998
 33
0.0
  0
SOLID
  5
1797
  8
0
  6
CONTINUOUS
 62
     7
 10
1.8357382668999991
 20
2.0443857888000001
 30
0.0
 11
1.7346233579999999
 21
2.0599419285999998
 31
0.0
 12
1.7346233579999999
 22
2.0288296489999991
 32
0.0
 13
1.7346233579999999
 23
2.0288296489999991
 33
0.0
  0
LINE
  5
1798
  8
0
  6
CONTINUOUS
 62
     7
 10
0.3390387739
 20
0.9417804559999998
 30
0.0
 11
0.3390387739
 21
2.1693857888000001
 31
0.0
  0
LINE
  5
1799
  8
0
  6
CONTINUOUS
 62
     7
 10
1.8357382668999991
 20
1.6268948984999989
 30
0.0
 11
1.8357382668999991
 21
2.1693857888000001
 31
0.0
  0
LINE
  5
179A
  8
0
  6
CONTINUOUS
 62
     7
 10
0.3390387739
 20
2.0443857888000001
 30
0.0
 11
1.0241169120999991
 21
2.0443857888000001
 31
0.0
  0
LINE
  5
179B
  8
0
  6
CONTINUOUS
 62
     7
 10
1.8357382668999991
 20
2.0443857888000001
 30
0.0
 11
1.1506601285999991
 21
2.0443857888000001
 31
0.0
  0
INSERT
  5
179C
  8
0
  2
*U22
 10
0.0
 20
0.0
 30
0.0
  0
ENDBLK
  5
1795
  8
0
  0
BLOCK
  8
0
  2
_D_8
 70
     0
 10
0.0
 20
0.0
 30
0.0
  3
_D_8
  1

  0
SOLID
  5
17A1
  8
0
  6
CONTINUOUS
 62
     7
 10
1.8357382668999991
 20
2.0443857888000001
 30
0.0
 11
1.9368531756999989
 21
2.0288296489999991
 31
0.0
 12
1.9368531756999989
 22
2.0599419285999998
 32
0.0
 13
1.9368531756999989
 23
2.0599419285999998
 33
0.0
  0
SOLID
  5
17A2
  8
0
  6
CONTINUOUS
 62
     7
 10
5.3673345333999993
 20
2.0443857888000001
 30
0.0
 11
5.2662196245999988
 21
2.0599419285999998
 31
0.0
 12
5.2662196245999988
 22
2.0288296489999991
 32
0.0
 13
5.2662196245999988
 23
2.0288296489999991
 33
0.0
  0
LINE
  5
17A3
  8
0
  6
CONTINUOUS
 62
     7
 10
1.8357382668999991
 20
1.6268948984999989
 30
0.0
 11
1.8357382668999991
 21
2.1693857888000001
 31
0.0
  0
LINE
  5
17A4
  8
0
  6
CONTINUOUS
 62
     7
 10
5.3673345333999993
 20
1.5643948984999989
 30
0.0
 11
5.3673345333999993
 21
2.1693857888000001
 31
0.0
  0
LINE
  5
17A5
  8
0
  6
CONTINUOUS
 62
     7
 10
1.8357382668999991
 20
2.0443857888000001
 30
0.0
 11
3.4633226577
 21
2.0443857888000001
 31
0.0
  0
LINE
  5
17A6
  8
0
  6
CONTINUOUS
 62
     7
 10
5.3673345333999993
 20
2.0443857888000001
 30
0.0
 11
4.5538799112000001
 21
2.0443857888000001
 31
0.0
  0
LINE
  5
17A7
  8
0
  6
CONTINUOUS
 62
     7
 10
4.5538799112000001
 20
2.0443857888000001
 30
0.0
 11
4.519157689
 21
2.113830233199999
 31
0.0
  0
LINE
  5
17A8
  8
0
  6
CONTINUOUS
 62
     7
 10
4.519157689
 20
2.113830233199999
 30
0.0
 11
4.449713244599999
 21
1.974941344399999
 31
0.0
  0
LINE
  5
17A9
  8
0
  6
CONTINUOUS
 62
     7
 10
4.449713244599999
 20
1.974941344399999
 30
0.0
 11
4.4149910223999989
 21
2.0443857888000001
 31
0.0
  0
LINE
  5
17AA
  8
0
  6
CONTINUOUS
 62
     7
 10
4.4149910223999989
 20
2.0443857888000001
 30
0.0
 11
3.7397501426999988
 21
2.0443857888000001
 31
0.0
  0
INSERT
  5
17AB
  8
0
  2
*U23
 10
0.0
 20
0.0
 30
0.0
  0
INSERT
  5
17AC
  8
0
  2
*U24
 10
0.0
 20
0.0
 30
0.0
  0
ENDBLK
  5
17A0
  8
0
  0
BLOCK
  8
0
  2
_D_9
 70
     0
 10
0.0
 20
0.0
 30
0.0
  3
_D_9
  1

  0
SOLID
  5
17B2
  8
0
  6
CONTINUOUS
 62
     7
 10
5.4173345334
 20
2.0443857888000001
 30
0.0
 11
5.5184494422999997
 21
2.0288296489999991
 31
0.0
 12
5.5184494422999997
 22
2.0599419285999998
 32
0.0
 13
5.5184494422999997
 23
2.0599419285999998
 33
0.0
  0
SOLID
  5
17B3
  8
0
  6
CONTINUOUS
 62
     7
 10
5.3673345333999993
 20
2.0443857888000001
 30
0.0
 11
5.2662196245999988
 21
2.0599419285999998
 31
0.0
 12
5.2662196245999988
 22
2.0288296489999991
 32
0.0
 13
5.2662196245999988
 23
2.0288296489999991
 33
0.0
  0
LINE
  5
17B4
  8
0
  6
CONTINUOUS
 62
     7
 10
5.4173345334
 20
1.5643948984999989
 30
0.0
 11
5.4173345334
 21
2.1693857888000001
 31
0.0
  0
LINE
  5
17B5
  8
0
  6
CONTINUOUS
 62
     7
 10
5.3673345333999993
 20
1.6268948984999989
 30
0.0
 11
5.3673345333999993
 21
2.1693857888000001
 31
0.0
  0
LINE
  5
17B6
  8
0
  6
CONTINUOUS
 62
     7
 10
5.4173345334
 20
2.0443857888000001
 30
0.0
 11
5.6899586992999991
 21
2.0443857888000001
 31
0.0
  0
LINE
  5
17B7
  8
0
  6
CONTINUOUS
 62
     7
 10
5.3673345333999993
 20
2.0443857888000001
 30
0.0
 11
5.1728827855999988
 21
2.0443857888000001
 31
0.0
  0
INSERT
  5
17B8
  8
0
  2
*U25
 10
0.0
 20
0.0
 30
0.0
  0
ENDBLK
  5
17B1
  8
0
  0
BLOCK
  8
0
  2
*U14
 70
     1
 10
0.0
 20
0.0
 30
0.0
  3
*U14
  1

  0
TEXT
  5
192B
  8
0
 62
     7
 10
3.4858769281999988
 20
3.8477626698999998
 30
0.0
 40
0.1041666667
  1
2'-0"
 41
0.605
  7
SLDTEXTSTYLE0
  0
ENDBLK
  5
192D
  8
0
  0
BLOCK
  8
0
  2
*U15
 70
     1
 10
0.0
 20
0.0
 30
0.0
  3
*U15
  1

  0
TEXT
  5
192F
  8
0
 62
     7
 10
3.4858769281999988
 20
3.6924771705000001
 30
0.0
 40
0.1041666667
  1
4'-0"
 41
0.605
  7
SLDTEXTSTYLE0
  0
ENDBLK
  5
1931
  8
0
  0
BLOCK
  8
0
  2
*U16
 70
     1
 10
0.0
 20
0.0
 30
0.0
  3
*U16
  1

  0
TEXT
  5
1933
  8
0
 62
     7
 10
6.1286643738999986
 20
3.7701199201999991
 30
0.0
 40
0.1041666667
  1
3"
 41
0.605
  7
SLDTEXTSTYLE0
  0
ENDBLK
  5
1935
  8
0
  0
BLOCK
  8
0
  2
*U17
 70
     1
 10
0.0
 20
0.0
 30
0.0
  3
*U17
  1

  0
TEXT
  5
1937
  8
0
 62
     7
 10
0.9929737509999999
 20
3.7701199201999991
 30
0.0
 40
0.1041666667
  1
3"
 41
0.605
  7
SLDTEXTSTYLE0
  0
ENDBLK
  5
1939
  8
0
  0
BLOCK
  8
0
  2
*U18
 70
     1
 10
0.0
 20
0.0
 30
0.0
  3
*U18
  1

  0
TEXT
  5
193B
  8
0
 62
     7
 10
8.5754435630999986
 20
3.7452768821000002
 30
0.0
 40
0.1041666667
  1
1 3/4"
 41
0.605
  7
SLDTEXTSTYLE0
  0
ENDBLK
  5
193D
  8
0
  0
BLOCK
  8
0
  2
*U19
 70
     1
 10
0.0
 20
0.0
 30
0.0
  3
*U19
  1

  0
TEXT
  5
193F
  8
0
 62
     7
 10
9.3753140928000001
 20
2.9250124595999991
 30
0.0
 40
0.1041666667
  1
1 7/16"
 41
0.605
  7
SLDTEXTSTYLE0
  0
ENDBLK
  5
1941
  8
0
  0
BLOCK
  8
0
  2
*U20
 70
     1
 10
0.0
 20
0.0
 30
0.0
  3
*U20
  1

  0
TEXT
  5
1943
  8
0
 62
     7
 10
8.5727170491999996
 20
1.916059879699999
 30
0.0
 40
0.1041666667
  1
1 3/4"
 41
0.605
  7
SLDTEXTSTYLE0
  0
ENDBLK
  5
1945
  8
0
  0
BLOCK
  8
0
  2
*U21
 70
     1
 10
0.0
 20
0.0
 30
0.0
  3
*U21
  1

  0
TEXT
  5
1947
  8
0
 62
     7
 10
9.3725875789999993
 20
1.1743633784999989
 30
0.0
 40
0.1041666667
  1
1 7/16"
 41
0.605
  7
SLDTEXTSTYLE0
  0
ENDBLK
  5
1949
  8
0
  0
BLOCK
  8
0
  2
*U22
 70
     1
 10
0.0
 20
0.0
 30
0.0
  3
*U22
  1

  0
TEXT
  5
194B
  8
0
 62
     7
 10
1.0241169120999991
 20
1.9968542687999999
 30
0.0
 40
0.1041666667
  1
3"
 41
0.605
  7
SLDTEXTSTYLE0
  0
ENDBLK
  5
194D
  8
0
  0
BLOCK
  8
0
  2
*U23
 70
     1
 10
0.0
 20
0.0
 30
0.0
  3
*U23
  1

  0
TEXT
  5
194F
  8
0
 62
     7
 10
3.4633226577
 20
2.0744970184999998
 30
0.0
 40
0.1041666667
  1
2'-0"
 41
0.605
  7
SLDTEXTSTYLE0
  0
ENDBLK
  5
1951
  8
0
  0
BLOCK
  8
0
  2
*U24
 70
     1
 10
0.0
 20
0.0
 30
0.0
  3
*U24
  1

  0
TEXT
  5
1953
  8
0
 62
     7
 10
3.4633226577
 20
1.919211519099999
 30
0.0
 40
0.1041666667
  1
4'-0"
 41
0.605
  7
SLDTEXTSTYLE0
  0
ENDBLK
  5
1955
  8
0
  0
BLOCK
  8
0
  2
*U25
 70
     1
 10
0.0
 20
0.0
 30
0.0
  3
*U25
  1

  0
TEXT
  5
1957
  8
0
 62
     7
 10
5.6899586992999991
 20
1.9968542687999999
 30
0.0
 40
0.1041666667
  1
1/8"
 41
0.605
  7
SLDTEXTSTYLE0
  0
ENDBLK
  5
1959
  8
0
  0
BLOCK
  8
0
  2
*U26
 70
     1
 10
0.0
 20
0.0
 30
0.0
  3
*U26
  1

  0
TEXT
  5
1997
  8
0
 10
9.6893446873604461
 20
3.1097541811207758
 30
0.0
 40
0.1388888889
  1
INLine Linear
  0
ENDBLK
  5
1999
  8
0
  0
ENDSEC
  0
SECTION
  2
ENTITIES
  0
INSERT
  5
BD1
  8
0
  6
CONTINUOUS
 62
     7
  2
SW_BROKEN_VIEW_0
 10
0.0
 20
0.0
 30
0.0
  0
LINE
  5
10DC
  8
0
  6
CONTINUOUS
 62
     7
 10
8.6869559167999988
 20
3.035446918399999
 30
0.0
 11
8.6869559167999988
 21
2.9864184183999991
 31
0.0
  0
LINE
  5
10DD
  8
0
  6
CONTINUOUS
 62
     7
 10
8.8219559168000004
 20
2.9864184183999991
 30
0.0
 11
8.8219559168000004
 21
3.035446918399999
 31
0.0
  0
ARC
  5
10DE
  8
0
  6
CONTINUOUS
 62
     7
 10
8.7544559167999996
 20
3.0720741875999988
 30
0.0
 40
0.1090557692307717
 50
281.54084137289999
 51
308.2394526599
  0
ARC
  5
10DF
  8
0
  6
CONTINUOUS
 62
     7
 10
8.7544559167999996
 20
3.0720741875999988
 30
0.0
 40
0.1090557692307705
 50
231.7605473401
 51
258.45915862710001
  0
LINE
  5
10EA
  8
0
  6
CONTINUOUS
 62
     7
 10
8.7859519130999981
 20
3.080446918399999
 30
0.0
 11
8.7850841811000002
 21
3.0809322995999988
 31
0.0
  0
LINE
  5
10F2
  8
0
  6
CONTINUOUS
 62
     7
 10
8.7134559167999992
 20
3.0815184183999991
 30
0.0
 11
8.7134559167999992
 21
3.080446918399999
 31
0.0
  0
LINE
  5
1109
  8
0
  6
CONTINUOUS
 62
     7
 10
8.9075858379999993
 20
3.1069672553999998
 30
0.0
 11
8.9075858379999993
 21
3.1072478022999999
 31
0.0
  0
LINE
  5
1112
  8
0
  6
CONTINUOUS
 62
     7
 10
8.9072514953000006
 20
3.1072478022999999
 30
0.0
 11
8.9075858379999993
 21
3.1072478022999999
 31
0.0
  0
LINE
  5
1115
  8
0
  6
CONTINUOUS
 62
     7
 10
8.5120385150000004
 20
2.8256934183999989
 30
0.0
 11
8.4910095916999992
 21
2.823111391299999
 31
0.0
  0
LINE
  5
1116
  8
0
  6
CONTINUOUS
 62
     7
 10
8.5120385150000004
 20
2.8256934183999989
 30
0.0
 11
8.5180728855999988
 21
2.8256934183999989
 31
0.0
  0
LINE
  5
1117
  8
0
  6
CONTINUOUS
 62
     7
 10
8.5180728855999988
 20
2.7944434183999989
 30
0.0
 11
8.5120385150000004
 21
2.7944434183999989
 31
0.0
  0
LINE
  5
1118
  8
0
  6
CONTINUOUS
 62
     7
 10
8.4910095916999992
 20
2.7970254455000001
 30
0.0
 11
8.5120385150000004
 21
2.7944434183999989
 31
0.0
  0
LINE
  5
1119
  8
0
  6
CONTINUOUS
 62
     7
 10
8.5405054025999991
 20
2.8256934183999989
 30
0.0
 11
8.5180728855999988
 21
2.8256934183999989
 31
0.0
  0
LINE
  5
111A
  8
0
  6
CONTINUOUS
 62
     7
 10
8.5399599318000003
 20
2.7944434183999989
 30
0.0
 11
8.5180728855999988
 21
2.7944434183999989
 31
0.0
  0
LINE
  5
111B
  8
0
  6
CONTINUOUS
 62
     7
 10
8.4551426229000004
 20
2.8014293554999998
 30
0.0
 11
8.4910095916999992
 21
2.7970254455000001
 31
0.0
  0
LINE
  5
111C
  8
0
  6
CONTINUOUS
 62
     7
 10
8.4910095916999992
 20
2.823111391299999
 30
0.0
 11
8.4551426229000004
 21
2.8187074813000002
 31
0.0
  0
LINE
  5
111D
  8
0
  6
CONTINUOUS
 62
     7
 10
8.4509559167999981
 20
2.8019434183999992
 30
0.0
 11
8.4509559167999981
 21
2.818193418399999
 31
0.0
  0
LINE
  5
111E
  8
0
  6
CONTINUOUS
 62
     7
 10
8.4509559167999981
 20
2.8019434183999992
 30
0.0
 11
8.4551426229000004
 21
2.8014293554999998
 31
0.0
  0
LINE
  5
111F
  8
0
  6
CONTINUOUS
 62
     7
 10
8.4551426229000004
 20
2.8187074813000002
 30
0.0
 11
8.4509559167999981
 21
2.818193418399999
 31
0.0
  0
LINE
  5
1122
  8
0
  6
CONTINUOUS
 62
     7
 10
8.5044914506999998
 20
2.8247667554000002
 30
0.0
 11
8.5044914506999998
 21
2.8256934183999989
 31
0.0
  0
LINE
  5
1124
  8
0
  6
CONTINUOUS
 62
     7
 10
8.5120385150000004
 20
2.9811934183999989
 30
0.0
 11
8.4910095916999992
 21
2.978611391299999
 31
0.0
  0
LINE
  5
1125
  8
0
  6
CONTINUOUS
 62
     7
 10
8.5120385150000004
 20
2.9811934183999989
 30
0.0
 11
8.5180728855999988
 21
2.9811934183999989
 31
0.0
  0
LINE
  5
1126
  8
0
  6
CONTINUOUS
 62
     7
 10
8.5180728855999988
 20
2.9499434183999989
 30
0.0
 11
8.5120385150000004
 21
2.9499434183999989
 31
0.0
  0
LINE
  5
1127
  8
0
  6
CONTINUOUS
 62
     7
 10
8.4910095916999992
 20
2.9525254455000001
 30
0.0
 11
8.5120385150000004
 21
2.9499434183999989
 31
0.0
  0
LINE
  5
1128
  8
0
  6
CONTINUOUS
 62
     7
 10
8.5432196652000005
 20
2.9811934183999989
 30
0.0
 11
8.5180728855999988
 21
2.9811934183999989
 31
0.0
  0
LINE
  5
1129
  8
0
  6
CONTINUOUS
 62
     7
 10
8.5426741943999982
 20
2.9499434183999989
 30
0.0
 11
8.5180728855999988
 21
2.9499434183999989
 31
0.0
  0
LINE
  5
112A
  8
0
  6
CONTINUOUS
 62
     7
 10
8.4551426229000004
 20
2.9569293554999998
 30
0.0
 11
8.4910095916999992
 21
2.9525254455000001
 31
0.0
  0
LINE
  5
112B
  8
0
  6
CONTINUOUS
 62
     7
 10
8.4910095916999992
 20
2.978611391299999
 30
0.0
 11
8.4551426229000004
 21
2.9742074813000001
 31
0.0
  0
LINE
  5
112C
  8
0
  6
CONTINUOUS
 62
     7
 10
8.4509559167999981
 20
2.9574434183999991
 30
0.0
 11
8.4509559167999981
 21
2.973693418399999
 31
0.0
  0
LINE
  5
112D
  8
0
  6
CONTINUOUS
 62
     7
 10
8.4509559167999981
 20
2.9574434183999991
 30
0.0
 11
8.4551426229000004
 21
2.9569293554999998
 31
0.0
  0
LINE
  5
112E
  8
0
  6
CONTINUOUS
 62
     7
 10
8.4551426229000004
 20
2.9742074813000001
 30
0.0
 11
8.4509559167999981
 21
2.973693418399999
 31
0.0
  0
LINE
  5
1137
  8
0
  6
CONTINUOUS
 62
     7
 10
9.0008733186000001
 20
2.8716934183999991
 30
0.0
 11
9.0219022419000012
 21
2.8742754454999999
 31
0.0
  0
LINE
  5
1138
  8
0
  6
CONTINUOUS
 62
     7
 10
9.0008733186000001
 20
2.8716934183999991
 30
0.0
 11
8.9948389479999982
 21
2.8716934183999991
 31
0.0
  0
LINE
  5
1139
  8
0
  6
CONTINUOUS
 62
     7
 10
9.0219022419000012
 20
2.9003613913000001
 30
0.0
 11
9.0008733186000001
 21
2.9029434183999991
 31
0.0
  0
LINE
  5
113A
  8
0
  6
CONTINUOUS
 62
     7
 10
8.9948389479999982
 20
2.9029434183999991
 30
0.0
 11
9.0008733186000001
 21
2.9029434183999991
 31
0.0
  0
LINE
  5
113B
  8
0
  6
CONTINUOUS
 62
     7
 10
8.967603497999999
 20
2.8716934183999991
 30
0.0
 11
8.9948389479999982
 21
2.8716934183999991
 31
0.0
  0
LINE
  5
113C
  8
0
  6
CONTINUOUS
 62
     7
 10
8.9670580272000002
 20
2.9029434183999991
 30
0.0
 11
8.9948389479999982
 21
2.9029434183999991
 31
0.0
  0
LINE
  5
113D
  8
0
  6
CONTINUOUS
 62
     7
 10
9.0219022419000012
 20
2.8742754454999999
 30
0.0
 11
9.0577692107000001
 21
2.8786793555000001
 31
0.0
  0
LINE
  5
113E
  8
0
  6
CONTINUOUS
 62
     7
 10
9.0577692107000001
 20
2.8959574812999991
 30
0.0
 11
9.0219022419000012
 21
2.9003613913000001
 31
0.0
  0
LINE
  5
113F
  8
0
  6
CONTINUOUS
 62
     7
 10
9.0619559167999988
 20
2.8954434183999989
 30
0.0
 11
9.0619559167999988
 21
2.879193418399999
 31
0.0
  0
LINE
  5
1140
  8
0
  6
CONTINUOUS
 62
     7
 10
9.0577692107000001
 20
2.8786793555000001
 30
0.0
 11
9.0619559167999988
 21
2.879193418399999
 31
0.0
  0
LINE
  5
1141
  8
0
  6
CONTINUOUS
 62
     7
 10
9.0619559167999988
 20
2.8954434183999989
 30
0.0
 11
9.0577692107000001
 21
2.8959574812999991
 31
0.0
  0
LINE
  5
1142
  8
0
  6
CONTINUOUS
 62
     7
 10
8.9694011849000006
 20
2.7687040080999989
 30
0.0
 11
8.9949653064999993
 21
2.7689271027999989
 31
0.0
  0
LINE
  5
1143
  8
0
  6
CONTINUOUS
 62
     7
 10
8.9688557763999999
 20
2.7999504383999989
 30
0.0
 11
8.9946926023000007
 21
2.8001759128999999
 31
0.0
  0
LINE
  5
1144
  8
0
  6
CONTINUOUS
 62
     7
 10
9.0008710751999992
 20
2.8002298316999998
 30
0.0
 11
9.0219939733000007
 21
2.7978231813999992
 31
0.0
  0
LINE
  5
1145
  8
0
  6
CONTINUOUS
 62
     7
 10
9.0222214585000007
 20
2.7717559506999989
 30
0.0
 11
9.0011437794000013
 21
2.7689810216000001
 31
0.0
  0
LINE
  5
1146
  8
0
  6
CONTINUOUS
 62
     7
 10
9.0011437794000013
 20
2.7689810216000001
 30
0.0
 11
8.9949653064999993
 21
2.7689271027999989
 31
0.0
  0
LINE
  5
1147
  8
0
  6
CONTINUOUS
 62
     7
 10
8.9946926023000007
 20
2.8001759128999999
 30
0.0
 11
9.0008710751999992
 21
2.8002298316999998
 31
0.0
  0
LINE
  5
1148
  8
0
  6
CONTINUOUS
 62
     7
 10
9.0219939733000007
 20
2.7978231813999992
 30
0.0
 11
9.0577922355999991
 21
2.793744484599999
 31
0.0
  0
LINE
  5
1149
  8
0
  6
CONTINUOUS
 62
     7
 10
9.0579430855999998
 20
2.7764587920999988
 30
0.0
 11
9.0222214585000007
 21
2.7717559506999989
 31
0.0
  0
LINE
  5
114A
  8
0
  6
CONTINUOUS
 62
     7
 10
9.0620167966
 20
2.7932631567000001
 30
0.0
 11
9.0621586028000003
 21
2.7770137753999999
 31
0.0
  0
LINE
  5
114B
  8
0
  6
CONTINUOUS
 62
     7
 10
9.0577922355999991
 20
2.793744484599999
 30
0.0
 11
9.0620167966
 21
2.7932631567000001
 31
0.0
  0
LINE
  5
114C
  8
0
  6
CONTINUOUS
 62
     7
 10
9.0621586028000003
 20
2.7770137753999999
 30
0.0
 11
9.0579430855999998
 21
2.7764587920999988
 31
0.0
  0
LINE
  5
114D
  8
0
  6
CONTINUOUS
 62
     7
 10
9.0008733186000001
 20
2.9746934183999989
 30
0.0
 11
8.9946946103999998
 21
2.9746934183999989
 31
0.0
  0
LINE
  5
114E
  8
0
  6
CONTINUOUS
 62
     7
 10
8.9946946103999998
 20
3.0059434183999989
 30
0.0
 11
9.0008733186000001
 21
3.0059434183999989
 31
0.0
  0
LINE
  5
114F
  8
0
  6
CONTINUOUS
 62
     7
 10
9.0008733186000001
 20
3.0059434183999989
 30
0.0
 11
9.0219744105999986
 21
3.003352530099999
 31
0.0
  0
LINE
  5
1150
  8
0
  6
CONTINUOUS
 62
     7
 10
9.0219744105999986
 20
2.9772843067000001
 30
0.0
 11
9.0008733186000001
 21
2.9746934183999989
 31
0.0
  0
LINE
  5
1151
  8
0
  6
CONTINUOUS
 62
     7
 10
8.9652601555999993
 20
3.0059434183999989
 30
0.0
 11
8.9946946103999998
 21
3.0059434183999989
 31
0.0
  0
LINE
  5
1152
  8
0
  6
CONTINUOUS
 62
     7
 10
8.9658056262999999
 20
2.9746934183999989
 30
0.0
 11
8.9946946103999998
 21
2.9746934183999989
 31
0.0
  0
LINE
  5
1153
  8
0
  6
CONTINUOUS
 62
     7
 10
9.0577357169999981
 20
2.9816752430000002
 30
0.0
 11
9.0219744105999986
 21
2.9772843067000001
 31
0.0
  0
LINE
  5
1154
  8
0
  6
CONTINUOUS
 62
     7
 10
9.0219744105999986
 20
3.003352530099999
 30
0.0
 11
9.0577357169999981
 21
2.9989615937999989
 31
0.0
  0
LINE
  5
1155
  8
0
  6
CONTINUOUS
 62
     7
 10
9.0619559167999988
 20
2.9984434183999991
 30
0.0
 11
9.0619559167999988
 21
2.9821934183999992
 31
0.0
  0
LINE
  5
1156
  8
0
  6
CONTINUOUS
 62
     7
 10
9.0619559167999988
 20
2.9821934183999992
 30
0.0
 11
9.0577357169999981
 21
2.9816752430000002
 31
0.0
  0
LINE
  5
1157
  8
0
  6
CONTINUOUS
 62
     7
 10
9.0577357169999981
 20
2.9989615937999989
 30
0.0
 11
9.0619559167999988
 21
2.9984434183999991
 31
0.0
  0
LINE
  5
1158
  8
0
  6
CONTINUOUS
 62
     7
 10
9.0919725648000007
 20
2.6480998567
 30
0.0
 11
9.0819559168000001
 21
2.6480998567
 31
0.0
  0
ARC
  5
1159
  8
0
  6
CONTINUOUS
 62
     7
 10
9.1223871838000008
 20
2.7219610407999988
 30
0.0
 40
0.0100000000000006
 50
335.59626768940001
 51
155.59626768940001
  0
LINE
  5
115A
  8
0
  6
CONTINUOUS
 62
     7
 10
9.1557059167999988
 20
2.6480998567
 30
0.0
 11
9.1219757317999992
 21
2.6480998567
 31
0.0
  0
LINE
  5
115B
  8
0
  6
CONTINUOUS
 62
     7
 10
9.1607059167999996
 20
2.6250416258999998
 30
0.0
 11
9.1607059167999996
 21
2.6430998566999988
 31
0.0
  0
LINE
  5
115C
  8
0
  6
CONTINUOUS
 62
     7
 10
8.3482059167999996
 20
2.6250416258999998
 30
0.0
 11
8.3482059167999996
 21
2.6430998566999988
 31
0.0
  0
LINE
  5
115D
  8
0
  6
CONTINUOUS
 62
     7
 10
8.4119559168000002
 20
2.6505998566999991
 30
0.0
 11
8.4119559168000002
 21
2.6480998567
 31
0.0
  0
LINE
  5
115E
  8
0
  6
CONTINUOUS
 62
     7
 10
8.426955916799999
 20
2.6480998567
 30
0.0
 11
8.4119559168000002
 21
2.6480998567
 31
0.0
  0
LINE
  5
115F
  8
0
  6
CONTINUOUS
 62
     7
 10
8.4319559167999998
 20
2.6534604670999991
 30
0.0
 11
8.4319559167999998
 21
2.653099856699999
 31
0.0
  0
LINE
  5
1162
  8
0
  6
CONTINUOUS
 62
     7
 10
9.0769559167999994
 20
2.6534604670999991
 30
0.0
 11
9.0769559167999994
 21
2.653099856699999
 31
0.0
  0
ARC
  5
1163
  8
0
  6
CONTINUOUS
 62
     7
 10
8.2292370283
 20
2.6505998566999991
 30
0.0
 40
0.1627188885381169
 50
0.9082326729000001
 51
24.403732310599999
  0
ARC
  5
1164
  8
0
  6
CONTINUOUS
 62
     7
 10
8.3865246497000001
 20
2.7219610407999988
 30
0.0
 40
0.0100000000000006
 50
24.403732310599999
 51
204.40373231059999
  0
ARC
  5
1166
  8
0
  6
CONTINUOUS
 62
     7
 10
9.1557059167999988
 20
2.6430998566999988
 30
0.0
 40
0.0050000000000008
 50
0.0
 51
90.0
  0
ARC
  5
1167
  8
0
  6
CONTINUOUS
 62
     7
 10
9.2796748052999991
 20
2.6505998566999991
 30
0.0
 40
0.1627188885381151
 50
155.59626768940001
 51
179.0917673271
  0
ARC
  5
1168
  8
0
  6
CONTINUOUS
 62
     7
 10
9.0919725648000007
 20
2.653099856699999
 30
0.0
 40
0.0050000000000011
 50
270.0
 51
359.2369245073001
  0
ARC
  5
1169
  8
0
  6
CONTINUOUS
 62
     7
 10
8.3722059167999987
 20
2.6793117834000002
 30
0.0
 40
0.0625000000000002
 50
250.7048328576
 51
268.0
  0
ARC
  5
116A
  8
0
  6
CONTINUOUS
 62
     7
 10
9.1367059167999987
 20
2.6793117834000002
 30
0.0
 40
0.0625000000000005
 50
272.0
 51
289.29516714239998
  0
ARC
  5
116B
  8
0
  6
CONTINUOUS
 62
     7
 10
9.1557059167999988
 20
2.6250416258999998
 30
0.0
 40
0.0050000000000008
 50
289.29516714239998
 51
0.0
  0
ARC
  5
116C
  8
0
  6
CONTINUOUS
 62
     7
 10
9.1219757317999992
 20
2.653099856699999
 30
0.0
 40
0.0049999999999999
 50
179.0917673271
 51
270.0
  0
LINE
  5
116D
  8
0
  6
CONTINUOUS
 62
     7
 10
8.3700246981999982
 20
2.6168498567
 30
0.0
 11
9.1388871352999992
 21
2.6168498567
 31
0.0
  0
ARC
  5
116E
  8
0
  6
CONTINUOUS
 62
     7
 10
9.0819559168000001
 20
2.653099856699999
 30
0.0
 40
0.0050000000000008
 50
180.0
 51
270.0
  0
ARC
  5
116F
  8
0
  6
CONTINUOUS
 62
     7
 10
8.2292370283
 20
2.6505998566999991
 30
0.0
 40
0.182718888538116
 50
0.0
 51
24.403732310599999
  0
ARC
  5
1171
  8
0
  6
CONTINUOUS
 62
     7
 10
9.2796748052999991
 20
2.6505998566999991
 30
0.0
 40
0.182718888538116
 50
155.59626768940001
 51
179.23692450729999
  0
LINE
  5
1172
  8
0
  6
CONTINUOUS
 62
     7
 10
8.3532059168000004
 20
2.6480998567
 30
0.0
 11
8.3869361017999982
 21
2.6480998567
 31
0.0
  0
ARC
  5
1173
  8
0
  6
CONTINUOUS
 62
     7
 10
8.3869361017999982
 20
2.653099856699999
 30
0.0
 40
0.0050000000000014
 50
270.0
 51
0.9082326729000001
  0
ARC
  5
1174
  8
0
  6
CONTINUOUS
 62
     7
 10
8.426955916799999
 20
2.653099856699999
 30
0.0
 40
0.0049999999999999
 50
270.0
 51
0.0
  0
ARC
  5
1175
  8
0
  6
CONTINUOUS
 62
     7
 10
8.3532059168000004
 20
2.6250416258999998
 30
0.0
 40
0.0050000000000008
 50
180.0
 51
250.70483285770001
  0
ARC
  5
1176
  8
0
  6
CONTINUOUS
 62
     7
 10
8.3532059168000004
 20
2.6430998566999988
 30
0.0
 40
0.0050000000000008
 50
90.0
 51
180.0
  0
LINE
  5
117B
  8
0
  6
CONTINUOUS
 62
     7
 10
8.3794559167999996
 20
2.7500608288999988
 30
0.0
 11
8.3797059167999972
 21
2.7500670827999989
 31
0.0
  0
LINE
  5
1189
  8
0
  6
CONTINUOUS
 62
     7
 10
9.1292059168000002
 20
2.7500670827999989
 30
0.0
 11
9.1294559167999996
 21
2.7500608288999988
 31
0.0
  0
ARC
  5
11A3
  8
0
  6
CONTINUOUS
 62
     7
 10
9.1270445117999994
 20
2.6615998566999992
 30
0.0
 40
0.0074999999999998
 50
178.64643048729999
 51
270.0
  0
ARC
  5
11A4
  8
0
  6
CONTINUOUS
 62
     7
 10
9.4444559167999991
 20
2.6540998566999989
 30
0.0
 40
0.3250000000000028
 50
174.1265012984
 51
178.64643048729999
  0
LINE
  5
11A5
  8
0
  6
CONTINUOUS
 62
     7
 10
9.1284265207999997
 20
2.7299313863000001
 30
0.0
 11
9.1294559167999996
 21
2.7340998566999999
 31
0.0
  0
LINE
  5
11A6
  8
0
  6
CONTINUOUS
 62
     7
 10
9.1294559167999996
 20
2.7340998566999999
 30
0.0
 11
9.1294559167999996
 21
2.7990998566999998
 31
0.0
  0
LINE
  5
11A7
  8
0
  6
CONTINUOUS
 62
     7
 10
8.3794559167999996
 20
2.7990998566999998
 30
0.0
 11
8.4741148679999991
 21
2.7990998566999998
 31
0.0
  0
LINE
  5
11A8
  8
0
  6
CONTINUOUS
 62
     7
 10
9.0107887376000004
 20
2.7990998566999998
 30
0.0
 11
9.1294559167999996
 21
2.7990998566999998
 31
0.0
  0
LINE
  5
11A9
  8
0
  6
CONTINUOUS
 62
     7
 10
8.3794559167999996
 20
2.7340998566999999
 30
0.0
 11
8.3794559167999996
 21
2.7990998566999998
 31
0.0
  0
ARC
  5
11AA
  8
0
  6
CONTINUOUS
 62
     7
 10
8.0644559168000001
 20
2.6540998566999989
 30
0.0
 40
0.3250000000000028
 50
1.3535695127
 51
5.8734987014999991
  0
LINE
  5
11AB
  8
0
  6
CONTINUOUS
 62
     7
 10
8.3804853127999994
 20
2.7299313863000001
 30
0.0
 11
8.3794559167999996
 21
2.7340998566999999
 31
0.0
  0
ARC
  5
11AC
  8
0
  6
CONTINUOUS
 62
     7
 10
8.3818673217999997
 20
2.6615998566999992
 30
0.0
 40
0.0074999999999998
 50
270.0
 51
1.3535695127
  0
LINE
  5
11AD
  8
0
  6
CONTINUOUS
 62
     7
 10
8.3557059167999999
 20
2.6540998566999989
 30
0.0
 11
8.3818673217999997
 21
2.6540998566999989
 31
0.0
  0
LINE
  5
11AE
  8
0
  6
CONTINUOUS
 62
     7
 10
8.3482059167999996
 20
2.6615998566999992
 30
0.0
 11
8.3482059167999996
 21
2.8228498566999991
 31
0.0
  0
ARC
  5
11AF
  8
0
  6
CONTINUOUS
 62
     7
 10
8.3557059167999999
 20
2.8228498566999991
 30
0.0
 40
0.0075000000000003
 50
90.0
 51
180.0
  0
LINE
  5
11B0
  8
0
  6
CONTINUOUS
 62
     7
 10
8.3572090418999991
 20
2.8303498566999998
 30
0.0
 11
8.5405848135402724
 21
2.8302428690908559
 31
0.0
  0
LINE
  5
11B1
  8
0
  6
CONTINUOUS
 62
     7
 10
8.9683161551926283
 20
2.83086531690779
 30
0.0
 11
9.1517027917
 21
2.8303498566999998
 31
0.0
  0
ARC
  5
11B2
  8
0
  6
CONTINUOUS
 62
     7
 10
9.1532059167999993
 20
2.8228498566999991
 30
0.0
 40
0.0075000000000003
 50
0.0
 51
90.0
  0
LINE
  5
11B3
  8
0
  6
CONTINUOUS
 62
     7
 10
9.1607059167999996
 20
2.6615998566999992
 30
0.0
 11
9.1607059167999996
 21
2.8228498566999991
 31
0.0
  0
ARC
  5
11B4
  8
0
  6
CONTINUOUS
 62
     7
 10
8.3557059167999999
 20
2.6615998566999992
 30
0.0
 40
0.0075000000000003
 50
180.0
 51
270.0
  0
ARC
  5
11B5
  8
0
  6
CONTINUOUS
 62
     7
 10
9.1532059167999993
 20
2.6615998566999992
 30
0.0
 40
0.0075000000000003
 50
270.0
 51
0.0
  0
LINE
  5
11B6
  8
0
  6
CONTINUOUS
 62
     7
 10
9.1270445117999994
 20
2.6540998566999989
 30
0.0
 11
9.1532059167999993
 21
2.6540998566999989
 31
0.0
  0
LINE
  5
1267
  8
0
  6
CONTINUOUS
 62
     7
 10
8.7913746460999995
 20
2.9864184183999991
 30
0.0
 11
8.8219559168000004
 21
2.9864184183999991
 31
0.0
  0
LINE
  5
1268
  8
0
  6
CONTINUOUS
 62
     7
 10
8.6869559167999988
 20
2.9864184183999991
 30
0.0
 11
8.7913746460999995
 21
2.9864184183999991
 31
0.0
  0
ARC
  5
1269
  8
0
  6
CONTINUOUS
 62
     7
 10
8.7440933414999993
 20
3.041189512699999
 30
0.0
 40
0.0766697125805905
 50
274.75261778880002
 51
281.28235464279999
  0
ARC
  5
126A
  8
0
  6
CONTINUOUS
 62
     7
 10
8.7578368772000008
 20
3.0705851368000001
 30
0.0
 40
0.1060595785839617
 50
260.430390628
 51
266.00388764770003
  0
ARC
  5
126B
  8
0
  6
CONTINUOUS
 62
     7
 10
8.7616539030999991
 20
3.048586017799999
 30
0.0
 40
0.085324499662614
 50
243.17483524100001
 51
255.44073815600001
  0
LINE
  5
126C
  8
0
  6
CONTINUOUS
 62
     7
 10
8.7131126789999982
 20
2.9724434835000002
 30
0.0
 11
8.7231495563999992
 21
2.9724434835000002
 31
0.0
  0
ARC
  5
126D
  8
0
  6
CONTINUOUS
 62
     7
 10
8.7494382364999996
 20
3.0409439360000001
 30
0.0
 40
0.0775361729709538
 50
242.0631444071
 51
255.1385221534
  0
ARC
  5
126E
  8
0
  6
CONTINUOUS
 62
     7
 10
8.7395825932999998
 20
2.9992769271999999
 30
0.0
 40
0.0347545678093786
 50
253.22429342929999
 51
262.97302913620001
  0
ARC
  5
126F
  8
0
  6
CONTINUOUS
 62
     7
 10
8.7647500975000003
 20
3.0405751529999998
 30
0.0
 40
0.0760518003939947
 50
262.22070779810002
 51
265.26038361590003
  0
ARC
  5
1270
  8
0
  6
CONTINUOUS
 62
     7
 10
8.7510749564000001
 20
3.0705851368000001
 30
0.0
 40
0.1060595785840387
 50
273.99611235229997
 51
279.569609372
  0
ARC
  5
1271
  8
0
  6
CONTINUOUS
 62
     7
 10
8.7480232335999997
 20
3.046113975099999
 30
0.0
 40
0.0827395419750807
 50
284.47664665510001
 51
287.81989341560001
  0
ARC
  5
1272
  8
0
  6
CONTINUOUS
 62
     7
 10
8.7693773607000001
 20
2.9989885879999991
 30
0.0
 40
0.0344625098011148
 50
277.0062147113
 51
281.5445070632
  0
ARC
  5
1273
  8
0
  6
CONTINUOUS
 62
     7
 10
8.7715265876000004
 20
2.969817868399999
 30
0.0
 40
0.0054374934935494
 50
292.19886059620001
 51
315.42263612990001
  0
ARC
  5
1274
  8
0
  6
CONTINUOUS
 62
     7
 10
8.7598375303000005
 20
3.003021283299999
 30
0.0
 40
0.0401578201864625
 50
292.80065169189999
 51
310.40862573380002
  0
LINE
  5
1275
  8
0
  6
CONTINUOUS
 62
     7
 10
8.7705064707999991
 20
2.9724434835000002
 30
0.0
 11
8.7858692165000001
 21
2.9724434835000002
 31
0.0
  0
ARC
  5
1276
  8
0
  6
CONTINUOUS
 62
     7
 10
8.7411398646999992
 20
3.0111401748999991
 30
0.0
 40
0.0485780967519695
 50
291.68967074749997
 51
307.1945686235
  0
LINE
  5
1277
  8
0
  6
CONTINUOUS
 62
     7
 10
8.7748665828999997
 20
2.9724434835000002
 30
0.0
 11
8.7753997326000004
 21
2.966001445599999
 31
0.0
  0
LINE
  5
1278
  8
0
  6
CONTINUOUS
 62
     7
 10
8.7297665078999991
 20
2.9694455466999998
 30
0.0
 11
8.7295515259999998
 21
2.966001445599999
 31
0.0
  0
LINE
  5
1279
  8
0
  6
CONTINUOUS
 62
     7
 10
8.7728710474000007
 20
2.9724434835000002
 30
0.0
 11
8.7735809942999996
 21
2.9647834122000001
 31
0.0
  0
LINE
  5
127A
  8
0
  6
CONTINUOUS
 62
     7
 10
8.7355681594999997
 20
2.967344011899999
 30
0.0
 11
8.7353308392999995
 21
2.9647834122000001
 31
0.0
  0
LINE
  5
127B
  8
0
  6
CONTINUOUS
 62
     7
 10
8.7584449030999991
 20
2.9658751507000001
 30
0.0
 11
8.7584661196999996
 21
2.9647834122000001
 31
0.0
  0
LINE
  5
127C
  8
0
  6
CONTINUOUS
 62
     7
 10
8.7688824100999998
 20
2.9712745206999989
 30
0.0
 11
8.7687069089000005
 21
2.966001445599999
 31
0.0
  0
POLYLINE
  8
0
  5
199A
  62
7
  66
     1
 10
0.000000
 20
0.000000
 30
0.000000
  70
     8
  0
VERTEX
  8
0
  5
199B
 10
8.71907
 20
3.08152
 30
0.000000
  70
    32
  0
VERTEX
  8
0
  5
199C
 10
8.71899
 20
3.08151
 30
0.000000
  70
    32
  0
VERTEX
  8
0
  5
199D
 10
8.71891
 20
3.08150
 30
0.000000
  70
    32
  0
VERTEX
  8
0
  5
199E
 10
8.71884
 20
3.08150
 30
0.000000
  70
    32
  0
VERTEX
  8
0
  5
199F
 10
8.71876
 20
3.08149
 30
0.000000
  70
    32
  0
VERTEX
  8
0
  5
19A0
 10
8.71869
 20
3.08148
 30
0.000000
  70
    32
  0
VERTEX
  8
0
  5
19A1
 10
8.71861
 20
3.08147
 30
0.000000
  70
    32
  0
VERTEX
  8
0
  5
19A2
 10
8.71853
 20
3.08147
 30
0.000000
  70
    32
  0
VERTEX
  8
0
  5
19A3
 10
8.71846
 20
3.08146
 30
0.000000
  70
    32
  0
VERTEX
  8
0
  5
19A4
 10
8.71838
 20
3.08145
 30
0.000000
  70
    32
  0
VERTEX
  8
0
  5
19A5
 10
8.71831
 20
3.08144
 30
0.000000
  70
    32
  0
VERTEX
  8
0
  5
19A6
 10
8.71823
 20
3.08144
 30
0.000000
  70
    32
  0
VERTEX
  8
0
  5
19A7
 10
8.71816
 20
3.08143
 30
0.000000
  70
    32
  0
VERTEX
  8
0
  5
19A8
 10
8.71808
 20
3.08142
 30
0.000000
  70
    32
  0
VERTEX
  8
0
  5
19A9
 10
8.71801
 20
3.08141
 30
0.000000
  70
    32
  0
VERTEX
  8
0
  5
19AA
 10
8.71793
 20
3.08141
 30
0.000000
  70
    32
  0
VERTEX
  8
0
  5
19AB
 10
8.71786
 20
3.08140
 30
0.000000
  70
    32
  0
VERTEX
  8
0
  5
19AC
 10
8.71779
 20
3.08139
 30
0.000000
  70
    32
  0
VERTEX
  8
0
  5
19AD
 10
8.71771
 20
3.08139
 30
0.000000
  70
    32
  0
VERTEX
  8
0
  5
19AE
 10
8.71764
 20
3.08138
 30
0.000000
  70
    32
  0
VERTEX
  8
0
  5
19AF
 10
8.71757
 20
3.08137
 30
0.000000
  70
    32
  0
VERTEX
  8
0
  5
19B0
 10
8.71750
 20
3.08136
 30
0.000000
  70
    32
  0
VERTEX
  8
0
  5
19B1
 10
8.71742
 20
3.08136
 30
0.000000
  70
    32
  0
VERTEX
  8
0
  5
19B2
 10
8.71735
 20
3.08135
 30
0.000000
  70
    32
  0
VERTEX
  8
0
  5
19B3
 10
8.71728
 20
3.08134
 30
0.000000
  70
    32
  0
VERTEX
  8
0
  5
19B4
 10
8.71721
 20
3.08133
 30
0.000000
  70
    32
  0
VERTEX
  8
0
  5
19B5
 10
8.71714
 20
3.08133
 30
0.000000
  70
    32
  0
VERTEX
  8
0
  5
19B6
 10
8.71707
 20
3.08132
 30
0.000000
  70
    32
  0
VERTEX
  8
0
  5
19B7
 10
8.71701
 20
3.08131
 30
0.000000
  70
    32
  0
VERTEX
  8
0
  5
19B8
 10
8.71694
 20
3.08130
 30
0.000000
  70
    32
  0
VERTEX
  8
0
  5
19B9
 10
8.71687
 20
3.08130
 30
0.000000
  70
    32
  0
VERTEX
  8
0
  5
19BA
 10
8.71680
 20
3.08129
 30
0.000000
  70
    32
  0
VERTEX
  8
0
  5
19BB
 10
8.71674
 20
3.08128
 30
0.000000
  70
    32
  0
VERTEX
  8
0
  5
19BC
 10
8.71667
 20
3.08127
 30
0.000000
  70
    32
  0
VERTEX
  8
0
  5
19BD
 10
8.71661
 20
3.08127
 30
0.000000
  70
    32
  0
VERTEX
  8
0
  5
19BE
 10
8.71654
 20
3.08126
 30
0.000000
  70
    32
  0
VERTEX
  8
0
  5
19BF
 10
8.71648
 20
3.08125
 30
0.000000
  70
    32
  0
VERTEX
  8
0
  5
19C0
 10
8.71642
 20
3.08124
 30
0.000000
  70
    32
  0
VERTEX
  8
0
  5
19C1
 10
8.71636
 20
3.08124
 30
0.000000
  70
    32
  0
VERTEX
  8
0
  5
19C2
 10
8.71629
 20
3.08123
 30
0.000000
  70
    32
  0
VERTEX
  8
0
  5
19C3
 10
8.71623
 20
3.08122
 30
0.000000
  70
    32
  0
VERTEX
  8
0
  5
19C4
 10
8.71618
 20
3.08121
 30
0.000000
  70
    32
  0
VERTEX
  8
0
  5
19C5
 10
8.71612
 20
3.08121
 30
0.000000
  70
    32
  0
VERTEX
  8
0
  5
19C6
 10
8.71606
 20
3.08120
 30
0.000000
  70
    32
  0
VERTEX
  8
0
  5
19C7
 10
8.71600
 20
3.08119
 30
0.000000
  70
    32
  0
VERTEX
  8
0
  5
19C8
 10
8.71595
 20
3.08119
 30
0.000000
  70
    32
  0
VERTEX
  8
0
  5
19C9
 10
8.71589
 20
3.08118
 30
0.000000
  70
    32
  0
VERTEX
  8
0
  5
19CA
 10
8.71584
 20
3.08117
 30
0.000000
  70
    32
  0
VERTEX
  8
0
  5
19CB
 10
8.71578
 20
3.08116
 30
0.000000
  70
    32
  0
VERTEX
  8
0
  5
19CC
 10
8.71573
 20
3.08116
 30
0.000000
  70
    32
  0
VERTEX
  8
0
  5
19CD
 10
8.71568
 20
3.08115
 30
0.000000
  70
    32
  0
VERTEX
  8
0
  5
19CE
 10
8.71563
 20
3.08114
 30
0.000000
  70
    32
  0
VERTEX
  8
0
  5
19CF
 10
8.71558
 20
3.08113
 30
0.000000
  70
    32
  0
VERTEX
  8
0
  5
19D0
 10
8.71554
 20
3.08113
 30
0.000000
  70
    32
  0
VERTEX
  8
0
  5
19D1
 10
8.71549
 20
3.08112
 30
0.000000
  70
    32
  0
VERTEX
  8
0
  5
19D2
 10
8.71544
 20
3.08111
 30
0.000000
  70
    32
  0
VERTEX
  8
0
  5
19D3
 10
8.71540
 20
3.08110
 30
0.000000
  70
    32
  0
VERTEX
  8
0
  5
19D4
 10
8.71535
 20
3.08110
 30
0.000000
  70
    32
  0
VERTEX
  8
0
  5
19D5
 10
8.71531
 20
3.08109
 30
0.000000
  70
    32
  0
VERTEX
  8
0
  5
19D6
 10
8.71527
 20
3.08108
 30
0.000000
  70
    32
  0
VERTEX
  8
0
  5
19D7
 10
8.71523
 20
3.08107
 30
0.000000
  70
    32
  0
VERTEX
  8
0
  5
19D8
 10
8.71519
 20
3.08107
 30
0.000000
  70
    32
  0
VERTEX
  8
0
  5
19D9
 10
8.71515
 20
3.08106
 30
0.000000
  70
    32
  0
VERTEX
  8
0
  5
19DA
 10
8.71512
 20
3.08105
 30
0.000000
  70
    32
  0
VERTEX
  8
0
  5
19DB
 10
8.71508
 20
3.08104
 30
0.000000
  70
    32
  0
VERTEX
  8
0
  5
19DC
 10
8.71505
 20
3.08104
 30
0.000000
  70
    32
  0
VERTEX
  8
0
  5
19DD
 10
8.71501
 20
3.08103
 30
0.000000
  70
    32
  0
VERTEX
  8
0
  5
19DE
 10
8.71498
 20
3.08102
 30
0.000000
  70
    32
  0
VERTEX
  8
0
  5
19DF
 10
8.71495
 20
3.08101
 30
0.000000
  70
    32
  0
VERTEX
  8
0
  5
19E0
 10
8.71492
 20
3.08101
 30
0.000000
  70
    32
  0
VERTEX
  8
0
  5
19E1
 10
8.71489
 20
3.08100
 30
0.000000
  70
    32
  0
VERTEX
  8
0
  5
19E2
 10
8.71486
 20
3.08099
 30
0.000000
  70
    32
  0
VERTEX
  8
0
  5
19E3
 10
8.71483
 20
3.08098
 30
0.000000
  70
    32
  0
VERTEX
  8
0
  5
19E4
 10
8.71480
 20
3.08098
 30
0.000000
  70
    32
  0
VERTEX
  8
0
  5
19E5
 10
8.71477
 20
3.08097
 30
0.000000
  70
    32
  0
VERTEX
  8
0
  5
19E6
 10
8.71475
 20
3.08096
 30
0.000000
  70
    32
  0
VERTEX
  8
0
  5
19E7
 10
8.71472
 20
3.08095
 30
0.000000
  70
    32
  0
VERTEX
  8
0
  5
19E8
 10
8.71470
 20
3.08095
 30
0.000000
  70
    32
  0
VERTEX
  8
0
  5
19E9
 10
8.71468
 20
3.08094
 30
0.000000
  70
    32
  0
VERTEX
  8
0
  5
19EA
 10
8.71466
 20
3.08093
 30
0.000000
  70
    32
  0
VERTEX
  8
0
  5
19EB
 10
8.71464
 20
3.08092
 30
0.000000
  70
    32
  0
VERTEX
  8
0
  5
19EC
 10
8.71461
 20
3.08092
 30
0.000000
  70
    32
  0
VERTEX
  8
0
  5
19ED
 10
8.71460
 20
3.08091
 30
0.000000
  70
    32
  0
VERTEX
  8
0
  5
19EE
 10
8.71458
 20
3.08090
 30
0.000000
  70
    32
  0
VERTEX
  8
0
  5
19EF
 10
8.71456
 20
3.08089
 30
0.000000
  70
    32
  0
VERTEX
  8
0
  5
19F0
 10
8.71454
 20
3.08089
 30
0.000000
  70
    32
  0
VERTEX
  8
0
  5
19F1
 10
8.71453
 20
3.08088
 30
0.000000
  70
    32
  0
VERTEX
  8
0
  5
19F2
 10
8.71451
 20
3.08087
 30
0.000000
  70
    32
  0
VERTEX
  8
0
  5
19F3
 10
8.71450
 20
3.08086
 30
0.000000
  70
    32
  0
VERTEX
  8
0
  5
19F4
 10
8.71448
 20
3.08086
 30
0.000000
  70
    32
  0
VERTEX
  8
0
  5
19F5
 10
8.71447
 20
3.08085
 30
0.000000
  70
    32
  0
VERTEX
  8
0
  5
19F6
 10
8.71446
 20
3.08084
 30
0.000000
  70
    32
  0
VERTEX
  8
0
  5
19F7
 10
8.71444
 20
3.08083
 30
0.000000
  70
    32
  0
VERTEX
  8
0
  5
19F8
 10
8.71443
 20
3.08083
 30
0.000000
  70
    32
  0
VERTEX
  8
0
  5
19F9
 10
8.71442
 20
3.08082
 30
0.000000
  70
    32
  0
VERTEX
  8
0
  5
19FA
 10
8.71441
 20
3.08081
 30
0.000000
  70
    32
  0
VERTEX
  8
0
  5
19FB
 10
8.71440
 20
3.08080
 30
0.000000
  70
    32
  0
VERTEX
  8
0
  5
19FC
 10
8.71440
 20
3.08080
 30
0.000000
  70
    32
  0
VERTEX
  8
0
  5
19FD
 10
8.71439
 20
3.08079
 30
0.000000
  70
    32
  0
VERTEX
  8
0
  5
19FE
 10
8.71438
 20
3.08078
 30
0.000000
  70
    32
  0
VERTEX
  8
0
  5
19FF
 10
8.71437
 20
3.08077
 30
0.000000
  70
    32
  0
VERTEX
  8
0
  5
1A00
 10
8.71437
 20
3.08077
 30
0.000000
  70
    32
  0
VERTEX
  8
0
  5
1A01
 10
8.71436
 20
3.08076
 30
0.000000
  70
    32
  0
VERTEX
  8
0
  5
1A02
 10
8.71436
 20
3.08075
 30
0.000000
  70
    32
  0
VERTEX
  8
0
  5
1A03
 10
8.71436
 20
3.08074
 30
0.000000
  70
    32
  0
VERTEX
  8
0
  5
1A04
 10
8.71435
 20
3.08073
 30
0.000000
  70
    32
  0
VERTEX
  8
0
  5
1A05
 10
8.71435
 20
3.08073
 30
0.000000
  70
    32
  0
VERTEX
  8
0
  5
1A06
 10
8.71435
 20
3.08072
 30
0.000000
  70
    32
  0
VERTEX
  8
0
  5
1A07
 10
8.71435
 20
3.08071
 30
0.000000
  70
    32
  0
VERTEX
  8
0
  5
1A08
 10
8.71434
 20
3.08070
 30
0.000000
  70
    32
  0
VERTEX
  8
0
  5
1A09
 10
8.71434
 20
3.08070
 30
0.000000
  70
    32
  0
VERTEX
  8
0
  5
1A0A
 10
8.71434
 20
3.08069
 30
0.000000
  70
    32
  0
VERTEX
  8
0
  5
1A0B
 10
8.71434
 20
3.08068
 30
0.000000
  70
    32
  0
VERTEX
  8
0
  5
1A0C
 10
8.71435
 20
3.08067
 30
0.000000
  70
    32
  0
VERTEX
  8
0
  5
1A0D
 10
8.71435
 20
3.08067
 30
0.000000
  70
    32
  0
VERTEX
  8
0
  5
1A0E
 10
8.71435
 20
3.08066
 30
0.000000
  70
    32
  0
VERTEX
  8
0
  5
1A0F
 10
8.71435
 20
3.08065
 30
0.000000
  70
    32
  0
VERTEX
  8
0
  5
1A10
 10
8.71435
 20
3.08064
 30
0.000000
  70
    32
  0
VERTEX
  8
0
  5
1A11
 10
8.71436
 20
3.08064
 30
0.000000
  70
    32
  0
VERTEX
  8
0
  5
1A12
 10
8.71436
 20
3.08063
 30
0.000000
  70
    32
  0
VERTEX
  8
0
  5
1A13
 10
8.71437
 20
3.08062
 30
0.000000
  70
    32
  0
VERTEX
  8
0
  5
1A14
 10
8.71437
 20
3.08061
 30
0.000000
  70
    32
  0
VERTEX
  8
0
  5
1A15
 10
8.71437
 20
3.08061
 30
0.000000
  70
    32
  0
VERTEX
  8
0
  5
1A16
 10
8.71438
 20
3.08060
 30
0.000000
  70
    32
  0
VERTEX
  8
0
  5
1A17
 10
8.71439
 20
3.08059
 30
0.000000
  70
    32
  0
VERTEX
  8
0
  5
1A18
 10
8.71439
 20
3.08058
 30
0.000000
  70
    32
  0
VERTEX
  8
0
  5
1A19
 10
8.71440
 20
3.08058
 30
0.000000
  70
    32
  0
VERTEX
  8
0
  5
1A1A
 10
8.71441
 20
3.08057
 30
0.000000
  70
    32
  0
VERTEX
  8
0
  5
1A1B
 10
8.71441
 20
3.08056
 30
0.000000
  70
    32
  0
VERTEX
  8
0
  5
1A1C
 10
8.71442
 20
3.08055
 30
0.000000
  70
    32
  0
VERTEX
  8
0
  5
1A1D
 10
8.71443
 20
3.08055
 30
0.000000
  70
    32
  0
VERTEX
  8
0
  5
1A1E
 10
8.71444
 20
3.08054
 30
0.000000
  70
    32
  0
VERTEX
  8
0
  5
1A1F
 10
8.71444
 20
3.08053
 30
0.000000
  70
    32
  0
VERTEX
  8
0
  5
1A20
 10
8.71445
 20
3.08052
 30
0.000000
  70
    32
  0
VERTEX
  8
0
  5
1A21
 10
8.71446
 20
3.08052
 30
0.000000
  70
    32
  0
VERTEX
  8
0
  5
1A22
 10
8.71447
 20
3.08051
 30
0.000000
  70
    32
  0
VERTEX
  8
0
  5
1A23
 10
8.71448
 20
3.08050
 30
0.000000
  70
    32
  0
VERTEX
  8
0
  5
1A24
 10
8.71449
 20
3.08049
 30
0.000000
  70
    32
  0
VERTEX
  8
0
  5
1A25
 10
8.71450
 20
3.08048
 30
0.000000
  70
    32
  0
VERTEX
  8
0
  5
1A26
 10
8.71451
 20
3.08048
 30
0.000000
  70
    32
  0
VERTEX
  8
0
  5
1A27
 10
8.71452
 20
3.08047
 30
0.000000
  70
    32
  0
VERTEX
  8
0
  5
1A28
 10
8.71453
 20
3.08046
 30
0.000000
  70
    32
  0
VERTEX
  8
0
  5
1A29
 10
8.71454
 20
3.08045
 30
0.000000
  70
    32
  0
VERTEX
  8
0
  5
1A2A
 10
8.71455
 20
3.08045
 30
0.000000
  70
    32
  0
VERTEX
  8
0
  5
1A2B
 10
8.71457
 20
3.08044
 30
0.000000
  70
    32
  0
VERTEX
  8
0
  5
1A2C
 10
8.71458
 20
3.08043
 30
0.000000
  70
    32
  0
VERTEX
  8
0
  5
1A2D
 10
8.71459
 20
3.08042
 30
0.000000
  70
    32
  0
VERTEX
  8
0
  5
1A2E
 10
8.71460
 20
3.08042
 30
0.000000
  70
    32
  0
VERTEX
  8
0
  5
1A2F
 10
8.71461
 20
3.08041
 30
0.000000
  70
    32
  0
VERTEX
  8
0
  5
1A30
 10
8.71462
 20
3.08040
 30
0.000000
  70
    32
  0
VERTEX
  8
0
  5
1A31
 10
8.71464
 20
3.08039
 30
0.000000
  70
    32
  0
VERTEX
  8
0
  5
1A32
 10
8.71465
 20
3.08039
 30
0.000000
  70
    32
  0
VERTEX
  8
0
  5
1A33
 10
8.71466
 20
3.08038
 30
0.000000
  70
    32
  0
VERTEX
  8
0
  5
1A34
 10
8.71467
 20
3.08037
 30
0.000000
  70
    32
  0
VERTEX
  8
0
  5
1A35
 10
8.71468
 20
3.08036
 30
0.000000
  70
    32
  0
VERTEX
  8
0
  5
1A36
 10
8.71470
 20
3.08036
 30
0.000000
  70
    32
  0
VERTEX
  8
0
  5
1A37
 10
8.71471
 20
3.08035
 30
0.000000
  70
    32
  0
VERTEX
  8
0
  5
1A38
 10
8.71472
 20
3.08034
 30
0.000000
  70
    32
  0
VERTEX
  8
0
  5
1A39
 10
8.71473
 20
3.08033
 30
0.000000
  70
    32
  0
VERTEX
  8
0
  5
1A3A
 10
8.71475
 20
3.08033
 30
0.000000
  70
    32
  0
SEQEND
  8
0
  5
1A3B
  0
LINE
  5
128B
  8
0
  6
CONTINUOUS
 62
     7
 10
8.7823238927999991
 20
3.0815184183999991
 30
0.0
 11
8.7749003337999998
 21
3.080446918399999
 31
0.0
  0
LINE
  5
128D
  8
0
  6
CONTINUOUS
 62
     7
 10
8.8419559167999981
 20
3.2065184183999991
 30
0.0
 11
8.9082059168000001
 21
3.2065184183999991
 31
0.0
  0
LINE
  5
128E
  8
0
  6
CONTINUOUS
 62
     7
 10
8.6669559167999992
 20
3.0815184183999991
 30
0.0
 11
8.8419559167999981
 21
3.0815184183999991
 31
0.0
  0
LINE
  5
128F
  8
0
  6
CONTINUOUS
 62
     7
 10
8.6669559167999992
 20
3.2065184183999991
 30
0.0
 11
8.6669559167999992
 21
3.0815184183999991
 31
0.0
  0
LINE
  5
1290
  8
0
  6
CONTINUOUS
 62
     7
 10
8.6007059167999991
 20
3.2065184183999991
 30
0.0
 11
8.6669559167999992
 21
3.2065184183999991
 31
0.0
  0
LINE
  5
1291
  8
0
  6
CONTINUOUS
 62
     7
 10
8.6007059167999991
 20
3.2640184183999992
 30
0.0
 11
8.6007059167999991
 21
3.2065184183999991
 31
0.0
  0
LINE
  5
1292
  8
0
  6
CONTINUOUS
 62
     7
 10
8.9082059168000001
 20
3.2640184183999992
 30
0.0
 11
8.6007059167999991
 21
3.2640184183999992
 31
0.0
  0
LINE
  5
1293
  8
0
  6
CONTINUOUS
 62
     7
 10
8.8419559167999981
 20
3.0815184183999991
 30
0.0
 11
8.8419559167999981
 21
3.2065184183999991
 31
0.0
  0
LINE
  5
1294
  8
0
  6
CONTINUOUS
 62
     7
 10
8.9082059168000001
 20
3.2065184183999991
 30
0.0
 11
8.9082059168000001
 21
3.2640184183999992
 31
0.0
  0
LINE
  5
1295
  8
0
  6
CONTINUOUS
 62
     7
 10
8.5235727805999986
 20
3.2630685783999991
 30
0.0
 11
8.6007059167999991
 21
3.2631083567222059
 31
0.0
  0
LINE
  5
1296
  8
0
  6
CONTINUOUS
 62
     7
 10
8.9082059168000001
 20
3.262912135856971
 30
0.0
 11
8.9853390529999988
 21
3.2630685783999991
 31
0.0
  0
ARC
  5
129A
  8
0
  6
CONTINUOUS
 62
     7
 10
8.9404713083000011
 20
3.0593184183999989
 30
0.0
 40
0.010000000000001
 50
188.87466031919999
 51
270.0
  0
LINE
  5
129B
  8
0
  6
CONTINUOUS
 62
     7
 10
8.9404713083000011
 20
3.0493184183999991
 30
0.0
 11
8.9630030421000004
 21
3.0493184183999991
 31
0.0
  0
LINE
  5
129C
  8
0
  6
CONTINUOUS
 62
     7
 10
8.9303754465999994
 20
3.0591563425999988
 30
0.0
 11
8.9305910264000001
 21
3.0577756841000001
 31
0.0
  0
LINE
  5
129D
  8
0
  6
CONTINUOUS
 62
     7
 10
8.9630030421000004
 20
3.0493184183999991
 30
0.0
 11
8.9630042348999996
 21
3.0492500833999991
 31
0.0
  0
POLYLINE
  8
0
  5
1A3C
  62
7
  66
     1
 10
0.000000
 20
0.000000
 30
0.000000
  70
     8
  0
VERTEX
  8
0
  5
1A3D
 10
8.50681
 20
2.69333
 30
0.000000
  70
    32
  0
VERTEX
  8
0
  5
1A3E
 10
8.50666
 20
2.69325
 30
0.000000
  70
    32
  0
VERTEX
  8
0
  5
1A3F
 10
8.50651
 20
2.69317
 30
0.000000
  70
    32
  0
VERTEX
  8
0
  5
1A40
 10
8.50636
 20
2.69309
 30
0.000000
  70
    32
  0
VERTEX
  8
0
  5
1A41
 10
8.50621
 20
2.69301
 30
0.000000
  70
    32
  0
VERTEX
  8
0
  5
1A42
 10
8.50606
 20
2.69293
 30
0.000000
  70
    32
  0
VERTEX
  8
0
  5
1A43
 10
8.50591
 20
2.69285
 30
0.000000
  70
    32
  0
VERTEX
  8
0
  5
1A44
 10
8.50576
 20
2.69277
 30
0.000000
  70
    32
  0
VERTEX
  8
0
  5
1A45
 10
8.50561
 20
2.69269
 30
0.000000
  70
    32
  0
VERTEX
  8
0
  5
1A46
 10
8.50546
 20
2.69261
 30
0.000000
  70
    32
  0
VERTEX
  8
0
  5
1A47
 10
8.50531
 20
2.69253
 30
0.000000
  70
    32
  0
VERTEX
  8
0
  5
1A48
 10
8.50515
 20
2.69245
 30
0.000000
  70
    32
  0
VERTEX
  8
0
  5
1A49
 10
8.50500
 20
2.69237
 30
0.000000
  70
    32
  0
VERTEX
  8
0
  5
1A4A
 10
8.50485
 20
2.69229
 30
0.000000
  70
    32
  0
VERTEX
  8
0
  5
1A4B
 10
8.50470
 20
2.69222
 30
0.000000
  70
    32
  0
VERTEX
  8
0
  5
1A4C
 10
8.50454
 20
2.69214
 30
0.000000
  70
    32
  0
VERTEX
  8
0
  5
1A4D
 10
8.50439
 20
2.69206
 30
0.000000
  70
    32
  0
VERTEX
  8
0
  5
1A4E
 10
8.50424
 20
2.69198
 30
0.000000
  70
    32
  0
VERTEX
  8
0
  5
1A4F
 10
8.50408
 20
2.69191
 30
0.000000
  70
    32
  0
VERTEX
  8
0
  5
1A50
 10
8.50393
 20
2.69183
 30
0.000000
  70
    32
  0
VERTEX
  8
0
  5
1A51
 10
8.50377
 20
2.69176
 30
0.000000
  70
    32
  0
VERTEX
  8
0
  5
1A52
 10
8.50362
 20
2.69168
 30
0.000000
  70
    32
  0
VERTEX
  8
0
  5
1A53
 10
8.50347
 20
2.69161
 30
0.000000
  70
    32
  0
VERTEX
  8
0
  5
1A54
 10
8.50331
 20
2.69154
 30
0.000000
  70
    32
  0
VERTEX
  8
0
  5
1A55
 10
8.50315
 20
2.69146
 30
0.000000
  70
    32
  0
VERTEX
  8
0
  5
1A56
 10
8.50300
 20
2.69139
 30
0.000000
  70
    32
  0
VERTEX
  8
0
  5
1A57
 10
8.50284
 20
2.69132
 30
0.000000
  70
    32
  0
VERTEX
  8
0
  5
1A58
 10
8.50269
 20
2.69124
 30
0.000000
  70
    32
  0
VERTEX
  8
0
  5
1A59
 10
8.50253
 20
2.69117
 30
0.000000
  70
    32
  0
VERTEX
  8
0
  5
1A5A
 10
8.50238
 20
2.69110
 30
0.000000
  70
    32
  0
VERTEX
  8
0
  5
1A5B
 10
8.50222
 20
2.69103
 30
0.000000
  70
    32
  0
VERTEX
  8
0
  5
1A5C
 10
8.50206
 20
2.69096
 30
0.000000
  70
    32
  0
VERTEX
  8
0
  5
1A5D
 10
8.50191
 20
2.69089
 30
0.000000
  70
    32
  0
VERTEX
  8
0
  5
1A5E
 10
8.50175
 20
2.69082
 30
0.000000
  70
    32
  0
VERTEX
  8
0
  5
1A5F
 10
8.50159
 20
2.69075
 30
0.000000
  70
    32
  0
VERTEX
  8
0
  5
1A60
 10
8.50143
 20
2.69068
 30
0.000000
  70
    32
  0
VERTEX
  8
0
  5
1A61
 10
8.50128
 20
2.69061
 30
0.000000
  70
    32
  0
VERTEX
  8
0
  5
1A62
 10
8.50112
 20
2.69054
 30
0.000000
  70
    32
  0
VERTEX
  8
0
  5
1A63
 10
8.50096
 20
2.69048
 30
0.000000
  70
    32
  0
VERTEX
  8
0
  5
1A64
 10
8.50080
 20
2.69041
 30
0.000000
  70
    32
  0
VERTEX
  8
0
  5
1A65
 10
8.50064
 20
2.69034
 30
0.000000
  70
    32
  0
VERTEX
  8
0
  5
1A66
 10
8.50049
 20
2.69028
 30
0.000000
  70
    32
  0
VERTEX
  8
0
  5
1A67
 10
8.50033
 20
2.69021
 30
0.000000
  70
    32
  0
VERTEX
  8
0
  5
1A68
 10
8.50017
 20
2.69015
 30
0.000000
  70
    32
  0
VERTEX
  8
0
  5
1A69
 10
8.50001
 20
2.69008
 30
0.000000
  70
    32
  0
VERTEX
  8
0
  5
1A6A
 10
8.49985
 20
2.69002
 30
0.000000
  70
    32
  0
VERTEX
  8
0
  5
1A6B
 10
8.49969
 20
2.68995
 30
0.000000
  70
    32
  0
VERTEX
  8
0
  5
1A6C
 10
8.49953
 20
2.68989
 30
0.000000
  70
    32
  0
VERTEX
  8
0
  5
1A6D
 10
8.49937
 20
2.68983
 30
0.000000
  70
    32
  0
VERTEX
  8
0
  5
1A6E
 10
8.49921
 20
2.68976
 30
0.000000
  70
    32
  0
VERTEX
  8
0
  5
1A6F
 10
8.49905
 20
2.68970
 30
0.000000
  70
    32
  0
VERTEX
  8
0
  5
1A70
 10
8.49889
 20
2.68964
 30
0.000000
  70
    32
  0
VERTEX
  8
0
  5
1A71
 10
8.49873
 20
2.68958
 30
0.000000
  70
    32
  0
VERTEX
  8
0
  5
1A72
 10
8.49857
 20
2.68952
 30
0.000000
  70
    32
  0
VERTEX
  8
0
  5
1A73
 10
8.49841
 20
2.68946
 30
0.000000
  70
    32
  0
VERTEX
  8
0
  5
1A74
 10
8.49825
 20
2.68940
 30
0.000000
  70
    32
  0
VERTEX
  8
0
  5
1A75
 10
8.49809
 20
2.68934
 30
0.000000
  70
    32
  0
VERTEX
  8
0
  5
1A76
 10
8.49793
 20
2.68928
 30
0.000000
  70
    32
  0
VERTEX
  8
0
  5
1A77
 10
8.49777
 20
2.68922
 30
0.000000
  70
    32
  0
VERTEX
  8
0
  5
1A78
 10
8.49761
 20
2.68916
 30
0.000000
  70
    32
  0
VERTEX
  8
0
  5
1A79
 10
8.49745
 20
2.68911
 30
0.000000
  70
    32
  0
VERTEX
  8
0
  5
1A7A
 10
8.49729
 20
2.68905
 30
0.000000
  70
    32
  0
VERTEX
  8
0
  5
1A7B
 10
8.49713
 20
2.68899
 30
0.000000
  70
    32
  0
VERTEX
  8
0
  5
1A7C
 10
8.49697
 20
2.68894
 30
0.000000
  70
    32
  0
VERTEX
  8
0
  5
1A7D
 10
8.49681
 20
2.68888
 30
0.000000
  70
    32
  0
VERTEX
  8
0
  5
1A7E
 10
8.49665
 20
2.68883
 30
0.000000
  70
    32
  0
VERTEX
  8
0
  5
1A7F
 10
8.49648
 20
2.68877
 30
0.000000
  70
    32
  0
VERTEX
  8
0
  5
1A80
 10
8.49632
 20
2.68872
 30
0.000000
  70
    32
  0
VERTEX
  8
0
  5
1A81
 10
8.49616
 20
2.68867
 30
0.000000
  70
    32
  0
VERTEX
  8
0
  5
1A82
 10
8.49600
 20
2.68861
 30
0.000000
  70
    32
  0
VERTEX
  8
0
  5
1A83
 10
8.49584
 20
2.68856
 30
0.000000
  70
    32
  0
VERTEX
  8
0
  5
1A84
 10
8.49568
 20
2.68851
 30
0.000000
  70
    32
  0
VERTEX
  8
0
  5
1A85
 10
8.49552
 20
2.68846
 30
0.000000
  70
    32
  0
VERTEX
  8
0
  5
1A86
 10
8.49536
 20
2.68841
 30
0.000000
  70
    32
  0
VERTEX
  8
0
  5
1A87
 10
8.49519
 20
2.68836
 30
0.000000
  70
    32
  0
VERTEX
  8
0
  5
1A88
 10
8.49503
 20
2.68831
 30
0.000000
  70
    32
  0
VERTEX
  8
0
  5
1A89
 10
8.49487
 20
2.68826
 30
0.000000
  70
    32
  0
VERTEX
  8
0
  5
1A8A
 10
8.49471
 20
2.68821
 30
0.000000
  70
    32
  0
VERTEX
  8
0
  5
1A8B
 10
8.49455
 20
2.68816
 30
0.000000
  70
    32
  0
VERTEX
  8
0
  5
1A8C
 10
8.49439
 20
2.68812
 30
0.000000
  70
    32
  0
VERTEX
  8
0
  5
1A8D
 10
8.49423
 20
2.68807
 30
0.000000
  70
    32
  0
VERTEX
  8
0
  5
1A8E
 10
8.49406
 20
2.68802
 30
0.000000
  70
    32
  0
VERTEX
  8
0
  5
1A8F
 10
8.49390
 20
2.68798
 30
0.000000
  70
    32
  0
VERTEX
  8
0
  5
1A90
 10
8.49374
 20
2.68793
 30
0.000000
  70
    32
  0
VERTEX
  8
0
  5
1A91
 10
8.49358
 20
2.68789
 30
0.000000
  70
    32
  0
VERTEX
  8
0
  5
1A92
 10
8.49342
 20
2.68784
 30
0.000000
  70
    32
  0
VERTEX
  8
0
  5
1A93
 10
8.49326
 20
2.68780
 30
0.000000
  70
    32
  0
VERTEX
  8
0
  5
1A94
 10
8.49310
 20
2.68775
 30
0.000000
  70
    32
  0
VERTEX
  8
0
  5
1A95
 10
8.49293
 20
2.68771
 30
0.000000
  70
    32
  0
VERTEX
  8
0
  5
1A96
 10
8.49277
 20
2.68767
 30
0.000000
  70
    32
  0
VERTEX
  8
0
  5
1A97
 10
8.49261
 20
2.68763
 30
0.000000
  70
    32
  0
VERTEX
  8
0
  5
1A98
 10
8.49245
 20
2.68759
 30
0.000000
  70
    32
  0
VERTEX
  8
0
  5
1A99
 10
8.49229
 20
2.68755
 30
0.000000
  70
    32
  0
VERTEX
  8
0
  5
1A9A
 10
8.49213
 20
2.68751
 30
0.000000
  70
    32
  0
VERTEX
  8
0
  5
1A9B
 10
8.49197
 20
2.68747
 30
0.000000
  70
    32
  0
VERTEX
  8
0
  5
1A9C
 10
8.49181
 20
2.68743
 30
0.000000
  70
    32
  0
VERTEX
  8
0
  5
1A9D
 10
8.49165
 20
2.68739
 30
0.000000
  70
    32
  0
VERTEX
  8
0
  5
1A9E
 10
8.49149
 20
2.68735
 30
0.000000
  70
    32
  0
VERTEX
  8
0
  5
1A9F
 10
8.49132
 20
2.68732
 30
0.000000
  70
    32
  0
VERTEX
  8
0
  5
1AA0
 10
8.49116
 20
2.68728
 30
0.000000
  70
    32
  0
VERTEX
  8
0
  5
1AA1
 10
8.49100
 20
2.68724
 30
0.000000
  70
    32
  0
VERTEX
  8
0
  5
1AA2
 10
8.49084
 20
2.68721
 30
0.000000
  70
    32
  0
VERTEX
  8
0
  5
1AA3
 10
8.49068
 20
2.68717
 30
0.000000
  70
    32
  0
VERTEX
  8
0
  5
1AA4
 10
8.49052
 20
2.68714
 30
0.000000
  70
    32
  0
VERTEX
  8
0
  5
1AA5
 10
8.49036
 20
2.68710
 30
0.000000
  70
    32
  0
VERTEX
  8
0
  5
1AA6
 10
8.49020
 20
2.68707
 30
0.000000
  70
    32
  0
VERTEX
  8
0
  5
1AA7
 10
8.49004
 20
2.68704
 30
0.000000
  70
    32
  0
VERTEX
  8
0
  5
1AA8
 10
8.48988
 20
2.68701
 30
0.000000
  70
    32
  0
VERTEX
  8
0
  5
1AA9
 10
8.48972
 20
2.68697
 30
0.000000
  70
    32
  0
VERTEX
  8
0
  5
1AAA
 10
8.48956
 20
2.68694
 30
0.000000
  70
    32
  0
VERTEX
  8
0
  5
1AAB
 10
8.48940
 20
2.68691
 30
0.000000
  70
    32
  0
VERTEX
  8
0
  5
1AAC
 10
8.48924
 20
2.68688
 30
0.000000
  70
    32
  0
VERTEX
  8
0
  5
1AAD
 10
8.48908
 20
2.68685
 30
0.000000
  70
    32
  0
VERTEX
  8
0
  5
1AAE
 10
8.48892
 20
2.68682
 30
0.000000
  70
    32
  0
VERTEX
  8
0
  5
1AAF
 10
8.48877
 20
2.68680
 30
0.000000
  70
    32
  0
VERTEX
  8
0
  5
1AB0
 10
8.48861
 20
2.68677
 30
0.000000
  70
    32
  0
VERTEX
  8
0
  5
1AB1
 10
8.48845
 20
2.68674
 30
0.000000
  70
    32
  0
VERTEX
  8
0
  5
1AB2
 10
8.48829
 20
2.68671
 30
0.000000
  70
    32
  0
VERTEX
  8
0
  5
1AB3
 10
8.48813
 20
2.68669
 30
0.000000
  70
    32
  0
VERTEX
  8
0
  5
1AB4
 10
8.48797
 20
2.68666
 30
0.000000
  70
    32
  0
VERTEX
  8
0
  5
1AB5
 10
8.48781
 20
2.68663
 30
0.000000
  70
    32
  0
VERTEX
  8
0
  5
1AB6
 10
8.48765
 20
2.68661
 30
0.000000
  70
    32
  0
VERTEX
  8
0
  5
1AB7
 10
8.48749
 20
2.68658
 30
0.000000
  70
    32
  0
VERTEX
  8
0
  5
1AB8
 10
8.48733
 20
2.68656
 30
0.000000
  70
    32
  0
VERTEX
  8
0
  5
1AB9
 10
8.48718
 20
2.68654
 30
0.000000
  70
    32
  0
VERTEX
  8
0
  5
1ABA
 10
8.48702
 20
2.68651
 30
0.000000
  70
    32
  0
VERTEX
  8
0
  5
1ABB
 10
8.48686
 20
2.68649
 30
0.000000
  70
    32
  0
VERTEX
  8
0
  5
1ABC
 10
8.48670
 20
2.68647
 30
0.000000
  70
    32
  0
VERTEX
  8
0
  5
1ABD
 10
8.48654
 20
2.68644
 30
0.000000
  70
    32
  0
VERTEX
  8
0
  5
1ABE
 10
8.48638
 20
2.68642
 30
0.000000
  70
    32
  0
VERTEX
  8
0
  5
1ABF
 10
8.48622
 20
2.68640
 30
0.000000
  70
    32
  0
VERTEX
  8
0
  5
1AC0
 10
8.48607
 20
2.68638
 30
0.000000
  70
    32
  0
VERTEX
  8
0
  5
1AC1
 10
8.48591
 20
2.68636
 30
0.000000
  70
    32
  0
VERTEX
  8
0
  5
1AC2
 10
8.48575
 20
2.68634
 30
0.000000
  70
    32
  0
VERTEX
  8
0
  5
1AC3
 10
8.48559
 20
2.68632
 30
0.000000
  70
    32
  0
VERTEX
  8
0
  5
1AC4
 10
8.48543
 20
2.68630
 30
0.000000
  70
    32
  0
VERTEX
  8
0
  5
1AC5
 10
8.48528
 20
2.68628
 30
0.000000
  70
    32
  0
VERTEX
  8
0
  5
1AC6
 10
8.48512
 20
2.68626
 30
0.000000
  70
    32
  0
VERTEX
  8
0
  5
1AC7
 10
8.48496
 20
2.68624
 30
0.000000
  70
    32
  0
VERTEX
  8
0
  5
1AC8
 10
8.48480
 20
2.68622
 30
0.000000
  70
    32
  0
VERTEX
  8
0
  5
1AC9
 10
8.48464
 20
2.68620
 30
0.000000
  70
    32
  0
VERTEX
  8
0
  5
1ACA
 10
8.48449
 20
2.68619
 30
0.000000
  70
    32
  0
VERTEX
  8
0
  5
1ACB
 10
8.48433
 20
2.68617
 30
0.000000
  70
    32
  0
VERTEX
  8
0
  5
1ACC
 10
8.48417
 20
2.68615
 30
0.000000
  70
    32
  0
VERTEX
  8
0
  5
1ACD
 10
8.48401
 20
2.68614
 30
0.000000
  70
    32
  0
VERTEX
  8
0
  5
1ACE
 10
8.48386
 20
2.68612
 30
0.000000
  70
    32
  0
VERTEX
  8
0
  5
1ACF
 10
8.48370
 20
2.68610
 30
0.000000
  70
    32
  0
VERTEX
  8
0
  5
1AD0
 10
8.48354
 20
2.68609
 30
0.000000
  70
    32
  0
VERTEX
  8
0
  5
1AD1
 10
8.48338
 20
2.68607
 30
0.000000
  70
    32
  0
VERTEX
  8
0
  5
1AD2
 10
8.48323
 20
2.68606
 30
0.000000
  70
    32
  0
VERTEX
  8
0
  5
1AD3
 10
8.48307
 20
2.68604
 30
0.000000
  70
    32
  0
VERTEX
  8
0
  5
1AD4
 10
8.48291
 20
2.68603
 30
0.000000
  70
    32
  0
VERTEX
  8
0
  5
1AD5
 10
8.48275
 20
2.68601
 30
0.000000
  70
    32
  0
VERTEX
  8
0
  5
1AD6
 10
8.48260
 20
2.68600
 30
0.000000
  70
    32
  0
VERTEX
  8
0
  5
1AD7
 10
8.48244
 20
2.68598
 30
0.000000
  70
    32
  0
VERTEX
  8
0
  5
1AD8
 10
8.48228
 20
2.68597
 30
0.000000
  70
    32
  0
VERTEX
  8
0
  5
1AD9
 10
8.48213
 20
2.68595
 30
0.000000
  70
    32
  0
VERTEX
  8
0
  5
1ADA
 10
8.48197
 20
2.68594
 30
0.000000
  70
    32
  0
VERTEX
  8
0
  5
1ADB
 10
8.48181
 20
2.68593
 30
0.000000
  70
    32
  0
VERTEX
  8
0
  5
1ADC
 10
8.48165
 20
2.68592
 30
0.000000
  70
    32
  0
VERTEX
  8
0
  5
1ADD
 10
8.48150
 20
2.68590
 30
0.000000
  70
    32
  0
VERTEX
  8
0
  5
1ADE
 10
8.48134
 20
2.68589
 30
0.000000
  70
    32
  0
VERTEX
  8
0
  5
1ADF
 10
8.48118
 20
2.68588
 30
0.000000
  70
    32
  0
VERTEX
  8
0
  5
1AE0
 10
8.48103
 20
2.68586
 30
0.000000
  70
    32
  0
VERTEX
  8
0
  5
1AE1
 10
8.48087
 20
2.68585
 30
0.000000
  70
    32
  0
VERTEX
  8
0
  5
1AE2
 10
8.48071
 20
2.68584
 30
0.000000
  70
    32
  0
VERTEX
  8
0
  5
1AE3
 10
8.48056
 20
2.68583
 30
0.000000
  70
    32
  0
VERTEX
  8
0
  5
1AE4
 10
8.48040
 20
2.68582
 30
0.000000
  70
    32
  0
VERTEX
  8
0
  5
1AE5
 10
8.48024
 20
2.68581
 30
0.000000
  70
    32
  0
VERTEX
  8
0
  5
1AE6
 10
8.48009
 20
2.68579
 30
0.000000
  70
    32
  0
VERTEX
  8
0
  5
1AE7
 10
8.47993
 20
2.68578
 30
0.000000
  70
    32
  0
VERTEX
  8
0
  5
1AE8
 10
8.47977
 20
2.68577
 30
0.000000
  70
    32
  0
VERTEX
  8
0
  5
1AE9
 10
8.47962
 20
2.68576
 30
0.000000
  70
    32
  0
VERTEX
  8
0
  5
1AEA
 10
8.47946
 20
2.68575
 30
0.000000
  70
    32
  0
VERTEX
  8
0
  5
1AEB
 10
8.47930
 20
2.68574
 30
0.000000
  70
    32
  0
VERTEX
  8
0
  5
1AEC
 10
8.47915
 20
2.68573
 30
0.000000
  70
    32
  0
VERTEX
  8
0
  5
1AED
 10
8.47899
 20
2.68572
 30
0.000000
  70
    32
  0
VERTEX
  8
0
  5
1AEE
 10
8.47883
 20
2.68571
 30
0.000000
  70
    32
  0
VERTEX
  8
0
  5
1AEF
 10
8.47868
 20
2.68570
 30
0.000000
  70
    32
  0
VERTEX
  8
0
  5
1AF0
 10
8.47852
 20
2.68569
 30
0.000000
  70
    32
  0
VERTEX
  8
0
  5
1AF1
 10
8.47836
 20
2.68568
 30
0.000000
  70
    32
  0
VERTEX
  8
0
  5
1AF2
 10
8.47821
 20
2.68567
 30
0.000000
  70
    32
  0
VERTEX
  8
0
  5
1AF3
 10
8.47805
 20
2.68566
 30
0.000000
  70
    32
  0
VERTEX
  8
0
  5
1AF4
 10
8.47789
 20
2.68565
 30
0.000000
  70
    32
  0
VERTEX
  8
0
  5
1AF5
 10
8.47774
 20
2.68564
 30
0.000000
  70
    32
  0
VERTEX
  8
0
  5
1AF6
 10
8.47758
 20
2.68563
 30
0.000000
  70
    32
  0
VERTEX
  8
0
  5
1AF7
 10
8.47742
 20
2.68562
 30
0.000000
  70
    32
  0
VERTEX
  8
0
  5
1AF8
 10
8.47727
 20
2.68561
 30
0.000000
  70
    32
  0
VERTEX
  8
0
  5
1AF9
 10
8.47711
 20
2.68560
 30
0.000000
  70
    32
  0
VERTEX
  8
0
  5
1AFA
 10
8.47695
 20
2.68559
 30
0.000000
  70
    32
  0
VERTEX
  8
0
  5
1AFB
 10
8.47680
 20
2.68558
 30
0.000000
  70
    32
  0
VERTEX
  8
0
  5
1AFC
 10
8.47664
 20
2.68557
 30
0.000000
  70
    32
  0
SEQEND
  8
0
  5
1AFD
  0
POLYLINE
  8
0
  5
1AFE
  62
7
  66
     1
 10
0.000000
 20
0.000000
 30
0.000000
  70
     8
  0
VERTEX
  8
0
  5
1AFF
 10
8.50620
 20
2.64303
 30
0.000000
  70
    32
  0
VERTEX
  8
0
  5
1B00
 10
8.50586
 20
2.64307
 30
0.000000
  70
    32
  0
VERTEX
  8
0
  5
1B01
 10
8.50552
 20
2.64312
 30
0.000000
  70
    32
  0
VERTEX
  8
0
  5
1B02
 10
8.50518
 20
2.64317
 30
0.000000
  70
    32
  0
VERTEX
  8
0
  5
1B03
 10
8.50483
 20
2.64322
 30
0.000000
  70
    32
  0
VERTEX
  8
0
  5
1B04
 10
8.50449
 20
2.64327
 30
0.000000
  70
    32
  0
VERTEX
  8
0
  5
1B05
 10
8.50415
 20
2.64331
 30
0.000000
  70
    32
  0
VERTEX
  8
0
  5
1B06
 10
8.50381
 20
2.64336
 30
0.000000
  70
    32
  0
VERTEX
  8
0
  5
1B07
 10
8.50347
 20
2.64341
 30
0.000000
  70
    32
  0
VERTEX
  8
0
  5
1B08
 10
8.50313
 20
2.64346
 30
0.000000
  70
    32
  0
VERTEX
  8
0
  5
1B09
 10
8.50279
 20
2.64350
 30
0.000000
  70
    32
  0
VERTEX
  8
0
  5
1B0A
 10
8.50245
 20
2.64355
 30
0.000000
  70
    32
  0
VERTEX
  8
0
  5
1B0B
 10
8.50211
 20
2.64360
 30
0.000000
  70
    32
  0
VERTEX
  8
0
  5
1B0C
 10
8.50177
 20
2.64365
 30
0.000000
  70
    32
  0
VERTEX
  8
0
  5
1B0D
 10
8.50143
 20
2.64370
 30
0.000000
  70
    32
  0
VERTEX
  8
0
  5
1B0E
 10
8.50110
 20
2.64374
 30
0.000000
  70
    32
  0
VERTEX
  8
0
  5
1B0F
 10
8.50076
 20
2.64379
 30
0.000000
  70
    32
  0
VERTEX
  8
0
  5
1B10
 10
8.50042
 20
2.64384
 30
0.000000
  70
    32
  0
VERTEX
  8
0
  5
1B11
 10
8.50008
 20
2.64389
 30
0.000000
  70
    32
  0
VERTEX
  8
0
  5
1B12
 10
8.49974
 20
2.64393
 30
0.000000
  70
    32
  0
VERTEX
  8
0
  5
1B13
 10
8.49940
 20
2.64398
 30
0.000000
  70
    32
  0
VERTEX
  8
0
  5
1B14
 10
8.49906
 20
2.64403
 30
0.000000
  70
    32
  0
VERTEX
  8
0
  5
1B15
 10
8.49872
 20
2.64408
 30
0.000000
  70
    32
  0
VERTEX
  8
0
  5
1B16
 10
8.49839
 20
2.64412
 30
0.000000
  70
    32
  0
VERTEX
  8
0
  5
1B17
 10
8.49805
 20
2.64417
 30
0.000000
  70
    32
  0
VERTEX
  8
0
  5
1B18
 10
8.49771
 20
2.64422
 30
0.000000
  70
    32
  0
VERTEX
  8
0
  5
1B19
 10
8.49737
 20
2.64427
 30
0.000000
  70
    32
  0
VERTEX
  8
0
  5
1B1A
 10
8.49704
 20
2.64431
 30
0.000000
  70
    32
  0
VERTEX
  8
0
  5
1B1B
 10
8.49670
 20
2.64436
 30
0.000000
  70
    32
  0
VERTEX
  8
0
  5
1B1C
 10
8.49636
 20
2.64441
 30
0.000000
  70
    32
  0
VERTEX
  8
0
  5
1B1D
 10
8.49603
 20
2.64446
 30
0.000000
  70
    32
  0
VERTEX
  8
0
  5
1B1E
 10
8.49569
 20
2.64450
 30
0.000000
  70
    32
  0
VERTEX
  8
0
  5
1B1F
 10
8.49536
 20
2.64455
 30
0.000000
  70
    32
  0
VERTEX
  8
0
  5
1B20
 10
8.49502
 20
2.64460
 30
0.000000
  70
    32
  0
VERTEX
  8
0
  5
1B21
 10
8.49469
 20
2.64464
 30
0.000000
  70
    32
  0
VERTEX
  8
0
  5
1B22
 10
8.49435
 20
2.64469
 30
0.000000
  70
    32
  0
VERTEX
  8
0
  5
1B23
 10
8.49402
 20
2.64474
 30
0.000000
  70
    32
  0
VERTEX
  8
0
  5
1B24
 10
8.49369
 20
2.64478
 30
0.000000
  70
    32
  0
VERTEX
  8
0
  5
1B25
 10
8.49335
 20
2.64483
 30
0.000000
  70
    32
  0
VERTEX
  8
0
  5
1B26
 10
8.49302
 20
2.64488
 30
0.000000
  70
    32
  0
VERTEX
  8
0
  5
1B27
 10
8.49269
 20
2.64493
 30
0.000000
  70
    32
  0
VERTEX
  8
0
  5
1B28
 10
8.49236
 20
2.64497
 30
0.000000
  70
    32
  0
VERTEX
  8
0
  5
1B29
 10
8.49202
 20
2.64502
 30
0.000000
  70
    32
  0
VERTEX
  8
0
  5
1B2A
 10
8.49169
 20
2.64507
 30
0.000000
  70
    32
  0
VERTEX
  8
0
  5
1B2B
 10
8.49136
 20
2.64511
 30
0.000000
  70
    32
  0
VERTEX
  8
0
  5
1B2C
 10
8.49103
 20
2.64516
 30
0.000000
  70
    32
  0
VERTEX
  8
0
  5
1B2D
 10
8.49070
 20
2.64520
 30
0.000000
  70
    32
  0
VERTEX
  8
0
  5
1B2E
 10
8.49037
 20
2.64525
 30
0.000000
  70
    32
  0
VERTEX
  8
0
  5
1B2F
 10
8.49004
 20
2.64530
 30
0.000000
  70
    32
  0
VERTEX
  8
0
  5
1B30
 10
8.48972
 20
2.64534
 30
0.000000
  70
    32
  0
VERTEX
  8
0
  5
1B31
 10
8.48939
 20
2.64539
 30
0.000000
  70
    32
  0
VERTEX
  8
0
  5
1B32
 10
8.48906
 20
2.64543
 30
0.000000
  70
    32
  0
VERTEX
  8
0
  5
1B33
 10
8.48873
 20
2.64548
 30
0.000000
  70
    32
  0
VERTEX
  8
0
  5
1B34
 10
8.48841
 20
2.64553
 30
0.000000
  70
    32
  0
VERTEX
  8
0
  5
1B35
 10
8.48808
 20
2.64557
 30
0.000000
  70
    32
  0
VERTEX
  8
0
  5
1B36
 10
8.48776
 20
2.64562
 30
0.000000
  70
    32
  0
VERTEX
  8
0
  5
1B37
 10
8.48743
 20
2.64566
 30
0.000000
  70
    32
  0
VERTEX
  8
0
  5
1B38
 10
8.48711
 20
2.64571
 30
0.000000
  70
    32
  0
VERTEX
  8
0
  5
1B39
 10
8.48678
 20
2.64575
 30
0.000000
  70
    32
  0
VERTEX
  8
0
  5
1B3A
 10
8.48646
 20
2.64580
 30
0.000000
  70
    32
  0
VERTEX
  8
0
  5
1B3B
 10
8.48614
 20
2.64585
 30
0.000000
  70
    32
  0
VERTEX
  8
0
  5
1B3C
 10
8.48582
 20
2.64589
 30
0.000000
  70
    32
  0
VERTEX
  8
0
  5
1B3D
 10
8.48550
 20
2.64594
 30
0.000000
  70
    32
  0
VERTEX
  8
0
  5
1B3E
 10
8.48518
 20
2.64598
 30
0.000000
  70
    32
  0
VERTEX
  8
0
  5
1B3F
 10
8.48486
 20
2.64603
 30
0.000000
  70
    32
  0
VERTEX
  8
0
  5
1B40
 10
8.48454
 20
2.64607
 30
0.000000
  70
    32
  0
VERTEX
  8
0
  5
1B41
 10
8.48422
 20
2.64612
 30
0.000000
  70
    32
  0
VERTEX
  8
0
  5
1B42
 10
8.48390
 20
2.64616
 30
0.000000
  70
    32
  0
VERTEX
  8
0
  5
1B43
 10
8.48359
 20
2.64620
 30
0.000000
  70
    32
  0
VERTEX
  8
0
  5
1B44
 10
8.48327
 20
2.64625
 30
0.000000
  70
    32
  0
VERTEX
  8
0
  5
1B45
 10
8.48295
 20
2.64629
 30
0.000000
  70
    32
  0
VERTEX
  8
0
  5
1B46
 10
8.48264
 20
2.64634
 30
0.000000
  70
    32
  0
VERTEX
  8
0
  5
1B47
 10
8.48232
 20
2.64638
 30
0.000000
  70
    32
  0
VERTEX
  8
0
  5
1B48
 10
8.48201
 20
2.64643
 30
0.000000
  70
    32
  0
VERTEX
  8
0
  5
1B49
 10
8.48170
 20
2.64647
 30
0.000000
  70
    32
  0
VERTEX
  8
0
  5
1B4A
 10
8.48139
 20
2.64651
 30
0.000000
  70
    32
  0
VERTEX
  8
0
  5
1B4B
 10
8.48108
 20
2.64656
 30
0.000000
  70
    32
  0
VERTEX
  8
0
  5
1B4C
 10
8.48076
 20
2.64660
 30
0.000000
  70
    32
  0
VERTEX
  8
0
  5
1B4D
 10
8.48046
 20
2.64664
 30
0.000000
  70
    32
  0
VERTEX
  8
0
  5
1B4E
 10
8.48015
 20
2.64669
 30
0.000000
  70
    32
  0
VERTEX
  8
0
  5
1B4F
 10
8.47984
 20
2.64673
 30
0.000000
  70
    32
  0
VERTEX
  8
0
  5
1B50
 10
8.47953
 20
2.64677
 30
0.000000
  70
    32
  0
VERTEX
  8
0
  5
1B51
 10
8.47922
 20
2.64682
 30
0.000000
  70
    32
  0
VERTEX
  8
0
  5
1B52
 10
8.47892
 20
2.64686
 30
0.000000
  70
    32
  0
VERTEX
  8
0
  5
1B53
 10
8.47861
 20
2.64690
 30
0.000000
  70
    32
  0
VERTEX
  8
0
  5
1B54
 10
8.47831
 20
2.64695
 30
0.000000
  70
    32
  0
VERTEX
  8
0
  5
1B55
 10
8.47800
 20
2.64699
 30
0.000000
  70
    32
  0
VERTEX
  8
0
  5
1B56
 10
8.47770
 20
2.64703
 30
0.000000
  70
    32
  0
VERTEX
  8
0
  5
1B57
 10
8.47740
 20
2.64707
 30
0.000000
  70
    32
  0
VERTEX
  8
0
  5
1B58
 10
8.47710
 20
2.64712
 30
0.000000
  70
    32
  0
VERTEX
  8
0
  5
1B59
 10
8.47680
 20
2.64716
 30
0.000000
  70
    32
  0
VERTEX
  8
0
  5
1B5A
 10
8.47650
 20
2.64720
 30
0.000000
  70
    32
  0
VERTEX
  8
0
  5
1B5B
 10
8.47620
 20
2.64724
 30
0.000000
  70
    32
  0
VERTEX
  8
0
  5
1B5C
 10
8.47590
 20
2.64728
 30
0.000000
  70
    32
  0
VERTEX
  8
0
  5
1B5D
 10
8.47561
 20
2.64733
 30
0.000000
  70
    32
  0
VERTEX
  8
0
  5
1B5E
 10
8.47531
 20
2.64737
 30
0.000000
  70
    32
  0
VERTEX
  8
0
  5
1B5F
 10
8.47502
 20
2.64741
 30
0.000000
  70
    32
  0
VERTEX
  8
0
  5
1B60
 10
8.47472
 20
2.64745
 30
0.000000
  70
    32
  0
VERTEX
  8
0
  5
1B61
 10
8.47443
 20
2.64749
 30
0.000000
  70
    32
  0
VERTEX
  8
0
  5
1B62
 10
8.47414
 20
2.64753
 30
0.000000
  70
    32
  0
VERTEX
  8
0
  5
1B63
 10
8.47384
 20
2.64757
 30
0.000000
  70
    32
  0
VERTEX
  8
0
  5
1B64
 10
8.47355
 20
2.64761
 30
0.000000
  70
    32
  0
VERTEX
  8
0
  5
1B65
 10
8.47326
 20
2.64766
 30
0.000000
  70
    32
  0
VERTEX
  8
0
  5
1B66
 10
8.47297
 20
2.64770
 30
0.000000
  70
    32
  0
VERTEX
  8
0
  5
1B67
 10
8.47269
 20
2.64774
 30
0.000000
  70
    32
  0
VERTEX
  8
0
  5
1B68
 10
8.47240
 20
2.64778
 30
0.000000
  70
    32
  0
VERTEX
  8
0
  5
1B69
 10
8.47211
 20
2.64782
 30
0.000000
  70
    32
  0
VERTEX
  8
0
  5
1B6A
 10
8.47183
 20
2.64786
 30
0.000000
  70
    32
  0
VERTEX
  8
0
  5
1B6B
 10
8.47154
 20
2.64790
 30
0.000000
  70
    32
  0
VERTEX
  8
0
  5
1B6C
 10
8.47126
 20
2.64794
 30
0.000000
  70
    32
  0
VERTEX
  8
0
  5
1B6D
 10
8.47098
 20
2.64798
 30
0.000000
  70
    32
  0
VERTEX
  8
0
  5
1B6E
 10
8.47070
 20
2.64802
 30
0.000000
  70
    32
  0
VERTEX
  8
0
  5
1B6F
 10
8.47042
 20
2.64806
 30
0.000000
  70
    32
  0
VERTEX
  8
0
  5
1B70
 10
8.47014
 20
2.64809
 30
0.000000
  70
    32
  0
VERTEX
  8
0
  5
1B71
 10
8.46986
 20
2.64813
 30
0.000000
  70
    32
  0
VERTEX
  8
0
  5
1B72
 10
8.46958
 20
2.64817
 30
0.000000
  70
    32
  0
VERTEX
  8
0
  5
1B73
 10
8.46931
 20
2.64821
 30
0.000000
  70
    32
  0
VERTEX
  8
0
  5
1B74
 10
8.46903
 20
2.64825
 30
0.000000
  70
    32
  0
VERTEX
  8
0
  5
1B75
 10
8.46876
 20
2.64829
 30
0.000000
  70
    32
  0
VERTEX
  8
0
  5
1B76
 10
8.46848
 20
2.64833
 30
0.000000
  70
    32
  0
VERTEX
  8
0
  5
1B77
 10
8.46821
 20
2.64837
 30
0.000000
  70
    32
  0
VERTEX
  8
0
  5
1B78
 10
8.46794
 20
2.64840
 30
0.000000
  70
    32
  0
VERTEX
  8
0
  5
1B79
 10
8.46767
 20
2.64844
 30
0.000000
  70
    32
  0
VERTEX
  8
0
  5
1B7A
 10
8.46740
 20
2.64848
 30
0.000000
  70
    32
  0
VERTEX
  8
0
  5
1B7B
 10
8.46713
 20
2.64852
 30
0.000000
  70
    32
  0
VERTEX
  8
0
  5
1B7C
 10
8.46687
 20
2.64855
 30
0.000000
  70
    32
  0
VERTEX
  8
0
  5
1B7D
 10
8.46660
 20
2.64859
 30
0.000000
  70
    32
  0
VERTEX
  8
0
  5
1B7E
 10
8.46633
 20
2.64863
 30
0.000000
  70
    32
  0
VERTEX
  8
0
  5
1B7F
 10
8.46607
 20
2.64867
 30
0.000000
  70
    32
  0
VERTEX
  8
0
  5
1B80
 10
8.46581
 20
2.64870
 30
0.000000
  70
    32
  0
VERTEX
  8
0
  5
1B81
 10
8.46555
 20
2.64874
 30
0.000000
  70
    32
  0
VERTEX
  8
0
  5
1B82
 10
8.46529
 20
2.64878
 30
0.000000
  70
    32
  0
VERTEX
  8
0
  5
1B83
 10
8.46503
 20
2.64881
 30
0.000000
  70
    32
  0
VERTEX
  8
0
  5
1B84
 10
8.46477
 20
2.64885
 30
0.000000
  70
    32
  0
VERTEX
  8
0
  5
1B85
 10
8.46451
 20
2.64888
 30
0.000000
  70
    32
  0
VERTEX
  8
0
  5
1B86
 10
8.46426
 20
2.64892
 30
0.000000
  70
    32
  0
VERTEX
  8
0
  5
1B87
 10
8.46400
 20
2.64896
 30
0.000000
  70
    32
  0
VERTEX
  8
0
  5
1B88
 10
8.46375
 20
2.64899
 30
0.000000
  70
    32
  0
VERTEX
  8
0
  5
1B89
 10
8.46350
 20
2.64903
 30
0.000000
  70
    32
  0
VERTEX
  8
0
  5
1B8A
 10
8.46325
 20
2.64906
 30
0.000000
  70
    32
  0
VERTEX
  8
0
  5
1B8B
 10
8.46300
 20
2.64910
 30
0.000000
  70
    32
  0
VERTEX
  8
0
  5
1B8C
 10
8.46275
 20
2.64913
 30
0.000000
  70
    32
  0
VERTEX
  8
0
  5
1B8D
 10
8.46250
 20
2.64917
 30
0.000000
  70
    32
  0
VERTEX
  8
0
  5
1B8E
 10
8.46226
 20
2.64920
 30
0.000000
  70
    32
  0
VERTEX
  8
0
  5
1B8F
 10
8.46201
 20
2.64924
 30
0.000000
  70
    32
  0
VERTEX
  8
0
  5
1B90
 10
8.46177
 20
2.64927
 30
0.000000
  70
    32
  0
VERTEX
  8
0
  5
1B91
 10
8.46153
 20
2.64930
 30
0.000000
  70
    32
  0
VERTEX
  8
0
  5
1B92
 10
8.46129
 20
2.64934
 30
0.000000
  70
    32
  0
VERTEX
  8
0
  5
1B93
 10
8.46105
 20
2.64937
 30
0.000000
  70
    32
  0
VERTEX
  8
0
  5
1B94
 10
8.46081
 20
2.64941
 30
0.000000
  70
    32
  0
VERTEX
  8
0
  5
1B95
 10
8.46057
 20
2.64944
 30
0.000000
  70
    32
  0
VERTEX
  8
0
  5
1B96
 10
8.46034
 20
2.64947
 30
0.000000
  70
    32
  0
VERTEX
  8
0
  5
1B97
 10
8.46011
 20
2.64950
 30
0.000000
  70
    32
  0
VERTEX
  8
0
  5
1B98
 10
8.45987
 20
2.64954
 30
0.000000
  70
    32
  0
VERTEX
  8
0
  5
1B99
 10
8.45964
 20
2.64957
 30
0.000000
  70
    32
  0
VERTEX
  8
0
  5
1B9A
 10
8.45941
 20
2.64960
 30
0.000000
  70
    32
  0
VERTEX
  8
0
  5
1B9B
 10
8.45919
 20
2.64963
 30
0.000000
  70
    32
  0
VERTEX
  8
0
  5
1B9C
 10
8.45896
 20
2.64967
 30
0.000000
  70
    32
  0
VERTEX
  8
0
  5
1B9D
 10
8.45874
 20
2.64970
 30
0.000000
  70
    32
  0
VERTEX
  8
0
  5
1B9E
 10
8.45851
 20
2.64973
 30
0.000000
  70
    32
  0
VERTEX
  8
0
  5
1B9F
 10
8.45829
 20
2.64976
 30
0.000000
  70
    32
  0
VERTEX
  8
0
  5
1BA0
 10
8.45807
 20
2.64979
 30
0.000000
  70
    32
  0
VERTEX
  8
0
  5
1BA1
 10
8.45785
 20
2.64982
 30
0.000000
  70
    32
  0
VERTEX
  8
0
  5
1BA2
 10
8.45764
 20
2.64985
 30
0.000000
  70
    32
  0
VERTEX
  8
0
  5
1BA3
 10
8.45742
 20
2.64988
 30
0.000000
  70
    32
  0
VERTEX
  8
0
  5
1BA4
 10
8.45721
 20
2.64991
 30
0.000000
  70
    32
  0
VERTEX
  8
0
  5
1BA5
 10
8.45700
 20
2.64994
 30
0.000000
  70
    32
  0
VERTEX
  8
0
  5
1BA6
 10
8.45679
 20
2.64997
 30
0.000000
  70
    32
  0
VERTEX
  8
0
  5
1BA7
 10
8.45658
 20
2.65000
 30
0.000000
  70
    32
  0
VERTEX
  8
0
  5
1BA8
 10
8.45637
 20
2.65003
 30
0.000000
  70
    32
  0
VERTEX
  8
0
  5
1BA9
 10
8.45617
 20
2.65006
 30
0.000000
  70
    32
  0
VERTEX
  8
0
  5
1BAA
 10
8.45596
 20
2.65009
 30
0.000000
  70
    32
  0
VERTEX
  8
0
  5
1BAB
 10
8.45576
 20
2.65012
 30
0.000000
  70
    32
  0
VERTEX
  8
0
  5
1BAC
 10
8.45556
 20
2.65014
 30
0.000000
  70
    32
  0
VERTEX
  8
0
  5
1BAD
 10
8.45536
 20
2.65017
 30
0.000000
  70
    32
  0
VERTEX
  8
0
  5
1BAE
 10
8.45516
 20
2.65020
 30
0.000000
  70
    32
  0
VERTEX
  8
0
  5
1BAF
 10
8.45497
 20
2.65023
 30
0.000000
  70
    32
  0
VERTEX
  8
0
  5
1BB0
 10
8.45478
 20
2.65025
 30
0.000000
  70
    32
  0
VERTEX
  8
0
  5
1BB1
 10
8.45458
 20
2.65028
 30
0.000000
  70
    32
  0
VERTEX
  8
0
  5
1BB2
 10
8.45440
 20
2.65031
 30
0.000000
  70
    32
  0
VERTEX
  8
0
  5
1BB3
 10
8.45421
 20
2.65033
 30
0.000000
  70
    32
  0
VERTEX
  8
0
  5
1BB4
 10
8.45402
 20
2.65036
 30
0.000000
  70
    32
  0
VERTEX
  8
0
  5
1BB5
 10
8.45384
 20
2.65039
 30
0.000000
  70
    32
  0
VERTEX
  8
0
  5
1BB6
 10
8.45365
 20
2.65041
 30
0.000000
  70
    32
  0
VERTEX
  8
0
  5
1BB7
 10
8.45347
 20
2.65044
 30
0.000000
  70
    32
  0
VERTEX
  8
0
  5
1BB8
 10
8.45330
 20
2.65046
 30
0.000000
  70
    32
  0
VERTEX
  8
0
  5
1BB9
 10
8.45312
 20
2.65049
 30
0.000000
  70
    32
  0
VERTEX
  8
0
  5
1BBA
 10
8.45294
 20
2.65051
 30
0.000000
  70
    32
  0
VERTEX
  8
0
  5
1BBB
 10
8.45277
 20
2.65053
 30
0.000000
  70
    32
  0
VERTEX
  8
0
  5
1BBC
 10
8.45260
 20
2.65056
 30
0.000000
  70
    32
  0
VERTEX
  8
0
  5
1BBD
 10
8.45243
 20
2.65058
 30
0.000000
  70
    32
  0
VERTEX
  8
0
  5
1BBE
 10
8.45226
 20
2.65061
 30
0.000000
  70
    32
  0
VERTEX
  8
0
  5
1BBF
 10
8.45210
 20
2.65063
 30
0.000000
  70
    32
  0
VERTEX
  8
0
  5
1BC0
 10
8.45194
 20
2.65065
 30
0.000000
  70
    32
  0
VERTEX
  8
0
  5
1BC1
 10
8.45177
 20
2.65068
 30
0.000000
  70
    32
  0
VERTEX
  8
0
  5
1BC2
 10
8.45161
 20
2.65070
 30
0.000000
  70
    32
  0
VERTEX
  8
0
  5
1BC3
 10
8.45146
 20
2.65072
 30
0.000000
  70
    32
  0
VERTEX
  8
0
  5
1BC4
 10
8.45130
 20
2.65074
 30
0.000000
  70
    32
  0
VERTEX
  8
0
  5
1BC5
 10
8.45114
 20
2.65076
 30
0.000000
  70
    32
  0
VERTEX
  8
0
  5
1BC6
 10
8.45099
 20
2.65079
 30
0.000000
  70
    32
  0
VERTEX
  8
0
  5
1BC7
 10
8.45084
 20
2.65081
 30
0.000000
  70
    32
  0
VERTEX
  8
0
  5
1BC8
 10
8.45069
 20
2.65083
 30
0.000000
  70
    32
  0
VERTEX
  8
0
  5
1BC9
 10
8.45054
 20
2.65085
 30
0.000000
  70
    32
  0
VERTEX
  8
0
  5
1BCA
 10
8.45039
 20
2.65087
 30
0.000000
  70
    32
  0
VERTEX
  8
0
  5
1BCB
 10
8.45024
 20
2.65089
 30
0.000000
  70
    32
  0
VERTEX
  8
0
  5
1BCC
 10
8.45009
 20
2.65091
 30
0.000000
  70
    32
  0
VERTEX
  8
0
  5
1BCD
 10
8.44995
 20
2.65093
 30
0.000000
  70
    32
  0
VERTEX
  8
0
  5
1BCE
 10
8.44980
 20
2.65095
 30
0.000000
  70
    32
  0
VERTEX
  8
0
  5
1BCF
 10
8.44966
 20
2.65097
 30
0.000000
  70
    32
  0
VERTEX
  8
0
  5
1BD0
 10
8.44952
 20
2.65099
 30
0.000000
  70
    32
  0
VERTEX
  8
0
  5
1BD1
 10
8.44938
 20
2.65101
 30
0.000000
  70
    32
  0
VERTEX
  8
0
  5
1BD2
 10
8.44924
 20
2.65103
 30
0.000000
  70
    32
  0
VERTEX
  8
0
  5
1BD3
 10
8.44910
 20
2.65105
 30
0.000000
  70
    32
  0
VERTEX
  8
0
  5
1BD4
 10
8.44896
 20
2.65107
 30
0.000000
  70
    32
  0
VERTEX
  8
0
  5
1BD5
 10
8.44882
 20
2.65109
 30
0.000000
  70
    32
  0
VERTEX
  8
0
  5
1BD6
 10
8.44868
 20
2.65111
 30
0.000000
  70
    32
  0
VERTEX
  8
0
  5
1BD7
 10
8.44854
 20
2.65113
 30
0.000000
  70
    32
  0
VERTEX
  8
0
  5
1BD8
 10
8.44840
 20
2.65115
 30
0.000000
  70
    32
  0
VERTEX
  8
0
  5
1BD9
 10
8.44826
 20
2.65117
 30
0.000000
  70
    32
  0
VERTEX
  8
0
  5
1BDA
 10
8.44813
 20
2.65119
 30
0.000000
  70
    32
  0
VERTEX
  8
0
  5
1BDB
 10
8.44799
 20
2.65121
 30
0.000000
  70
    32
  0
VERTEX
  8
0
  5
1BDC
 10
8.44785
 20
2.65123
 30
0.000000
  70
    32
  0
VERTEX
  8
0
  5
1BDD
 10
8.44772
 20
2.65125
 30
0.000000
  70
    32
  0
VERTEX
  8
0
  5
1BDE
 10
8.44758
 20
2.65126
 30
0.000000
  70
    32
  0
SEQEND
  8
0
  5
1BDF
  0
POLYLINE
  8
0
  5
1BE0
  62
7
  66
     1
 10
0.000000
 20
0.000000
 30
0.000000
  70
     8
  0
VERTEX
  8
0
  5
1BE1
 10
8.44800
 20
2.68557
 30
0.000000
  70
    32
  0
VERTEX
  8
0
  5
1BE2
 10
8.44807
 20
2.68557
 30
0.000000
  70
    32
  0
VERTEX
  8
0
  5
1BE3
 10
8.44814
 20
2.68557
 30
0.000000
  70
    32
  0
VERTEX
  8
0
  5
1BE4
 10
8.44821
 20
2.68557
 30
0.000000
  70
    32
  0
VERTEX
  8
0
  5
1BE5
 10
8.44828
 20
2.68557
 30
0.000000
  70
    32
  0
VERTEX
  8
0
  5
1BE6
 10
8.44835
 20
2.68557
 30
0.000000
  70
    32
  0
VERTEX
  8
0
  5
1BE7
 10
8.44842
 20
2.68557
 30
0.000000
  70
    32
  0
VERTEX
  8
0
  5
1BE8
 10
8.44849
 20
2.68557
 30
0.000000
  70
    32
  0
VERTEX
  8
0
  5
1BE9
 10
8.44857
 20
2.68557
 30
0.000000
  70
    32
  0
VERTEX
  8
0
  5
1BEA
 10
8.44864
 20
2.68557
 30
0.000000
  70
    32
  0
VERTEX
  8
0
  5
1BEB
 10
8.44871
 20
2.68557
 30
0.000000
  70
    32
  0
VERTEX
  8
0
  5
1BEC
 10
8.44879
 20
2.68557
 30
0.000000
  70
    32
  0
VERTEX
  8
0
  5
1BED
 10
8.44886
 20
2.68557
 30
0.000000
  70
    32
  0
VERTEX
  8
0
  5
1BEE
 10
8.44894
 20
2.68557
 30
0.000000
  70
    32
  0
VERTEX
  8
0
  5
1BEF
 10
8.44902
 20
2.68557
 30
0.000000
  70
    32
  0
VERTEX
  8
0
  5
1BF0
 10
8.44909
 20
2.68557
 30
0.000000
  70
    32
  0
VERTEX
  8
0
  5
1BF1
 10
8.44917
 20
2.68557
 30
0.000000
  70
    32
  0
VERTEX
  8
0
  5
1BF2
 10
8.44925
 20
2.68557
 30
0.000000
  70
    32
  0
VERTEX
  8
0
  5
1BF3
 10
8.44933
 20
2.68557
 30
0.000000
  70
    32
  0
VERTEX
  8
0
  5
1BF4
 10
8.44941
 20
2.68557
 30
0.000000
  70
    32
  0
VERTEX
  8
0
  5
1BF5
 10
8.44949
 20
2.68557
 30
0.000000
  70
    32
  0
VERTEX
  8
0
  5
1BF6
 10
8.44957
 20
2.68557
 30
0.000000
  70
    32
  0
VERTEX
  8
0
  5
1BF7
 10
8.44965
 20
2.68557
 30
0.000000
  70
    32
  0
VERTEX
  8
0
  5
1BF8
 10
8.44973
 20
2.68557
 30
0.000000
  70
    32
  0
VERTEX
  8
0
  5
1BF9
 10
8.44982
 20
2.68557
 30
0.000000
  70
    32
  0
VERTEX
  8
0
  5
1BFA
 10
8.44990
 20
2.68557
 30
0.000000
  70
    32
  0
VERTEX
  8
0
  5
1BFB
 10
8.44998
 20
2.68557
 30
0.000000
  70
    32
  0
VERTEX
  8
0
  5
1BFC
 10
8.45007
 20
2.68557
 30
0.000000
  70
    32
  0
VERTEX
  8
0
  5
1BFD
 10
8.45015
 20
2.68557
 30
0.000000
  70
    32
  0
VERTEX
  8
0
  5
1BFE
 10
8.45024
 20
2.68557
 30
0.000000
  70
    32
  0
VERTEX
  8
0
  5
1BFF
 10
8.45032
 20
2.68557
 30
0.000000
  70
    32
  0
VERTEX
  8
0
  5
1C00
 10
8.45041
 20
2.68557
 30
0.000000
  70
    32
  0
VERTEX
  8
0
  5
1C01
 10
8.45050
 20
2.68557
 30
0.000000
  70
    32
  0
VERTEX
  8
0
  5
1C02
 10
8.45059
 20
2.68557
 30
0.000000
  70
    32
  0
VERTEX
  8
0
  5
1C03
 10
8.45068
 20
2.68557
 30
0.000000
  70
    32
  0
VERTEX
  8
0
  5
1C04
 10
8.45077
 20
2.68557
 30
0.000000
  70
    32
  0
VERTEX
  8
0
  5
1C05
 10
8.45086
 20
2.68557
 30
0.000000
  70
    32
  0
VERTEX
  8
0
  5
1C06
 10
8.45095
 20
2.68557
 30
0.000000
  70
    32
  0
VERTEX
  8
0
  5
1C07
 10
8.45104
 20
2.68557
 30
0.000000
  70
    32
  0
VERTEX
  8
0
  5
1C08
 10
8.45113
 20
2.68557
 30
0.000000
  70
    32
  0
VERTEX
  8
0
  5
1C09
 10
8.45122
 20
2.68557
 30
0.000000
  70
    32
  0
VERTEX
  8
0
  5
1C0A
 10
8.45132
 20
2.68557
 30
0.000000
  70
    32
  0
VERTEX
  8
0
  5
1C0B
 10
8.45141
 20
2.68557
 30
0.000000
  70
    32
  0
VERTEX
  8
0
  5
1C0C
 10
8.45150
 20
2.68557
 30
0.000000
  70
    32
  0
VERTEX
  8
0
  5
1C0D
 10
8.45160
 20
2.68557
 30
0.000000
  70
    32
  0
VERTEX
  8
0
  5
1C0E
 10
8.45169
 20
2.68557
 30
0.000000
  70
    32
  0
VERTEX
  8
0
  5
1C0F
 10
8.45179
 20
2.68557
 30
0.000000
  70
    32
  0
VERTEX
  8
0
  5
1C10
 10
8.45189
 20
2.68557
 30
0.000000
  70
    32
  0
VERTEX
  8
0
  5
1C11
 10
8.45198
 20
2.68557
 30
0.000000
  70
    32
  0
VERTEX
  8
0
  5
1C12
 10
8.45208
 20
2.68557
 30
0.000000
  70
    32
  0
VERTEX
  8
0
  5
1C13
 10
8.45218
 20
2.68557
 30
0.000000
  70
    32
  0
VERTEX
  8
0
  5
1C14
 10
8.45228
 20
2.68557
 30
0.000000
  70
    32
  0
VERTEX
  8
0
  5
1C15
 10
8.45238
 20
2.68557
 30
0.000000
  70
    32
  0
VERTEX
  8
0
  5
1C16
 10
8.45248
 20
2.68557
 30
0.000000
  70
    32
  0
VERTEX
  8
0
  5
1C17
 10
8.45258
 20
2.68557
 30
0.000000
  70
    32
  0
VERTEX
  8
0
  5
1C18
 10
8.45268
 20
2.68557
 30
0.000000
  70
    32
  0
VERTEX
  8
0
  5
1C19
 10
8.45278
 20
2.68557
 30
0.000000
  70
    32
  0
VERTEX
  8
0
  5
1C1A
 10
8.45288
 20
2.68557
 30
0.000000
  70
    32
  0
VERTEX
  8
0
  5
1C1B
 10
8.45299
 20
2.68557
 30
0.000000
  70
    32
  0
VERTEX
  8
0
  5
1C1C
 10
8.45309
 20
2.68557
 30
0.000000
  70
    32
  0
VERTEX
  8
0
  5
1C1D
 10
8.45319
 20
2.68557
 30
0.000000
  70
    32
  0
VERTEX
  8
0
  5
1C1E
 10
8.45330
 20
2.68557
 30
0.000000
  70
    32
  0
VERTEX
  8
0
  5
1C1F
 10
8.45340
 20
2.68557
 30
0.000000
  70
    32
  0
VERTEX
  8
0
  5
1C20
 10
8.45351
 20
2.68557
 30
0.000000
  70
    32
  0
VERTEX
  8
0
  5
1C21
 10
8.45362
 20
2.68557
 30
0.000000
  70
    32
  0
VERTEX
  8
0
  5
1C22
 10
8.45372
 20
2.68557
 30
0.000000
  70
    32
  0
VERTEX
  8
0
  5
1C23
 10
8.45383
 20
2.68557
 30
0.000000
  70
    32
  0
VERTEX
  8
0
  5
1C24
 10
8.45394
 20
2.68557
 30
0.000000
  70
    32
  0
VERTEX
  8
0
  5
1C25
 10
8.45405
 20
2.68557
 30
0.000000
  70
    32
  0
VERTEX
  8
0
  5
1C26
 10
8.45416
 20
2.68557
 30
0.000000
  70
    32
  0
VERTEX
  8
0
  5
1C27
 10
8.45426
 20
2.68557
 30
0.000000
  70
    32
  0
VERTEX
  8
0
  5
1C28
 10
8.45438
 20
2.68557
 30
0.000000
  70
    32
  0
VERTEX
  8
0
  5
1C29
 10
8.45449
 20
2.68557
 30
0.000000
  70
    32
  0
VERTEX
  8
0
  5
1C2A
 10
8.45460
 20
2.68557
 30
0.000000
  70
    32
  0
VERTEX
  8
0
  5
1C2B
 10
8.45471
 20
2.68557
 30
0.000000
  70
    32
  0
VERTEX
  8
0
  5
1C2C
 10
8.45482
 20
2.68557
 30
0.000000
  70
    32
  0
VERTEX
  8
0
  5
1C2D
 10
8.45493
 20
2.68557
 30
0.000000
  70
    32
  0
VERTEX
  8
0
  5
1C2E
 10
8.45505
 20
2.68557
 30
0.000000
  70
    32
  0
VERTEX
  8
0
  5
1C2F
 10
8.45516
 20
2.68557
 30
0.000000
  70
    32
  0
VERTEX
  8
0
  5
1C30
 10
8.45528
 20
2.68557
 30
0.000000
  70
    32
  0
VERTEX
  8
0
  5
1C31
 10
8.45539
 20
2.68557
 30
0.000000
  70
    32
  0
VERTEX
  8
0
  5
1C32
 10
8.45551
 20
2.68557
 30
0.000000
  70
    32
  0
VERTEX
  8
0
  5
1C33
 10
8.45562
 20
2.68557
 30
0.000000
  70
    32
  0
VERTEX
  8
0
  5
1C34
 10
8.45574
 20
2.68557
 30
0.000000
  70
    32
  0
VERTEX
  8
0
  5
1C35
 10
8.45586
 20
2.68557
 30
0.000000
  70
    32
  0
VERTEX
  8
0
  5
1C36
 10
8.45597
 20
2.68557
 30
0.000000
  70
    32
  0
VERTEX
  8
0
  5
1C37
 10
8.45609
 20
2.68557
 30
0.000000
  70
    32
  0
VERTEX
  8
0
  5
1C38
 10
8.45621
 20
2.68557
 30
0.000000
  70
    32
  0
VERTEX
  8
0
  5
1C39
 10
8.45633
 20
2.68557
 30
0.000000
  70
    32
  0
VERTEX
  8
0
  5
1C3A
 10
8.45645
 20
2.68557
 30
0.000000
  70
    32
  0
VERTEX
  8
0
  5
1C3B
 10
8.45657
 20
2.68557
 30
0.000000
  70
    32
  0
VERTEX
  8
0
  5
1C3C
 10
8.45669
 20
2.68557
 30
0.000000
  70
    32
  0
VERTEX
  8
0
  5
1C3D
 10
8.45681
 20
2.68557
 30
0.000000
  70
    32
  0
VERTEX
  8
0
  5
1C3E
 10
8.45694
 20
2.68557
 30
0.000000
  70
    32
  0
VERTEX
  8
0
  5
1C3F
 10
8.45706
 20
2.68557
 30
0.000000
  70
    32
  0
VERTEX
  8
0
  5
1C40
 10
8.45718
 20
2.68557
 30
0.000000
  70
    32
  0
VERTEX
  8
0
  5
1C41
 10
8.45731
 20
2.68557
 30
0.000000
  70
    32
  0
VERTEX
  8
0
  5
1C42
 10
8.45743
 20
2.68557
 30
0.000000
  70
    32
  0
VERTEX
  8
0
  5
1C43
 10
8.45755
 20
2.68557
 30
0.000000
  70
    32
  0
VERTEX
  8
0
  5
1C44
 10
8.45768
 20
2.68557
 30
0.000000
  70
    32
  0
VERTEX
  8
0
  5
1C45
 10
8.45780
 20
2.68557
 30
0.000000
  70
    32
  0
VERTEX
  8
0
  5
1C46
 10
8.45793
 20
2.68557
 30
0.000000
  70
    32
  0
VERTEX
  8
0
  5
1C47
 10
8.45806
 20
2.68557
 30
0.000000
  70
    32
  0
VERTEX
  8
0
  5
1C48
 10
8.45818
 20
2.68557
 30
0.000000
  70
    32
  0
VERTEX
  8
0
  5
1C49
 10
8.45831
 20
2.68557
 30
0.000000
  70
    32
  0
VERTEX
  8
0
  5
1C4A
 10
8.45844
 20
2.68557
 30
0.000000
  70
    32
  0
VERTEX
  8
0
  5
1C4B
 10
8.45857
 20
2.68557
 30
0.000000
  70
    32
  0
VERTEX
  8
0
  5
1C4C
 10
8.45870
 20
2.68557
 30
0.000000
  70
    32
  0
VERTEX
  8
0
  5
1C4D
 10
8.45883
 20
2.68557
 30
0.000000
  70
    32
  0
VERTEX
  8
0
  5
1C4E
 10
8.45896
 20
2.68557
 30
0.000000
  70
    32
  0
VERTEX
  8
0
  5
1C4F
 10
8.45909
 20
2.68557
 30
0.000000
  70
    32
  0
VERTEX
  8
0
  5
1C50
 10
8.45922
 20
2.68557
 30
0.000000
  70
    32
  0
VERTEX
  8
0
  5
1C51
 10
8.45935
 20
2.68557
 30
0.000000
  70
    32
  0
VERTEX
  8
0
  5
1C52
 10
8.45948
 20
2.68557
 30
0.000000
  70
    32
  0
VERTEX
  8
0
  5
1C53
 10
8.45962
 20
2.68557
 30
0.000000
  70
    32
  0
VERTEX
  8
0
  5
1C54
 10
8.45975
 20
2.68557
 30
0.000000
  70
    32
  0
VERTEX
  8
0
  5
1C55
 10
8.45988
 20
2.68557
 30
0.000000
  70
    32
  0
VERTEX
  8
0
  5
1C56
 10
8.46002
 20
2.68557
 30
0.000000
  70
    32
  0
VERTEX
  8
0
  5
1C57
 10
8.46015
 20
2.68557
 30
0.000000
  70
    32
  0
VERTEX
  8
0
  5
1C58
 10
8.46029
 20
2.68557
 30
0.000000
  70
    32
  0
VERTEX
  8
0
  5
1C59
 10
8.46042
 20
2.68557
 30
0.000000
  70
    32
  0
VERTEX
  8
0
  5
1C5A
 10
8.46056
 20
2.68557
 30
0.000000
  70
    32
  0
VERTEX
  8
0
  5
1C5B
 10
8.46069
 20
2.68557
 30
0.000000
  70
    32
  0
VERTEX
  8
0
  5
1C5C
 10
8.46083
 20
2.68557
 30
0.000000
  70
    32
  0
VERTEX
  8
0
  5
1C5D
 10
8.46097
 20
2.68557
 30
0.000000
  70
    32
  0
VERTEX
  8
0
  5
1C5E
 10
8.46111
 20
2.68557
 30
0.000000
  70
    32
  0
VERTEX
  8
0
  5
1C5F
 10
8.46124
 20
2.68557
 30
0.000000
  70
    32
  0
VERTEX
  8
0
  5
1C60
 10
8.46138
 20
2.68557
 30
0.000000
  70
    32
  0
VERTEX
  8
0
  5
1C61
 10
8.46152
 20
2.68557
 30
0.000000
  70
    32
  0
VERTEX
  8
0
  5
1C62
 10
8.46166
 20
2.68557
 30
0.000000
  70
    32
  0
VERTEX
  8
0
  5
1C63
 10
8.46180
 20
2.68557
 30
0.000000
  70
    32
  0
VERTEX
  8
0
  5
1C64
 10
8.46194
 20
2.68557
 30
0.000000
  70
    32
  0
VERTEX
  8
0
  5
1C65
 10
8.46208
 20
2.68557
 30
0.000000
  70
    32
  0
VERTEX
  8
0
  5
1C66
 10
8.46223
 20
2.68557
 30
0.000000
  70
    32
  0
VERTEX
  8
0
  5
1C67
 10
8.46237
 20
2.68557
 30
0.000000
  70
    32
  0
VERTEX
  8
0
  5
1C68
 10
8.46251
 20
2.68557
 30
0.000000
  70
    32
  0
VERTEX
  8
0
  5
1C69
 10
8.46265
 20
2.68557
 30
0.000000
  70
    32
  0
VERTEX
  8
0
  5
1C6A
 10
8.46280
 20
2.68557
 30
0.000000
  70
    32
  0
VERTEX
  8
0
  5
1C6B
 10
8.46294
 20
2.68557
 30
0.000000
  70
    32
  0
VERTEX
  8
0
  5
1C6C
 10
8.46309
 20
2.68557
 30
0.000000
  70
    32
  0
VERTEX
  8
0
  5
1C6D
 10
8.46323
 20
2.68557
 30
0.000000
  70
    32
  0
VERTEX
  8
0
  5
1C6E
 10
8.46338
 20
2.68557
 30
0.000000
  70
    32
  0
VERTEX
  8
0
  5
1C6F
 10
8.46352
 20
2.68557
 30
0.000000
  70
    32
  0
VERTEX
  8
0
  5
1C70
 10
8.46367
 20
2.68557
 30
0.000000
  70
    32
  0
VERTEX
  8
0
  5
1C71
 10
8.46381
 20
2.68557
 30
0.000000
  70
    32
  0
VERTEX
  8
0
  5
1C72
 10
8.46396
 20
2.68557
 30
0.000000
  70
    32
  0
VERTEX
  8
0
  5
1C73
 10
8.46411
 20
2.68557
 30
0.000000
  70
    32
  0
VERTEX
  8
0
  5
1C74
 10
8.46426
 20
2.68557
 30
0.000000
  70
    32
  0
VERTEX
  8
0
  5
1C75
 10
8.46440
 20
2.68557
 30
0.000000
  70
    32
  0
VERTEX
  8
0
  5
1C76
 10
8.46455
 20
2.68557
 30
0.000000
  70
    32
  0
VERTEX
  8
0
  5
1C77
 10
8.46470
 20
2.68557
 30
0.000000
  70
    32
  0
VERTEX
  8
0
  5
1C78
 10
8.46485
 20
2.68557
 30
0.000000
  70
    32
  0
VERTEX
  8
0
  5
1C79
 10
8.46500
 20
2.68557
 30
0.000000
  70
    32
  0
VERTEX
  8
0
  5
1C7A
 10
8.46515
 20
2.68557
 30
0.000000
  70
    32
  0
VERTEX
  8
0
  5
1C7B
 10
8.46530
 20
2.68557
 30
0.000000
  70
    32
  0
VERTEX
  8
0
  5
1C7C
 10
8.46545
 20
2.68557
 30
0.000000
  70
    32
  0
VERTEX
  8
0
  5
1C7D
 10
8.46561
 20
2.68557
 30
0.000000
  70
    32
  0
VERTEX
  8
0
  5
1C7E
 10
8.46576
 20
2.68557
 30
0.000000
  70
    32
  0
VERTEX
  8
0
  5
1C7F
 10
8.46591
 20
2.68557
 30
0.000000
  70
    32
  0
VERTEX
  8
0
  5
1C80
 10
8.46606
 20
2.68557
 30
0.000000
  70
    32
  0
VERTEX
  8
0
  5
1C81
 10
8.46622
 20
2.68557
 30
0.000000
  70
    32
  0
VERTEX
  8
0
  5
1C82
 10
8.46637
 20
2.68557
 30
0.000000
  70
    32
  0
VERTEX
  8
0
  5
1C83
 10
8.46652
 20
2.68557
 30
0.000000
  70
    32
  0
VERTEX
  8
0
  5
1C84
 10
8.46668
 20
2.68557
 30
0.000000
  70
    32
  0
VERTEX
  8
0
  5
1C85
 10
8.46683
 20
2.68557
 30
0.000000
  70
    32
  0
VERTEX
  8
0
  5
1C86
 10
8.46699
 20
2.68557
 30
0.000000
  70
    32
  0
VERTEX
  8
0
  5
1C87
 10
8.46715
 20
2.68557
 30
0.000000
  70
    32
  0
VERTEX
  8
0
  5
1C88
 10
8.46730
 20
2.68557
 30
0.000000
  70
    32
  0
VERTEX
  8
0
  5
1C89
 10
8.46746
 20
2.68557
 30
0.000000
  70
    32
  0
VERTEX
  8
0
  5
1C8A
 10
8.46762
 20
2.68557
 30
0.000000
  70
    32
  0
VERTEX
  8
0
  5
1C8B
 10
8.46777
 20
2.68557
 30
0.000000
  70
    32
  0
VERTEX
  8
0
  5
1C8C
 10
8.46793
 20
2.68557
 30
0.000000
  70
    32
  0
VERTEX
  8
0
  5
1C8D
 10
8.46809
 20
2.68557
 30
0.000000
  70
    32
  0
VERTEX
  8
0
  5
1C8E
 10
8.46825
 20
2.68557
 30
0.000000
  70
    32
  0
VERTEX
  8
0
  5
1C8F
 10
8.46841
 20
2.68557
 30
0.000000
  70
    32
  0
VERTEX
  8
0
  5
1C90
 10
8.46857
 20
2.68557
 30
0.000000
  70
    32
  0
VERTEX
  8
0
  5
1C91
 10
8.46873
 20
2.68557
 30
0.000000
  70
    32
  0
VERTEX
  8
0
  5
1C92
 10
8.46889
 20
2.68557
 30
0.000000
  70
    32
  0
VERTEX
  8
0
  5
1C93
 10
8.46905
 20
2.68557
 30
0.000000
  70
    32
  0
VERTEX
  8
0
  5
1C94
 10
8.46921
 20
2.68557
 30
0.000000
  70
    32
  0
VERTEX
  8
0
  5
1C95
 10
8.46937
 20
2.68557
 30
0.000000
  70
    32
  0
VERTEX
  8
0
  5
1C96
 10
8.46953
 20
2.68557
 30
0.000000
  70
    32
  0
VERTEX
  8
0
  5
1C97
 10
8.46969
 20
2.68557
 30
0.000000
  70
    32
  0
VERTEX
  8
0
  5
1C98
 10
8.46986
 20
2.68557
 30
0.000000
  70
    32
  0
VERTEX
  8
0
  5
1C99
 10
8.47002
 20
2.68557
 30
0.000000
  70
    32
  0
VERTEX
  8
0
  5
1C9A
 10
8.47018
 20
2.68557
 30
0.000000
  70
    32
  0
VERTEX
  8
0
  5
1C9B
 10
8.47034
 20
2.68557
 30
0.000000
  70
    32
  0
VERTEX
  8
0
  5
1C9C
 10
8.47051
 20
2.68557
 30
0.000000
  70
    32
  0
VERTEX
  8
0
  5
1C9D
 10
8.47067
 20
2.68557
 30
0.000000
  70
    32
  0
VERTEX
  8
0
  5
1C9E
 10
8.47084
 20
2.68557
 30
0.000000
  70
    32
  0
VERTEX
  8
0
  5
1C9F
 10
8.47100
 20
2.68557
 30
0.000000
  70
    32
  0
VERTEX
  8
0
  5
1CA0
 10
8.47117
 20
2.68557
 30
0.000000
  70
    32
  0
VERTEX
  8
0
  5
1CA1
 10
8.47133
 20
2.68557
 30
0.000000
  70
    32
  0
VERTEX
  8
0
  5
1CA2
 10
8.47150
 20
2.68557
 30
0.000000
  70
    32
  0
VERTEX
  8
0
  5
1CA3
 10
8.47167
 20
2.68557
 30
0.000000
  70
    32
  0
VERTEX
  8
0
  5
1CA4
 10
8.47183
 20
2.68557
 30
0.000000
  70
    32
  0
VERTEX
  8
0
  5
1CA5
 10
8.47200
 20
2.68557
 30
0.000000
  70
    32
  0
VERTEX
  8
0
  5
1CA6
 10
8.47217
 20
2.68557
 30
0.000000
  70
    32
  0
VERTEX
  8
0
  5
1CA7
 10
8.47234
 20
2.68557
 30
0.000000
  70
    32
  0
VERTEX
  8
0
  5
1CA8
 10
8.47250
 20
2.68557
 30
0.000000
  70
    32
  0
VERTEX
  8
0
  5
1CA9
 10
8.47267
 20
2.68557
 30
0.000000
  70
    32
  0
VERTEX
  8
0
  5
1CAA
 10
8.47284
 20
2.68557
 30
0.000000
  70
    32
  0
VERTEX
  8
0
  5
1CAB
 10
8.47301
 20
2.68557
 30
0.000000
  70
    32
  0
VERTEX
  8
0
  5
1CAC
 10
8.47318
 20
2.68557
 30
0.000000
  70
    32
  0
VERTEX
  8
0
  5
1CAD
 10
8.47335
 20
2.68557
 30
0.000000
  70
    32
  0
VERTEX
  8
0
  5
1CAE
 10
8.47352
 20
2.68557
 30
0.000000
  70
    32
  0
VERTEX
  8
0
  5
1CAF
 10
8.47369
 20
2.68557
 30
0.000000
  70
    32
  0
VERTEX
  8
0
  5
1CB0
 10
8.47386
 20
2.68557
 30
0.000000
  70
    32
  0
VERTEX
  8
0
  5
1CB1
 10
8.47403
 20
2.68557
 30
0.000000
  70
    32
  0
VERTEX
  8
0
  5
1CB2
 10
8.47421
 20
2.68557
 30
0.000000
  70
    32
  0
VERTEX
  8
0
  5
1CB3
 10
8.47438
 20
2.68557
 30
0.000000
  70
    32
  0
VERTEX
  8
0
  5
1CB4
 10
8.47455
 20
2.68557
 30
0.000000
  70
    32
  0
VERTEX
  8
0
  5
1CB5
 10
8.47472
 20
2.68557
 30
0.000000
  70
    32
  0
VERTEX
  8
0
  5
1CB6
 10
8.47490
 20
2.68557
 30
0.000000
  70
    32
  0
VERTEX
  8
0
  5
1CB7
 10
8.47507
 20
2.68557
 30
0.000000
  70
    32
  0
VERTEX
  8
0
  5
1CB8
 10
8.47524
 20
2.68557
 30
0.000000
  70
    32
  0
VERTEX
  8
0
  5
1CB9
 10
8.47542
 20
2.68557
 30
0.000000
  70
    32
  0
VERTEX
  8
0
  5
1CBA
 10
8.47559
 20
2.68557
 30
0.000000
  70
    32
  0
VERTEX
  8
0
  5
1CBB
 10
8.47577
 20
2.68557
 30
0.000000
  70
    32
  0
VERTEX
  8
0
  5
1CBC
 10
8.47594
 20
2.68557
 30
0.000000
  70
    32
  0
VERTEX
  8
0
  5
1CBD
 10
8.47612
 20
2.68557
 30
0.000000
  70
    32
  0
VERTEX
  8
0
  5
1CBE
 10
8.47629
 20
2.68557
 30
0.000000
  70
    32
  0
VERTEX
  8
0
  5
1CBF
 10
8.47647
 20
2.68557
 30
0.000000
  70
    32
  0
VERTEX
  8
0
  5
1CC0
 10
8.47664
 20
2.68557
 30
0.000000
  70
    32
  0
SEQEND
  8
0
  5
1CC1
  0
POLYLINE
  8
0
  5
1CC2
  62
7
  66
     1
 10
0.000000
 20
0.000000
 30
0.000000
  70
     8
  0
VERTEX
  8
0
  5
1CC3
 10
9.03227
 20
2.68557
 30
0.000000
  70
    32
  0
VERTEX
  8
0
  5
1CC4
 10
9.03212
 20
2.68557
 30
0.000000
  70
    32
  0
VERTEX
  8
0
  5
1CC5
 10
9.03197
 20
2.68557
 30
0.000000
  70
    32
  0
VERTEX
  8
0
  5
1CC6
 10
9.03182
 20
2.68557
 30
0.000000
  70
    32
  0
VERTEX
  8
0
  5
1CC7
 10
9.03167
 20
2.68557
 30
0.000000
  70
    32
  0
VERTEX
  8
0
  5
1CC8
 10
9.03152
 20
2.68557
 30
0.000000
  70
    32
  0
VERTEX
  8
0
  5
1CC9
 10
9.03137
 20
2.68558
 30
0.000000
  70
    32
  0
VERTEX
  8
0
  5
1CCA
 10
9.03122
 20
2.68558
 30
0.000000
  70
    32
  0
VERTEX
  8
0
  5
1CCB
 10
9.03107
 20
2.68558
 30
0.000000
  70
    32
  0
VERTEX
  8
0
  5
1CCC
 10
9.03092
 20
2.68558
 30
0.000000
  70
    32
  0
VERTEX
  8
0
  5
1CCD
 10
9.03076
 20
2.68559
 30
0.000000
  70
    32
  0
VERTEX
  8
0
  5
1CCE
 10
9.03061
 20
2.68559
 30
0.000000
  70
    32
  0
VERTEX
  8
0
  5
1CCF
 10
9.03046
 20
2.68559
 30
0.000000
  70
    32
  0
VERTEX
  8
0
  5
1CD0
 10
9.03031
 20
2.68560
 30
0.000000
  70
    32
  0
VERTEX
  8
0
  5
1CD1
 10
9.03015
 20
2.68560
 30
0.000000
  70
    32
  0
VERTEX
  8
0
  5
1CD2
 10
9.03000
 20
2.68561
 30
0.000000
  70
    32
  0
VERTEX
  8
0
  5
1CD3
 10
9.02985
 20
2.68561
 30
0.000000
  70
    32
  0
VERTEX
  8
0
  5
1CD4
 10
9.02969
 20
2.68562
 30
0.000000
  70
    32
  0
VERTEX
  8
0
  5
1CD5
 10
9.02954
 20
2.68562
 30
0.000000
  70
    32
  0
VERTEX
  8
0
  5
1CD6
 10
9.02939
 20
2.68563
 30
0.000000
  70
    32
  0
VERTEX
  8
0
  5
1CD7
 10
9.02923
 20
2.68563
 30
0.000000
  70
    32
  0
VERTEX
  8
0
  5
1CD8
 10
9.02908
 20
2.68564
 30
0.000000
  70
    32
  0
VERTEX
  8
0
  5
1CD9
 10
9.02892
 20
2.68565
 30
0.000000
  70
    32
  0
VERTEX
  8
0
  5
1CDA
 10
9.02877
 20
2.68566
 30
0.000000
  70
    32
  0
VERTEX
  8
0
  5
1CDB
 10
9.02861
 20
2.68566
 30
0.000000
  70
    32
  0
VERTEX
  8
0
  5
1CDC
 10
9.02846
 20
2.68567
 30
0.000000
  70
    32
  0
VERTEX
  8
0
  5
1CDD
 10
9.02830
 20
2.68568
 30
0.000000
  70
    32
  0
VERTEX
  8
0
  5
1CDE
 10
9.02814
 20
2.68569
 30
0.000000
  70
    32
  0
VERTEX
  8
0
  5
1CDF
 10
9.02799
 20
2.68570
 30
0.000000
  70
    32
  0
VERTEX
  8
0
  5
1CE0
 10
9.02783
 20
2.68571
 30
0.000000
  70
    32
  0
VERTEX
  8
0
  5
1CE1
 10
9.02767
 20
2.68572
 30
0.000000
  70
    32
  0
VERTEX
  8
0
  5
1CE2
 10
9.02752
 20
2.68573
 30
0.000000
  70
    32
  0
VERTEX
  8
0
  5
1CE3
 10
9.02736
 20
2.68574
 30
0.000000
  70
    32
  0
VERTEX
  8
0
  5
1CE4
 10
9.02720
 20
2.68575
 30
0.000000
  70
    32
  0
VERTEX
  8
0
  5
1CE5
 10
9.02705
 20
2.68577
 30
0.000000
  70
    32
  0
VERTEX
  8
0
  5
1CE6
 10
9.02689
 20
2.68578
 30
0.000000
  70
    32
  0
VERTEX
  8
0
  5
1CE7
 10
9.02673
 20
2.68579
 30
0.000000
  70
    32
  0
VERTEX
  8
0
  5
1CE8
 10
9.02657
 20
2.68581
 30
0.000000
  70
    32
  0
VERTEX
  8
0
  5
1CE9
 10
9.02641
 20
2.68582
 30
0.000000
  70
    32
  0
VERTEX
  8
0
  5
1CEA
 10
9.02626
 20
2.68583
 30
0.000000
  70
    32
  0
VERTEX
  8
0
  5
1CEB
 10
9.02610
 20
2.68585
 30
0.000000
  70
    32
  0
VERTEX
  8
0
  5
1CEC
 10
9.02594
 20
2.68586
 30
0.000000
  70
    32
  0
VERTEX
  8
0
  5
1CED
 10
9.02578
 20
2.68588
 30
0.000000
  70
    32
  0
VERTEX
  8
0
  5
1CEE
 10
9.02562
 20
2.68589
 30
0.000000
  70
    32
  0
VERTEX
  8
0
  5
1CEF
 10
9.02546
 20
2.68591
 30
0.000000
  70
    32
  0
VERTEX
  8
0
  5
1CF0
 10
9.02530
 20
2.68593
 30
0.000000
  70
    32
  0
VERTEX
  8
0
  5
1CF1
 10
9.02514
 20
2.68594
 30
0.000000
  70
    32
  0
VERTEX
  8
0
  5
1CF2
 10
9.02499
 20
2.68596
 30
0.000000
  70
    32
  0
VERTEX
  8
0
  5
1CF3
 10
9.02483
 20
2.68598
 30
0.000000
  70
    32
  0
VERTEX
  8
0
  5
1CF4
 10
9.02467
 20
2.68600
 30
0.000000
  70
    32
  0
VERTEX
  8
0
  5
1CF5
 10
9.02451
 20
2.68602
 30
0.000000
  70
    32
  0
VERTEX
  8
0
  5
1CF6
 10
9.02435
 20
2.68604
 30
0.000000
  70
    32
  0
VERTEX
  8
0
  5
1CF7
 10
9.02419
 20
2.68606
 30
0.000000
  70
    32
  0
VERTEX
  8
0
  5
1CF8
 10
9.02403
 20
2.68608
 30
0.000000
  70
    32
  0
VERTEX
  8
0
  5
1CF9
 10
9.02387
 20
2.68610
 30
0.000000
  70
    32
  0
VERTEX
  8
0
  5
1CFA
 10
9.02371
 20
2.68612
 30
0.000000
  70
    32
  0
VERTEX
  8
0
  5
1CFB
 10
9.02355
 20
2.68614
 30
0.000000
  70
    32
  0
VERTEX
  8
0
  5
1CFC
 10
9.02338
 20
2.68616
 30
0.000000
  70
    32
  0
VERTEX
  8
0
  5
1CFD
 10
9.02322
 20
2.68619
 30
0.000000
  70
    32
  0
VERTEX
  8
0
  5
1CFE
 10
9.02306
 20
2.68621
 30
0.000000
  70
    32
  0
VERTEX
  8
0
  5
1CFF
 10
9.02290
 20
2.68623
 30
0.000000
  70
    32
  0
VERTEX
  8
0
  5
1D00
 10
9.02274
 20
2.68626
 30
0.000000
  70
    32
  0
VERTEX
  8
0
  5
1D01
 10
9.02258
 20
2.68628
 30
0.000000
  70
    32
  0
VERTEX
  8
0
  5
1D02
 10
9.02242
 20
2.68631
 30
0.000000
  70
    32
  0
VERTEX
  8
0
  5
1D03
 10
9.02226
 20
2.68633
 30
0.000000
  70
    32
  0
VERTEX
  8
0
  5
1D04
 10
9.02210
 20
2.68636
 30
0.000000
  70
    32
  0
VERTEX
  8
0
  5
1D05
 10
9.02194
 20
2.68639
 30
0.000000
  70
    32
  0
VERTEX
  8
0
  5
1D06
 10
9.02178
 20
2.68641
 30
0.000000
  70
    32
  0
VERTEX
  8
0
  5
1D07
 10
9.02161
 20
2.68644
 30
0.000000
  70
    32
  0
VERTEX
  8
0
  5
1D08
 10
9.02145
 20
2.68647
 30
0.000000
  70
    32
  0
VERTEX
  8
0
  5
1D09
 10
9.02129
 20
2.68650
 30
0.000000
  70
    32
  0
VERTEX
  8
0
  5
1D0A
 10
9.02113
 20
2.68653
 30
0.000000
  70
    32
  0
VERTEX
  8
0
  5
1D0B
 10
9.02097
 20
2.68656
 30
0.000000
  70
    32
  0
VERTEX
  8
0
  5
1D0C
 10
9.02081
 20
2.68659
 30
0.000000
  70
    32
  0
VERTEX
  8
0
  5
1D0D
 10
9.02065
 20
2.68662
 30
0.000000
  70
    32
  0
VERTEX
  8
0
  5
1D0E
 10
9.02049
 20
2.68665
 30
0.000000
  70
    32
  0
VERTEX
  8
0
  5
1D0F
 10
9.02032
 20
2.68668
 30
0.000000
  70
    32
  0
VERTEX
  8
0
  5
1D10
 10
9.02016
 20
2.68671
 30
0.000000
  70
    32
  0
VERTEX
  8
0
  5
1D11
 10
9.02000
 20
2.68675
 30
0.000000
  70
    32
  0
VERTEX
  8
0
  5
1D12
 10
9.01984
 20
2.68678
 30
0.000000
  70
    32
  0
VERTEX
  8
0
  5
1D13
 10
9.01968
 20
2.68681
 30
0.000000
  70
    32
  0
VERTEX
  8
0
  5
1D14
 10
9.01952
 20
2.68685
 30
0.000000
  70
    32
  0
VERTEX
  8
0
  5
1D15
 10
9.01936
 20
2.68688
 30
0.000000
  70
    32
  0
VERTEX
  8
0
  5
1D16
 10
9.01919
 20
2.68692
 30
0.000000
  70
    32
  0
VERTEX
  8
0
  5
1D17
 10
9.01903
 20
2.68695
 30
0.000000
  70
    32
  0
VERTEX
  8
0
  5
1D18
 10
9.01887
 20
2.68699
 30
0.000000
  70
    32
  0
VERTEX
  8
0
  5
1D19
 10
9.01871
 20
2.68703
 30
0.000000
  70
    32
  0
VERTEX
  8
0
  5
1D1A
 10
9.01855
 20
2.68706
 30
0.000000
  70
    32
  0
VERTEX
  8
0
  5
1D1B
 10
9.01839
 20
2.68710
 30
0.000000
  70
    32
  0
VERTEX
  8
0
  5
1D1C
 10
9.01823
 20
2.68714
 30
0.000000
  70
    32
  0
VERTEX
  8
0
  5
1D1D
 10
9.01806
 20
2.68718
 30
0.000000
  70
    32
  0
VERTEX
  8
0
  5
1D1E
 10
9.01790
 20
2.68722
 30
0.000000
  70
    32
  0
VERTEX
  8
0
  5
1D1F
 10
9.01774
 20
2.68726
 30
0.000000
  70
    32
  0
VERTEX
  8
0
  5
1D20
 10
9.01758
 20
2.68730
 30
0.000000
  70
    32
  0
VERTEX
  8
0
  5
1D21
 10
9.01742
 20
2.68734
 30
0.000000
  70
    32
  0
VERTEX
  8
0
  5
1D22
 10
9.01726
 20
2.68739
 30
0.000000
  70
    32
  0
VERTEX
  8
0
  5
1D23
 10
9.01710
 20
2.68743
 30
0.000000
  70
    32
  0
VERTEX
  8
0
  5
1D24
 10
9.01694
 20
2.68747
 30
0.000000
  70
    32
  0
VERTEX
  8
0
  5
1D25
 10
9.01678
 20
2.68752
 30
0.000000
  70
    32
  0
VERTEX
  8
0
  5
1D26
 10
9.01662
 20
2.68756
 30
0.000000
  70
    32
  0
VERTEX
  8
0
  5
1D27
 10
9.01646
 20
2.68760
 30
0.000000
  70
    32
  0
VERTEX
  8
0
  5
1D28
 10
9.01630
 20
2.68765
 30
0.000000
  70
    32
  0
VERTEX
  8
0
  5
1D29
 10
9.01614
 20
2.68770
 30
0.000000
  70
    32
  0
VERTEX
  8
0
  5
1D2A
 10
9.01598
 20
2.68774
 30
0.000000
  70
    32
  0
VERTEX
  8
0
  5
1D2B
 10
9.01582
 20
2.68779
 30
0.000000
  70
    32
  0
VERTEX
  8
0
  5
1D2C
 10
9.01566
 20
2.68784
 30
0.000000
  70
    32
  0
VERTEX
  8
0
  5
1D2D
 10
9.01550
 20
2.68789
 30
0.000000
  70
    32
  0
VERTEX
  8
0
  5
1D2E
 10
9.01534
 20
2.68794
 30
0.000000
  70
    32
  0
VERTEX
  8
0
  5
1D2F
 10
9.01518
 20
2.68799
 30
0.000000
  70
    32
  0
VERTEX
  8
0
  5
1D30
 10
9.01502
 20
2.68804
 30
0.000000
  70
    32
  0
VERTEX
  8
0
  5
1D31
 10
9.01486
 20
2.68809
 30
0.000000
  70
    32
  0
VERTEX
  8
0
  5
1D32
 10
9.01470
 20
2.68814
 30
0.000000
  70
    32
  0
VERTEX
  8
0
  5
1D33
 10
9.01454
 20
2.68819
 30
0.000000
  70
    32
  0
VERTEX
  8
0
  5
1D34
 10
9.01438
 20
2.68824
 30
0.000000
  70
    32
  0
VERTEX
  8
0
  5
1D35
 10
9.01422
 20
2.68829
 30
0.000000
  70
    32
  0
VERTEX
  8
0
  5
1D36
 10
9.01406
 20
2.68835
 30
0.000000
  70
    32
  0
VERTEX
  8
0
  5
1D37
 10
9.01390
 20
2.68840
 30
0.000000
  70
    32
  0
VERTEX
  8
0
  5
1D38
 10
9.01374
 20
2.68845
 30
0.000000
  70
    32
  0
VERTEX
  8
0
  5
1D39
 10
9.01358
 20
2.68851
 30
0.000000
  70
    32
  0
VERTEX
  8
0
  5
1D3A
 10
9.01342
 20
2.68856
 30
0.000000
  70
    32
  0
VERTEX
  8
0
  5
1D3B
 10
9.01326
 20
2.68862
 30
0.000000
  70
    32
  0
VERTEX
  8
0
  5
1D3C
 10
9.01311
 20
2.68867
 30
0.000000
  70
    32
  0
VERTEX
  8
0
  5
1D3D
 10
9.01295
 20
2.68873
 30
0.000000
  70
    32
  0
VERTEX
  8
0
  5
1D3E
 10
9.01279
 20
2.68879
 30
0.000000
  70
    32
  0
VERTEX
  8
0
  5
1D3F
 10
9.01263
 20
2.68885
 30
0.000000
  70
    32
  0
VERTEX
  8
0
  5
1D40
 10
9.01247
 20
2.68890
 30
0.000000
  70
    32
  0
VERTEX
  8
0
  5
1D41
 10
9.01231
 20
2.68896
 30
0.000000
  70
    32
  0
VERTEX
  8
0
  5
1D42
 10
9.01215
 20
2.68902
 30
0.000000
  70
    32
  0
VERTEX
  8
0
  5
1D43
 10
9.01200
 20
2.68908
 30
0.000000
  70
    32
  0
VERTEX
  8
0
  5
1D44
 10
9.01184
 20
2.68914
 30
0.000000
  70
    32
  0
VERTEX
  8
0
  5
1D45
 10
9.01168
 20
2.68920
 30
0.000000
  70
    32
  0
VERTEX
  8
0
  5
1D46
 10
9.01152
 20
2.68926
 30
0.000000
  70
    32
  0
VERTEX
  8
0
  5
1D47
 10
9.01136
 20
2.68932
 30
0.000000
  70
    32
  0
VERTEX
  8
0
  5
1D48
 10
9.01120
 20
2.68938
 30
0.000000
  70
    32
  0
VERTEX
  8
0
  5
1D49
 10
9.01105
 20
2.68944
 30
0.000000
  70
    32
  0
VERTEX
  8
0
  5
1D4A
 10
9.01089
 20
2.68950
 30
0.000000
  70
    32
  0
VERTEX
  8
0
  5
1D4B
 10
9.01073
 20
2.68956
 30
0.000000
  70
    32
  0
VERTEX
  8
0
  5
1D4C
 10
9.01057
 20
2.68963
 30
0.000000
  70
    32
  0
VERTEX
  8
0
  5
1D4D
 10
9.01042
 20
2.68969
 30
0.000000
  70
    32
  0
VERTEX
  8
0
  5
1D4E
 10
9.01026
 20
2.68975
 30
0.000000
  70
    32
  0
VERTEX
  8
0
  5
1D4F
 10
9.01010
 20
2.68981
 30
0.000000
  70
    32
  0
VERTEX
  8
0
  5
1D50
 10
9.00994
 20
2.68988
 30
0.000000
  70
    32
  0
VERTEX
  8
0
  5
1D51
 10
9.00978
 20
2.68994
 30
0.000000
  70
    32
  0
VERTEX
  8
0
  5
1D52
 10
9.00963
 20
2.69001
 30
0.000000
  70
    32
  0
VERTEX
  8
0
  5
1D53
 10
9.00947
 20
2.69007
 30
0.000000
  70
    32
  0
VERTEX
  8
0
  5
1D54
 10
9.00931
 20
2.69014
 30
0.000000
  70
    32
  0
VERTEX
  8
0
  5
1D55
 10
9.00915
 20
2.69020
 30
0.000000
  70
    32
  0
VERTEX
  8
0
  5
1D56
 10
9.00900
 20
2.69027
 30
0.000000
  70
    32
  0
VERTEX
  8
0
  5
1D57
 10
9.00884
 20
2.69033
 30
0.000000
  70
    32
  0
VERTEX
  8
0
  5
1D58
 10
9.00868
 20
2.69040
 30
0.000000
  70
    32
  0
VERTEX
  8
0
  5
1D59
 10
9.00853
 20
2.69046
 30
0.000000
  70
    32
  0
VERTEX
  8
0
  5
1D5A
 10
9.00837
 20
2.69053
 30
0.000000
  70
    32
  0
VERTEX
  8
0
  5
1D5B
 10
9.00821
 20
2.69060
 30
0.000000
  70
    32
  0
VERTEX
  8
0
  5
1D5C
 10
9.00805
 20
2.69066
 30
0.000000
  70
    32
  0
VERTEX
  8
0
  5
1D5D
 10
9.00790
 20
2.69073
 30
0.000000
  70
    32
  0
VERTEX
  8
0
  5
1D5E
 10
9.00774
 20
2.69080
 30
0.000000
  70
    32
  0
VERTEX
  8
0
  5
1D5F
 10
9.00758
 20
2.69087
 30
0.000000
  70
    32
  0
VERTEX
  8
0
  5
1D60
 10
9.00743
 20
2.69093
 30
0.000000
  70
    32
  0
VERTEX
  8
0
  5
1D61
 10
9.00727
 20
2.69100
 30
0.000000
  70
    32
  0
VERTEX
  8
0
  5
1D62
 10
9.00711
 20
2.69107
 30
0.000000
  70
    32
  0
VERTEX
  8
0
  5
1D63
 10
9.00695
 20
2.69114
 30
0.000000
  70
    32
  0
VERTEX
  8
0
  5
1D64
 10
9.00680
 20
2.69121
 30
0.000000
  70
    32
  0
VERTEX
  8
0
  5
1D65
 10
9.00664
 20
2.69128
 30
0.000000
  70
    32
  0
VERTEX
  8
0
  5
1D66
 10
9.00648
 20
2.69135
 30
0.000000
  70
    32
  0
VERTEX
  8
0
  5
1D67
 10
9.00633
 20
2.69142
 30
0.000000
  70
    32
  0
VERTEX
  8
0
  5
1D68
 10
9.00617
 20
2.69149
 30
0.000000
  70
    32
  0
VERTEX
  8
0
  5
1D69
 10
9.00601
 20
2.69156
 30
0.000000
  70
    32
  0
VERTEX
  8
0
  5
1D6A
 10
9.00586
 20
2.69163
 30
0.000000
  70
    32
  0
VERTEX
  8
0
  5
1D6B
 10
9.00570
 20
2.69170
 30
0.000000
  70
    32
  0
VERTEX
  8
0
  5
1D6C
 10
9.00554
 20
2.69177
 30
0.000000
  70
    32
  0
VERTEX
  8
0
  5
1D6D
 10
9.00539
 20
2.69184
 30
0.000000
  70
    32
  0
VERTEX
  8
0
  5
1D6E
 10
9.00523
 20
2.69191
 30
0.000000
  70
    32
  0
VERTEX
  8
0
  5
1D6F
 10
9.00507
 20
2.69198
 30
0.000000
  70
    32
  0
VERTEX
  8
0
  5
1D70
 10
9.00492
 20
2.69205
 30
0.000000
  70
    32
  0
VERTEX
  8
0
  5
1D71
 10
9.00476
 20
2.69212
 30
0.000000
  70
    32
  0
VERTEX
  8
0
  5
1D72
 10
9.00460
 20
2.69219
 30
0.000000
  70
    32
  0
VERTEX
  8
0
  5
1D73
 10
9.00445
 20
2.69226
 30
0.000000
  70
    32
  0
VERTEX
  8
0
  5
1D74
 10
9.00429
 20
2.69233
 30
0.000000
  70
    32
  0
VERTEX
  8
0
  5
1D75
 10
9.00413
 20
2.69240
 30
0.000000
  70
    32
  0
VERTEX
  8
0
  5
1D76
 10
9.00398
 20
2.69247
 30
0.000000
  70
    32
  0
VERTEX
  8
0
  5
1D77
 10
9.00382
 20
2.69255
 30
0.000000
  70
    32
  0
VERTEX
  8
0
  5
1D78
 10
9.00366
 20
2.69262
 30
0.000000
  70
    32
  0
VERTEX
  8
0
  5
1D79
 10
9.00351
 20
2.69269
 30
0.000000
  70
    32
  0
VERTEX
  8
0
  5
1D7A
 10
9.00335
 20
2.69276
 30
0.000000
  70
    32
  0
VERTEX
  8
0
  5
1D7B
 10
9.00320
 20
2.69283
 30
0.000000
  70
    32
  0
VERTEX
  8
0
  5
1D7C
 10
9.00304
 20
2.69290
 30
0.000000
  70
    32
  0
VERTEX
  8
0
  5
1D7D
 10
9.00288
 20
2.69297
 30
0.000000
  70
    32
  0
VERTEX
  8
0
  5
1D7E
 10
9.00273
 20
2.69305
 30
0.000000
  70
    32
  0
VERTEX
  8
0
  5
1D7F
 10
9.00257
 20
2.69312
 30
0.000000
  70
    32
  0
VERTEX
  8
0
  5
1D80
 10
9.00241
 20
2.69319
 30
0.000000
  70
    32
  0
VERTEX
  8
0
  5
1D81
 10
9.00226
 20
2.69326
 30
0.000000
  70
    32
  0
VERTEX
  8
0
  5
1D82
 10
9.00210
 20
2.69333
 30
0.000000
  70
    32
  0
SEQEND
  8
0
  5
1D83
  0
POLYLINE
  8
0
  5
1D84
  62
7
  66
     1
 10
0.000000
 20
0.000000
 30
0.000000
  70
     8
  0
VERTEX
  8
0
  5
1D85
 10
9.03227
 20
2.68557
 30
0.000000
  70
    32
  0
VERTEX
  8
0
  5
1D86
 10
9.03247
 20
2.68557
 30
0.000000
  70
    32
  0
VERTEX
  8
0
  5
1D87
 10
9.03266
 20
2.68557
 30
0.000000
  70
    32
  0
VERTEX
  8
0
  5
1D88
 10
9.03286
 20
2.68557
 30
0.000000
  70
    32
  0
VERTEX
  8
0
  5
1D89
 10
9.03305
 20
2.68557
 30
0.000000
  70
    32
  0
VERTEX
  8
0
  5
1D8A
 10
9.03325
 20
2.68557
 30
0.000000
  70
    32
  0
VERTEX
  8
0
  5
1D8B
 10
9.03344
 20
2.68557
 30
0.000000
  70
    32
  0
VERTEX
  8
0
  5
1D8C
 10
9.03364
 20
2.68557
 30
0.000000
  70
    32
  0
VERTEX
  8
0
  5
1D8D
 10
9.03383
 20
2.68557
 30
0.000000
  70
    32
  0
VERTEX
  8
0
  5
1D8E
 10
9.03403
 20
2.68557
 30
0.000000
  70
    32
  0
VERTEX
  8
0
  5
1D8F
 10
9.03422
 20
2.68557
 30
0.000000
  70
    32
  0
VERTEX
  8
0
  5
1D90
 10
9.03441
 20
2.68557
 30
0.000000
  70
    32
  0
VERTEX
  8
0
  5
1D91
 10
9.03461
 20
2.68557
 30
0.000000
  70
    32
  0
VERTEX
  8
0
  5
1D92
 10
9.03480
 20
2.68557
 30
0.000000
  70
    32
  0
VERTEX
  8
0
  5
1D93
 10
9.03500
 20
2.68557
 30
0.000000
  70
    32
  0
VERTEX
  8
0
  5
1D94
 10
9.03519
 20
2.68557
 30
0.000000
  70
    32
  0
VERTEX
  8
0
  5
1D95
 10
9.03539
 20
2.68557
 30
0.000000
  70
    32
  0
VERTEX
  8
0
  5
1D96
 10
9.03558
 20
2.68557
 30
0.000000
  70
    32
  0
VERTEX
  8
0
  5
1D97
 10
9.03577
 20
2.68557
 30
0.000000
  70
    32
  0
VERTEX
  8
0
  5
1D98
 10
9.03597
 20
2.68557
 30
0.000000
  70
    32
  0
VERTEX
  8
0
  5
1D99
 10
9.03616
 20
2.68557
 30
0.000000
  70
    32
  0
VERTEX
  8
0
  5
1D9A
 10
9.03635
 20
2.68557
 30
0.000000
  70
    32
  0
VERTEX
  8
0
  5
1D9B
 10
9.03655
 20
2.68557
 30
0.000000
  70
    32
  0
VERTEX
  8
0
  5
1D9C
 10
9.03674
 20
2.68557
 30
0.000000
  70
    32
  0
VERTEX
  8
0
  5
1D9D
 10
9.03693
 20
2.68557
 30
0.000000
  70
    32
  0
VERTEX
  8
0
  5
1D9E
 10
9.03712
 20
2.68557
 30
0.000000
  70
    32
  0
VERTEX
  8
0
  5
1D9F
 10
9.03732
 20
2.68557
 30
0.000000
  70
    32
  0
VERTEX
  8
0
  5
1DA0
 10
9.03751
 20
2.68557
 30
0.000000
  70
    32
  0
VERTEX
  8
0
  5
1DA1
 10
9.03770
 20
2.68557
 30
0.000000
  70
    32
  0
VERTEX
  8
0
  5
1DA2
 10
9.03789
 20
2.68557
 30
0.000000
  70
    32
  0
VERTEX
  8
0
  5
1DA3
 10
9.03808
 20
2.68557
 30
0.000000
  70
    32
  0
VERTEX
  8
0
  5
1DA4
 10
9.03827
 20
2.68557
 30
0.000000
  70
    32
  0
VERTEX
  8
0
  5
1DA5
 10
9.03847
 20
2.68557
 30
0.000000
  70
    32
  0
VERTEX
  8
0
  5
1DA6
 10
9.03866
 20
2.68557
 30
0.000000
  70
    32
  0
VERTEX
  8
0
  5
1DA7
 10
9.03885
 20
2.68557
 30
0.000000
  70
    32
  0
VERTEX
  8
0
  5
1DA8
 10
9.03904
 20
2.68557
 30
0.000000
  70
    32
  0
VERTEX
  8
0
  5
1DA9
 10
9.03923
 20
2.68557
 30
0.000000
  70
    32
  0
VERTEX
  8
0
  5
1DAA
 10
9.03942
 20
2.68557
 30
0.000000
  70
    32
  0
VERTEX
  8
0
  5
1DAB
 10
9.03960
 20
2.68557
 30
0.000000
  70
    32
  0
VERTEX
  8
0
  5
1DAC
 10
9.03979
 20
2.68557
 30
0.000000
  70
    32
  0
VERTEX
  8
0
  5
1DAD
 10
9.03998
 20
2.68557
 30
0.000000
  70
    32
  0
VERTEX
  8
0
  5
1DAE
 10
9.04017
 20
2.68557
 30
0.000000
  70
    32
  0
VERTEX
  8
0
  5
1DAF
 10
9.04036
 20
2.68557
 30
0.000000
  70
    32
  0
VERTEX
  8
0
  5
1DB0
 10
9.04054
 20
2.68557
 30
0.000000
  70
    32
  0
VERTEX
  8
0
  5
1DB1
 10
9.04073
 20
2.68557
 30
0.000000
  70
    32
  0
VERTEX
  8
0
  5
1DB2
 10
9.04092
 20
2.68557
 30
0.000000
  70
    32
  0
VERTEX
  8
0
  5
1DB3
 10
9.04110
 20
2.68557
 30
0.000000
  70
    32
  0
VERTEX
  8
0
  5
1DB4
 10
9.04129
 20
2.68557
 30
0.000000
  70
    32
  0
VERTEX
  8
0
  5
1DB5
 10
9.04147
 20
2.68557
 30
0.000000
  70
    32
  0
VERTEX
  8
0
  5
1DB6
 10
9.04166
 20
2.68557
 30
0.000000
  70
    32
  0
VERTEX
  8
0
  5
1DB7
 10
9.04184
 20
2.68557
 30
0.000000
  70
    32
  0
VERTEX
  8
0
  5
1DB8
 10
9.04203
 20
2.68557
 30
0.000000
  70
    32
  0
VERTEX
  8
0
  5
1DB9
 10
9.04221
 20
2.68557
 30
0.000000
  70
    32
  0
VERTEX
  8
0
  5
1DBA
 10
9.04240
 20
2.68557
 30
0.000000
  70
    32
  0
VERTEX
  8
0
  5
1DBB
 10
9.04258
 20
2.68557
 30
0.000000
  70
    32
  0
VERTEX
  8
0
  5
1DBC
 10
9.04276
 20
2.68557
 30
0.000000
  70
    32
  0
VERTEX
  8
0
  5
1DBD
 10
9.04294
 20
2.68557
 30
0.000000
  70
    32
  0
VERTEX
  8
0
  5
1DBE
 10
9.04312
 20
2.68557
 30
0.000000
  70
    32
  0
VERTEX
  8
0
  5
1DBF
 10
9.04330
 20
2.68557
 30
0.000000
  70
    32
  0
VERTEX
  8
0
  5
1DC0
 10
9.04348
 20
2.68557
 30
0.000000
  70
    32
  0
VERTEX
  8
0
  5
1DC1
 10
9.04366
 20
2.68557
 30
0.000000
  70
    32
  0
VERTEX
  8
0
  5
1DC2
 10
9.04384
 20
2.68557
 30
0.000000
  70
    32
  0
VERTEX
  8
0
  5
1DC3
 10
9.04402
 20
2.68557
 30
0.000000
  70
    32
  0
VERTEX
  8
0
  5
1DC4
 10
9.04420
 20
2.68557
 30
0.000000
  70
    32
  0
VERTEX
  8
0
  5
1DC5
 10
9.04438
 20
2.68557
 30
0.000000
  70
    32
  0
VERTEX
  8
0
  5
1DC6
 10
9.04456
 20
2.68557
 30
0.000000
  70
    32
  0
VERTEX
  8
0
  5
1DC7
 10
9.04473
 20
2.68557
 30
0.000000
  70
    32
  0
VERTEX
  8
0
  5
1DC8
 10
9.04491
 20
2.68557
 30
0.000000
  70
    32
  0
VERTEX
  8
0
  5
1DC9
 10
9.04508
 20
2.68557
 30
0.000000
  70
    32
  0
VERTEX
  8
0
  5
1DCA
 10
9.04526
 20
2.68557
 30
0.000000
  70
    32
  0
VERTEX
  8
0
  5
1DCB
 10
9.04543
 20
2.68557
 30
0.000000
  70
    32
  0
VERTEX
  8
0
  5
1DCC
 10
9.04561
 20
2.68557
 30
0.000000
  70
    32
  0
VERTEX
  8
0
  5
1DCD
 10
9.04578
 20
2.68557
 30
0.000000
  70
    32
  0
VERTEX
  8
0
  5
1DCE
 10
9.04595
 20
2.68557
 30
0.000000
  70
    32
  0
VERTEX
  8
0
  5
1DCF
 10
9.04612
 20
2.68557
 30
0.000000
  70
    32
  0
VERTEX
  8
0
  5
1DD0
 10
9.04629
 20
2.68557
 30
0.000000
  70
    32
  0
VERTEX
  8
0
  5
1DD1
 10
9.04646
 20
2.68557
 30
0.000000
  70
    32
  0
VERTEX
  8
0
  5
1DD2
 10
9.04663
 20
2.68557
 30
0.000000
  70
    32
  0
VERTEX
  8
0
  5
1DD3
 10
9.04680
 20
2.68557
 30
0.000000
  70
    32
  0
VERTEX
  8
0
  5
1DD4
 10
9.04697
 20
2.68557
 30
0.000000
  70
    32
  0
VERTEX
  8
0
  5
1DD5
 10
9.04714
 20
2.68557
 30
0.000000
  70
    32
  0
VERTEX
  8
0
  5
1DD6
 10
9.04731
 20
2.68557
 30
0.000000
  70
    32
  0
VERTEX
  8
0
  5
1DD7
 10
9.04747
 20
2.68557
 30
0.000000
  70
    32
  0
VERTEX
  8
0
  5
1DD8
 10
9.04764
 20
2.68557
 30
0.000000
  70
    32
  0
VERTEX
  8
0
  5
1DD9
 10
9.04780
 20
2.68557
 30
0.000000
  70
    32
  0
VERTEX
  8
0
  5
1DDA
 10
9.04797
 20
2.68557
 30
0.000000
  70
    32
  0
VERTEX
  8
0
  5
1DDB
 10
9.04813
 20
2.68557
 30
0.000000
  70
    32
  0
VERTEX
  8
0
  5
1DDC
 10
9.04830
 20
2.68557
 30
0.000000
  70
    32
  0
VERTEX
  8
0
  5
1DDD
 10
9.04846
 20
2.68557
 30
0.000000
  70
    32
  0
VERTEX
  8
0
  5
1DDE
 10
9.04862
 20
2.68557
 30
0.000000
  70
    32
  0
VERTEX
  8
0
  5
1DDF
 10
9.04878
 20
2.68557
 30
0.000000
  70
    32
  0
VERTEX
  8
0
  5
1DE0
 10
9.04894
 20
2.68557
 30
0.000000
  70
    32
  0
VERTEX
  8
0
  5
1DE1
 10
9.04910
 20
2.68557
 30
0.000000
  70
    32
  0
VERTEX
  8
0
  5
1DE2
 10
9.04926
 20
2.68557
 30
0.000000
  70
    32
  0
VERTEX
  8
0
  5
1DE3
 10
9.04941
 20
2.68557
 30
0.000000
  70
    32
  0
VERTEX
  8
0
  5
1DE4
 10
9.04957
 20
2.68557
 30
0.000000
  70
    32
  0
VERTEX
  8
0
  5
1DE5
 10
9.04973
 20
2.68557
 30
0.000000
  70
    32
  0
VERTEX
  8
0
  5
1DE6
 10
9.04988
 20
2.68557
 30
0.000000
  70
    32
  0
VERTEX
  8
0
  5
1DE7
 10
9.05004
 20
2.68557
 30
0.000000
  70
    32
  0
VERTEX
  8
0
  5
1DE8
 10
9.05019
 20
2.68557
 30
0.000000
  70
    32
  0
VERTEX
  8
0
  5
1DE9
 10
9.05034
 20
2.68557
 30
0.000000
  70
    32
  0
VERTEX
  8
0
  5
1DEA
 10
9.05049
 20
2.68557
 30
0.000000
  70
    32
  0
VERTEX
  8
0
  5
1DEB
 10
9.05065
 20
2.68557
 30
0.000000
  70
    32
  0
VERTEX
  8
0
  5
1DEC
 10
9.05080
 20
2.68557
 30
0.000000
  70
    32
  0
VERTEX
  8
0
  5
1DED
 10
9.05095
 20
2.68557
 30
0.000000
  70
    32
  0
VERTEX
  8
0
  5
1DEE
 10
9.05109
 20
2.68557
 30
0.000000
  70
    32
  0
VERTEX
  8
0
  5
1DEF
 10
9.05124
 20
2.68557
 30
0.000000
  70
    32
  0
VERTEX
  8
0
  5
1DF0
 10
9.05139
 20
2.68557
 30
0.000000
  70
    32
  0
VERTEX
  8
0
  5
1DF1
 10
9.05154
 20
2.68557
 30
0.000000
  70
    32
  0
VERTEX
  8
0
  5
1DF2
 10
9.05168
 20
2.68557
 30
0.000000
  70
    32
  0
VERTEX
  8
0
  5
1DF3
 10
9.05183
 20
2.68557
 30
0.000000
  70
    32
  0
VERTEX
  8
0
  5
1DF4
 10
9.05197
 20
2.68557
 30
0.000000
  70
    32
  0
VERTEX
  8
0
  5
1DF5
 10
9.05212
 20
2.68557
 30
0.000000
  70
    32
  0
VERTEX
  8
0
  5
1DF6
 10
9.05226
 20
2.68557
 30
0.000000
  70
    32
  0
VERTEX
  8
0
  5
1DF7
 10
9.05240
 20
2.68557
 30
0.000000
  70
    32
  0
VERTEX
  8
0
  5
1DF8
 10
9.05254
 20
2.68557
 30
0.000000
  70
    32
  0
VERTEX
  8
0
  5
1DF9
 10
9.05268
 20
2.68557
 30
0.000000
  70
    32
  0
VERTEX
  8
0
  5
1DFA
 10
9.05282
 20
2.68557
 30
0.000000
  70
    32
  0
VERTEX
  8
0
  5
1DFB
 10
9.05296
 20
2.68557
 30
0.000000
  70
    32
  0
VERTEX
  8
0
  5
1DFC
 10
9.05310
 20
2.68557
 30
0.000000
  70
    32
  0
VERTEX
  8
0
  5
1DFD
 10
9.05323
 20
2.68557
 30
0.000000
  70
    32
  0
VERTEX
  8
0
  5
1DFE
 10
9.05337
 20
2.68557
 30
0.000000
  70
    32
  0
VERTEX
  8
0
  5
1DFF
 10
9.05351
 20
2.68557
 30
0.000000
  70
    32
  0
VERTEX
  8
0
  5
1E00
 10
9.05364
 20
2.68557
 30
0.000000
  70
    32
  0
VERTEX
  8
0
  5
1E01
 10
9.05377
 20
2.68557
 30
0.000000
  70
    32
  0
VERTEX
  8
0
  5
1E02
 10
9.05391
 20
2.68557
 30
0.000000
  70
    32
  0
VERTEX
  8
0
  5
1E03
 10
9.05404
 20
2.68557
 30
0.000000
  70
    32
  0
VERTEX
  8
0
  5
1E04
 10
9.05417
 20
2.68557
 30
0.000000
  70
    32
  0
VERTEX
  8
0
  5
1E05
 10
9.05430
 20
2.68557
 30
0.000000
  70
    32
  0
VERTEX
  8
0
  5
1E06
 10
9.05443
 20
2.68557
 30
0.000000
  70
    32
  0
VERTEX
  8
0
  5
1E07
 10
9.05456
 20
2.68557
 30
0.000000
  70
    32
  0
VERTEX
  8
0
  5
1E08
 10
9.05469
 20
2.68557
 30
0.000000
  70
    32
  0
VERTEX
  8
0
  5
1E09
 10
9.05482
 20
2.68557
 30
0.000000
  70
    32
  0
VERTEX
  8
0
  5
1E0A
 10
9.05494
 20
2.68557
 30
0.000000
  70
    32
  0
VERTEX
  8
0
  5
1E0B
 10
9.05507
 20
2.68557
 30
0.000000
  70
    32
  0
VERTEX
  8
0
  5
1E0C
 10
9.05520
 20
2.68557
 30
0.000000
  70
    32
  0
VERTEX
  8
0
  5
1E0D
 10
9.05532
 20
2.68557
 30
0.000000
  70
    32
  0
VERTEX
  8
0
  5
1E0E
 10
9.05544
 20
2.68557
 30
0.000000
  70
    32
  0
VERTEX
  8
0
  5
1E0F
 10
9.05557
 20
2.68557
 30
0.000000
  70
    32
  0
VERTEX
  8
0
  5
1E10
 10
9.05569
 20
2.68557
 30
0.000000
  70
    32
  0
VERTEX
  8
0
  5
1E11
 10
9.05581
 20
2.68557
 30
0.000000
  70
    32
  0
VERTEX
  8
0
  5
1E12
 10
9.05593
 20
2.68557
 30
0.000000
  70
    32
  0
VERTEX
  8
0
  5
1E13
 10
9.05605
 20
2.68557
 30
0.000000
  70
    32
  0
VERTEX
  8
0
  5
1E14
 10
9.05617
 20
2.68557
 30
0.000000
  70
    32
  0
VERTEX
  8
0
  5
1E15
 10
9.05628
 20
2.68557
 30
0.000000
  70
    32
  0
VERTEX
  8
0
  5
1E16
 10
9.05640
 20
2.68557
 30
0.000000
  70
    32
  0
VERTEX
  8
0
  5
1E17
 10
9.05652
 20
2.68557
 30
0.000000
  70
    32
  0
VERTEX
  8
0
  5
1E18
 10
9.05663
 20
2.68557
 30
0.000000
  70
    32
  0
VERTEX
  8
0
  5
1E19
 10
9.05675
 20
2.68557
 30
0.000000
  70
    32
  0
VERTEX
  8
0
  5
1E1A
 10
9.05686
 20
2.68557
 30
0.000000
  70
    32
  0
VERTEX
  8
0
  5
1E1B
 10
9.05697
 20
2.68557
 30
0.000000
  70
    32
  0
VERTEX
  8
0
  5
1E1C
 10
9.05709
 20
2.68557
 30
0.000000
  70
    32
  0
VERTEX
  8
0
  5
1E1D
 10
9.05720
 20
2.68557
 30
0.000000
  70
    32
  0
VERTEX
  8
0
  5
1E1E
 10
9.05731
 20
2.68557
 30
0.000000
  70
    32
  0
VERTEX
  8
0
  5
1E1F
 10
9.05742
 20
2.68557
 30
0.000000
  70
    32
  0
VERTEX
  8
0
  5
1E20
 10
9.05753
 20
2.68557
 30
0.000000
  70
    32
  0
VERTEX
  8
0
  5
1E21
 10
9.05764
 20
2.68557
 30
0.000000
  70
    32
  0
VERTEX
  8
0
  5
1E22
 10
9.05774
 20
2.68557
 30
0.000000
  70
    32
  0
VERTEX
  8
0
  5
1E23
 10
9.05785
 20
2.68557
 30
0.000000
  70
    32
  0
VERTEX
  8
0
  5
1E24
 10
9.05795
 20
2.68557
 30
0.000000
  70
    32
  0
VERTEX
  8
0
  5
1E25
 10
9.05806
 20
2.68557
 30
0.000000
  70
    32
  0
VERTEX
  8
0
  5
1E26
 10
9.05816
 20
2.68557
 30
0.000000
  70
    32
  0
VERTEX
  8
0
  5
1E27
 10
9.05827
 20
2.68557
 30
0.000000
  70
    32
  0
VERTEX
  8
0
  5
1E28
 10
9.05837
 20
2.68557
 30
0.000000
  70
    32
  0
VERTEX
  8
0
  5
1E29
 10
9.05847
 20
2.68557
 30
0.000000
  70
    32
  0
VERTEX
  8
0
  5
1E2A
 10
9.05857
 20
2.68557
 30
0.000000
  70
    32
  0
VERTEX
  8
0
  5
1E2B
 10
9.05867
 20
2.68557
 30
0.000000
  70
    32
  0
VERTEX
  8
0
  5
1E2C
 10
9.05877
 20
2.68557
 30
0.000000
  70
    32
  0
VERTEX
  8
0
  5
1E2D
 10
9.05887
 20
2.68557
 30
0.000000
  70
    32
  0
VERTEX
  8
0
  5
1E2E
 10
9.05896
 20
2.68557
 30
0.000000
  70
    32
  0
VERTEX
  8
0
  5
1E2F
 10
9.05906
 20
2.68557
 30
0.000000
  70
    32
  0
VERTEX
  8
0
  5
1E30
 10
9.05916
 20
2.68557
 30
0.000000
  70
    32
  0
VERTEX
  8
0
  5
1E31
 10
9.05925
 20
2.68557
 30
0.000000
  70
    32
  0
VERTEX
  8
0
  5
1E32
 10
9.05935
 20
2.68557
 30
0.000000
  70
    32
  0
VERTEX
  8
0
  5
1E33
 10
9.05944
 20
2.68557
 30
0.000000
  70
    32
  0
VERTEX
  8
0
  5
1E34
 10
9.05953
 20
2.68557
 30
0.000000
  70
    32
  0
VERTEX
  8
0
  5
1E35
 10
9.05962
 20
2.68557
 30
0.000000
  70
    32
  0
VERTEX
  8
0
  5
1E36
 10
9.05971
 20
2.68557
 30
0.000000
  70
    32
  0
VERTEX
  8
0
  5
1E37
 10
9.05980
 20
2.68557
 30
0.000000
  70
    32
  0
VERTEX
  8
0
  5
1E38
 10
9.05989
 20
2.68557
 30
0.000000
  70
    32
  0
VERTEX
  8
0
  5
1E39
 10
9.05998
 20
2.68557
 30
0.000000
  70
    32
  0
VERTEX
  8
0
  5
1E3A
 10
9.06007
 20
2.68557
 30
0.000000
  70
    32
  0
VERTEX
  8
0
  5
1E3B
 10
9.06015
 20
2.68557
 30
0.000000
  70
    32
  0
VERTEX
  8
0
  5
1E3C
 10
9.06024
 20
2.68557
 30
0.000000
  70
    32
  0
VERTEX
  8
0
  5
1E3D
 10
9.06032
 20
2.68557
 30
0.000000
  70
    32
  0
VERTEX
  8
0
  5
1E3E
 10
9.06041
 20
2.68557
 30
0.000000
  70
    32
  0
VERTEX
  8
0
  5
1E3F
 10
9.06049
 20
2.68557
 30
0.000000
  70
    32
  0
VERTEX
  8
0
  5
1E40
 10
9.06058
 20
2.68557
 30
0.000000
  70
    32
  0
VERTEX
  8
0
  5
1E41
 10
9.06066
 20
2.68557
 30
0.000000
  70
    32
  0
VERTEX
  8
0
  5
1E42
 10
9.06075
 20
2.68557
 30
0.000000
  70
    32
  0
VERTEX
  8
0
  5
1E43
 10
9.06083
 20
2.68557
 30
0.000000
  70
    32
  0
VERTEX
  8
0
  5
1E44
 10
9.06091
 20
2.68557
 30
0.000000
  70
    32
  0
SEQEND
  8
0
  5
1E45
  0
POLYLINE
  8
0
  5
1E46
  62
7
  66
     1
 10
0.000000
 20
0.000000
 30
0.000000
  70
     8
  0
VERTEX
  8
0
  5
1E47
 10
9.06133
 20
2.65126
 30
0.000000
  70
    32
  0
VERTEX
  8
0
  5
1E48
 10
9.06119
 20
2.65124
 30
0.000000
  70
    32
  0
VERTEX
  8
0
  5
1E49
 10
9.06104
 20
2.65122
 30
0.000000
  70
    32
  0
VERTEX
  8
0
  5
1E4A
 10
9.06090
 20
2.65120
 30
0.000000
  70
    32
  0
VERTEX
  8
0
  5
1E4B
 10
9.06075
 20
2.65118
 30
0.000000
  70
    32
  0
VERTEX
  8
0
  5
1E4C
 10
9.06061
 20
2.65116
 30
0.000000
  70
    32
  0
VERTEX
  8
0
  5
1E4D
 10
9.06047
 20
2.65114
 30
0.000000
  70
    32
  0
VERTEX
  8
0
  5
1E4E
 10
9.06032
 20
2.65112
 30
0.000000
  70
    32
  0
VERTEX
  8
0
  5
1E4F
 10
9.06018
 20
2.65110
 30
0.000000
  70
    32
  0
VERTEX
  8
0
  5
1E50
 10
9.06003
 20
2.65108
 30
0.000000
  70
    32
  0
VERTEX
  8
0
  5
1E51
 10
9.05988
 20
2.65106
 30
0.000000
  70
    32
  0
VERTEX
  8
0
  5
1E52
 10
9.05974
 20
2.65104
 30
0.000000
  70
    32
  0
VERTEX
  8
0
  5
1E53
 10
9.05959
 20
2.65102
 30
0.000000
  70
    32
  0
VERTEX
  8
0
  5
1E54
 10
9.05944
 20
2.65100
 30
0.000000
  70
    32
  0
VERTEX
  8
0
  5
1E55
 10
9.05930
 20
2.65098
 30
0.000000
  70
    32
  0
VERTEX
  8
0
  5
1E56
 10
9.05915
 20
2.65096
 30
0.000000
  70
    32
  0
VERTEX
  8
0
  5
1E57
 10
9.05900
 20
2.65094
 30
0.000000
  70
    32
  0
VERTEX
  8
0
  5
1E58
 10
9.05885
 20
2.65092
 30
0.000000
  70
    32
  0
VERTEX
  8
0
  5
1E59
 10
9.05870
 20
2.65089
 30
0.000000
  70
    32
  0
VERTEX
  8
0
  5
1E5A
 10
9.05855
 20
2.65087
 30
0.000000
  70
    32
  0
VERTEX
  8
0
  5
1E5B
 10
9.05840
 20
2.65085
 30
0.000000
  70
    32
  0
VERTEX
  8
0
  5
1E5C
 10
9.05824
 20
2.65083
 30
0.000000
  70
    32
  0
VERTEX
  8
0
  5
1E5D
 10
9.05809
 20
2.65081
 30
0.000000
  70
    32
  0
VERTEX
  8
0
  5
1E5E
 10
9.05794
 20
2.65079
 30
0.000000
  70
    32
  0
VERTEX
  8
0
  5
1E5F
 10
9.05778
 20
2.65077
 30
0.000000
  70
    32
  0
VERTEX
  8
0
  5
1E60
 10
9.05763
 20
2.65074
 30
0.000000
  70
    32
  0
VERTEX
  8
0
  5
1E61
 10
9.05747
 20
2.65072
 30
0.000000
  70
    32
  0
VERTEX
  8
0
  5
1E62
 10
9.05731
 20
2.65070
 30
0.000000
  70
    32
  0
VERTEX
  8
0
  5
1E63
 10
9.05715
 20
2.65068
 30
0.000000
  70
    32
  0
VERTEX
  8
0
  5
1E64
 10
9.05699
 20
2.65065
 30
0.000000
  70
    32
  0
VERTEX
  8
0
  5
1E65
 10
9.05683
 20
2.65063
 30
0.000000
  70
    32
  0
VERTEX
  8
0
  5
1E66
 10
9.05667
 20
2.65061
 30
0.000000
  70
    32
  0
VERTEX
  8
0
  5
1E67
 10
9.05650
 20
2.65059
 30
0.000000
  70
    32
  0
VERTEX
  8
0
  5
1E68
 10
9.05634
 20
2.65056
 30
0.000000
  70
    32
  0
VERTEX
  8
0
  5
1E69
 10
9.05617
 20
2.65054
 30
0.000000
  70
    32
  0
VERTEX
  8
0
  5
1E6A
 10
9.05600
 20
2.65052
 30
0.000000
  70
    32
  0
VERTEX
  8
0
  5
1E6B
 10
9.05583
 20
2.65049
 30
0.000000
  70
    32
  0
VERTEX
  8
0
  5
1E6C
 10
9.05566
 20
2.65047
 30
0.000000
  70
    32
  0
VERTEX
  8
0
  5
1E6D
 10
9.05549
 20
2.65044
 30
0.000000
  70
    32
  0
VERTEX
  8
0
  5
1E6E
 10
9.05532
 20
2.65042
 30
0.000000
  70
    32
  0
VERTEX
  8
0
  5
1E6F
 10
9.05514
 20
2.65039
 30
0.000000
  70
    32
  0
VERTEX
  8
0
  5
1E70
 10
9.05497
 20
2.65037
 30
0.000000
  70
    32
  0
VERTEX
  8
0
  5
1E71
 10
9.05479
 20
2.65034
 30
0.000000
  70
    32
  0
VERTEX
  8
0
  5
1E72
 10
9.05461
 20
2.65032
 30
0.000000
  70
    32
  0
VERTEX
  8
0
  5
1E73
 10
9.05442
 20
2.65029
 30
0.000000
  70
    32
  0
VERTEX
  8
0
  5
1E74
 10
9.05424
 20
2.65027
 30
0.000000
  70
    32
  0
VERTEX
  8
0
  5
1E75
 10
9.05406
 20
2.65024
 30
0.000000
  70
    32
  0
VERTEX
  8
0
  5
1E76
 10
9.05387
 20
2.65022
 30
0.000000
  70
    32
  0
VERTEX
  8
0
  5
1E77
 10
9.05368
 20
2.65019
 30
0.000000
  70
    32
  0
VERTEX
  8
0
  5
1E78
 10
9.05349
 20
2.65016
 30
0.000000
  70
    32
  0
VERTEX
  8
0
  5
1E79
 10
9.05329
 20
2.65014
 30
0.000000
  70
    32
  0
VERTEX
  8
0
  5
1E7A
 10
9.05310
 20
2.65011
 30
0.000000
  70
    32
  0
VERTEX
  8
0
  5
1E7B
 10
9.05290
 20
2.65008
 30
0.000000
  70
    32
  0
VERTEX
  8
0
  5
1E7C
 10
9.05270
 20
2.65005
 30
0.000000
  70
    32
  0
VERTEX
  8
0
  5
1E7D
 10
9.05250
 20
2.65002
 30
0.000000
  70
    32
  0
VERTEX
  8
0
  5
1E7E
 10
9.05230
 20
2.65000
 30
0.000000
  70
    32
  0
VERTEX
  8
0
  5
1E7F
 10
9.05210
 20
2.64997
 30
0.000000
  70
    32
  0
VERTEX
  8
0
  5
1E80
 10
9.05189
 20
2.64994
 30
0.000000
  70
    32
  0
VERTEX
  8
0
  5
1E81
 10
9.05168
 20
2.64991
 30
0.000000
  70
    32
  0
VERTEX
  8
0
  5
1E82
 10
9.05147
 20
2.64988
 30
0.000000
  70
    32
  0
VERTEX
  8
0
  5
1E83
 10
9.05126
 20
2.64985
 30
0.000000
  70
    32
  0
VERTEX
  8
0
  5
1E84
 10
9.05105
 20
2.64982
 30
0.000000
  70
    32
  0
VERTEX
  8
0
  5
1E85
 10
9.05083
 20
2.64979
 30
0.000000
  70
    32
  0
VERTEX
  8
0
  5
1E86
 10
9.05062
 20
2.64976
 30
0.000000
  70
    32
  0
VERTEX
  8
0
  5
1E87
 10
9.05040
 20
2.64973
 30
0.000000
  70
    32
  0
VERTEX
  8
0
  5
1E88
 10
9.05018
 20
2.64970
 30
0.000000
  70
    32
  0
VERTEX
  8
0
  5
1E89
 10
9.04996
 20
2.64967
 30
0.000000
  70
    32
  0
VERTEX
  8
0
  5
1E8A
 10
9.04973
 20
2.64963
 30
0.000000
  70
    32
  0
VERTEX
  8
0
  5
1E8B
 10
9.04951
 20
2.64960
 30
0.000000
  70
    32
  0
VERTEX
  8
0
  5
1E8C
 10
9.04928
 20
2.64957
 30
0.000000
  70
    32
  0
VERTEX
  8
0
  5
1E8D
 10
9.04905
 20
2.64954
 30
0.000000
  70
    32
  0
VERTEX
  8
0
  5
1E8E
 10
9.04882
 20
2.64951
 30
0.000000
  70
    32
  0
VERTEX
  8
0
  5
1E8F
 10
9.04859
 20
2.64947
 30
0.000000
  70
    32
  0
VERTEX
  8
0
  5
1E90
 10
9.04836
 20
2.64944
 30
0.000000
  70
    32
  0
VERTEX
  8
0
  5
1E91
 10
9.04812
 20
2.64941
 30
0.000000
  70
    32
  0
VERTEX
  8
0
  5
1E92
 10
9.04789
 20
2.64938
 30
0.000000
  70
    32
  0
VERTEX
  8
0
  5
1E93
 10
9.04765
 20
2.64934
 30
0.000000
  70
    32
  0
VERTEX
  8
0
  5
1E94
 10
9.04741
 20
2.64931
 30
0.000000
  70
    32
  0
VERTEX
  8
0
  5
1E95
 10
9.04717
 20
2.64927
 30
0.000000
  70
    32
  0
VERTEX
  8
0
  5
1E96
 10
9.04693
 20
2.64924
 30
0.000000
  70
    32
  0
VERTEX
  8
0
  5
1E97
 10
9.04668
 20
2.64921
 30
0.000000
  70
    32
  0
VERTEX
  8
0
  5
1E98
 10
9.04644
 20
2.64917
 30
0.000000
  70
    32
  0
VERTEX
  8
0
  5
1E99
 10
9.04619
 20
2.64914
 30
0.000000
  70
    32
  0
VERTEX
  8
0
  5
1E9A
 10
9.04594
 20
2.64910
 30
0.000000
  70
    32
  0
VERTEX
  8
0
  5
1E9B
 10
9.04570
 20
2.64907
 30
0.000000
  70
    32
  0
VERTEX
  8
0
  5
1E9C
 10
9.04544
 20
2.64903
 30
0.000000
  70
    32
  0
VERTEX
  8
0
  5
1E9D
 10
9.04519
 20
2.64900
 30
0.000000
  70
    32
  0
VERTEX
  8
0
  5
1E9E
 10
9.04494
 20
2.64896
 30
0.000000
  70
    32
  0
VERTEX
  8
0
  5
1E9F
 10
9.04468
 20
2.64893
 30
0.000000
  70
    32
  0
VERTEX
  8
0
  5
1EA0
 10
9.04443
 20
2.64889
 30
0.000000
  70
    32
  0
VERTEX
  8
0
  5
1EA1
 10
9.04417
 20
2.64885
 30
0.000000
  70
    32
  0
VERTEX
  8
0
  5
1EA2
 10
9.04391
 20
2.64882
 30
0.000000
  70
    32
  0
VERTEX
  8
0
  5
1EA3
 10
9.04365
 20
2.64878
 30
0.000000
  70
    32
  0
VERTEX
  8
0
  5
1EA4
 10
9.04339
 20
2.64874
 30
0.000000
  70
    32
  0
VERTEX
  8
0
  5
1EA5
 10
9.04313
 20
2.64871
 30
0.000000
  70
    32
  0
VERTEX
  8
0
  5
1EA6
 10
9.04287
 20
2.64867
 30
0.000000
  70
    32
  0
VERTEX
  8
0
  5
1EA7
 10
9.04260
 20
2.64863
 30
0.000000
  70
    32
  0
VERTEX
  8
0
  5
1EA8
 10
9.04234
 20
2.64859
 30
0.000000
  70
    32
  0
VERTEX
  8
0
  5
1EA9
 10
9.04207
 20
2.64856
 30
0.000000
  70
    32
  0
VERTEX
  8
0
  5
1EAA
 10
9.04180
 20
2.64852
 30
0.000000
  70
    32
  0
VERTEX
  8
0
  5
1EAB
 10
9.04153
 20
2.64848
 30
0.000000
  70
    32
  0
VERTEX
  8
0
  5
1EAC
 10
9.04126
 20
2.64844
 30
0.000000
  70
    32
  0
VERTEX
  8
0
  5
1EAD
 10
9.04099
 20
2.64841
 30
0.000000
  70
    32
  0
VERTEX
  8
0
  5
1EAE
 10
9.04072
 20
2.64837
 30
0.000000
  70
    32
  0
VERTEX
  8
0
  5
1EAF
 10
9.04044
 20
2.64833
 30
0.000000
  70
    32
  0
VERTEX
  8
0
  5
1EB0
 10
9.04017
 20
2.64829
 30
0.000000
  70
    32
  0
VERTEX
  8
0
  5
1EB1
 10
9.03989
 20
2.64825
 30
0.000000
  70
    32
  0
VERTEX
  8
0
  5
1EB2
 10
9.03961
 20
2.64821
 30
0.000000
  70
    32
  0
VERTEX
  8
0
  5
1EB3
 10
9.03934
 20
2.64817
 30
0.000000
  70
    32
  0
VERTEX
  8
0
  5
1EB4
 10
9.03906
 20
2.64813
 30
0.000000
  70
    32
  0
VERTEX
  8
0
  5
1EB5
 10
9.03878
 20
2.64809
 30
0.000000
  70
    32
  0
VERTEX
  8
0
  5
1EB6
 10
9.03850
 20
2.64806
 30
0.000000
  70
    32
  0
VERTEX
  8
0
  5
1EB7
 10
9.03821
 20
2.64802
 30
0.000000
  70
    32
  0
VERTEX
  8
0
  5
1EB8
 10
9.03793
 20
2.64798
 30
0.000000
  70
    32
  0
VERTEX
  8
0
  5
1EB9
 10
9.03765
 20
2.64794
 30
0.000000
  70
    32
  0
VERTEX
  8
0
  5
1EBA
 10
9.03736
 20
2.64790
 30
0.000000
  70
    32
  0
VERTEX
  8
0
  5
1EBB
 10
9.03708
 20
2.64786
 30
0.000000
  70
    32
  0
VERTEX
  8
0
  5
1EBC
 10
9.03679
 20
2.64782
 30
0.000000
  70
    32
  0
VERTEX
  8
0
  5
1EBD
 10
9.03650
 20
2.64778
 30
0.000000
  70
    32
  0
VERTEX
  8
0
  5
1EBE
 10
9.03621
 20
2.64773
 30
0.000000
  70
    32
  0
VERTEX
  8
0
  5
1EBF
 10
9.03592
 20
2.64769
 30
0.000000
  70
    32
  0
VERTEX
  8
0
  5
1EC0
 10
9.03563
 20
2.64765
 30
0.000000
  70
    32
  0
VERTEX
  8
0
  5
1EC1
 10
9.03534
 20
2.64761
 30
0.000000
  70
    32
  0
VERTEX
  8
0
  5
1EC2
 10
9.03505
 20
2.64757
 30
0.000000
  70
    32
  0
VERTEX
  8
0
  5
1EC3
 10
9.03476
 20
2.64753
 30
0.000000
  70
    32
  0
VERTEX
  8
0
  5
1EC4
 10
9.03447
 20
2.64749
 30
0.000000
  70
    32
  0
VERTEX
  8
0
  5
1EC5
 10
9.03417
 20
2.64745
 30
0.000000
  70
    32
  0
VERTEX
  8
0
  5
1EC6
 10
9.03388
 20
2.64741
 30
0.000000
  70
    32
  0
VERTEX
  8
0
  5
1EC7
 10
9.03358
 20
2.64736
 30
0.000000
  70
    32
  0
VERTEX
  8
0
  5
1EC8
 10
9.03328
 20
2.64732
 30
0.000000
  70
    32
  0
VERTEX
  8
0
  5
1EC9
 10
9.03298
 20
2.64728
 30
0.000000
  70
    32
  0
VERTEX
  8
0
  5
1ECA
 10
9.03269
 20
2.64724
 30
0.000000
  70
    32
  0
VERTEX
  8
0
  5
1ECB
 10
9.03239
 20
2.64720
 30
0.000000
  70
    32
  0
VERTEX
  8
0
  5
1ECC
 10
9.03209
 20
2.64715
 30
0.000000
  70
    32
  0
VERTEX
  8
0
  5
1ECD
 10
9.03178
 20
2.64711
 30
0.000000
  70
    32
  0
VERTEX
  8
0
  5
1ECE
 10
9.03148
 20
2.64707
 30
0.000000
  70
    32
  0
VERTEX
  8
0
  5
1ECF
 10
9.03118
 20
2.64703
 30
0.000000
  70
    32
  0
VERTEX
  8
0
  5
1ED0
 10
9.03088
 20
2.64698
 30
0.000000
  70
    32
  0
VERTEX
  8
0
  5
1ED1
 10
9.03057
 20
2.64694
 30
0.000000
  70
    32
  0
VERTEX
  8
0
  5
1ED2
 10
9.03027
 20
2.64690
 30
0.000000
  70
    32
  0
VERTEX
  8
0
  5
1ED3
 10
9.02996
 20
2.64686
 30
0.000000
  70
    32
  0
VERTEX
  8
0
  5
1ED4
 10
9.02966
 20
2.64681
 30
0.000000
  70
    32
  0
VERTEX
  8
0
  5
1ED5
 10
9.02935
 20
2.64677
 30
0.000000
  70
    32
  0
VERTEX
  8
0
  5
1ED6
 10
9.02904
 20
2.64673
 30
0.000000
  70
    32
  0
VERTEX
  8
0
  5
1ED7
 10
9.02873
 20
2.64668
 30
0.000000
  70
    32
  0
VERTEX
  8
0
  5
1ED8
 10
9.02842
 20
2.64664
 30
0.000000
  70
    32
  0
VERTEX
  8
0
  5
1ED9
 10
9.02811
 20
2.64660
 30
0.000000
  70
    32
  0
VERTEX
  8
0
  5
1EDA
 10
9.02780
 20
2.64655
 30
0.000000
  70
    32
  0
VERTEX
  8
0
  5
1EDB
 10
9.02749
 20
2.64651
 30
0.000000
  70
    32
  0
VERTEX
  8
0
  5
1EDC
 10
9.02718
 20
2.64646
 30
0.000000
  70
    32
  0
VERTEX
  8
0
  5
1EDD
 10
9.02686
 20
2.64642
 30
0.000000
  70
    32
  0
VERTEX
  8
0
  5
1EDE
 10
9.02655
 20
2.64638
 30
0.000000
  70
    32
  0
VERTEX
  8
0
  5
1EDF
 10
9.02624
 20
2.64633
 30
0.000000
  70
    32
  0
VERTEX
  8
0
  5
1EE0
 10
9.02592
 20
2.64629
 30
0.000000
  70
    32
  0
VERTEX
  8
0
  5
1EE1
 10
9.02561
 20
2.64624
 30
0.000000
  70
    32
  0
VERTEX
  8
0
  5
1EE2
 10
9.02529
 20
2.64620
 30
0.000000
  70
    32
  0
VERTEX
  8
0
  5
1EE3
 10
9.02497
 20
2.64615
 30
0.000000
  70
    32
  0
VERTEX
  8
0
  5
1EE4
 10
9.02466
 20
2.64611
 30
0.000000
  70
    32
  0
VERTEX
  8
0
  5
1EE5
 10
9.02434
 20
2.64607
 30
0.000000
  70
    32
  0
VERTEX
  8
0
  5
1EE6
 10
9.02402
 20
2.64602
 30
0.000000
  70
    32
  0
VERTEX
  8
0
  5
1EE7
 10
9.02370
 20
2.64598
 30
0.000000
  70
    32
  0
VERTEX
  8
0
  5
1EE8
 10
9.02338
 20
2.64593
 30
0.000000
  70
    32
  0
VERTEX
  8
0
  5
1EE9
 10
9.02306
 20
2.64589
 30
0.000000
  70
    32
  0
VERTEX
  8
0
  5
1EEA
 10
9.02274
 20
2.64584
 30
0.000000
  70
    32
  0
VERTEX
  8
0
  5
1EEB
 10
9.02242
 20
2.64580
 30
0.000000
  70
    32
  0
VERTEX
  8
0
  5
1EEC
 10
9.02209
 20
2.64575
 30
0.000000
  70
    32
  0
VERTEX
  8
0
  5
1EED
 10
9.02177
 20
2.64570
 30
0.000000
  70
    32
  0
VERTEX
  8
0
  5
1EEE
 10
9.02145
 20
2.64566
 30
0.000000
  70
    32
  0
VERTEX
  8
0
  5
1EEF
 10
9.02112
 20
2.64561
 30
0.000000
  70
    32
  0
VERTEX
  8
0
  5
1EF0
 10
9.02080
 20
2.64557
 30
0.000000
  70
    32
  0
VERTEX
  8
0
  5
1EF1
 10
9.02047
 20
2.64552
 30
0.000000
  70
    32
  0
VERTEX
  8
0
  5
1EF2
 10
9.02015
 20
2.64548
 30
0.000000
  70
    32
  0
VERTEX
  8
0
  5
1EF3
 10
9.01982
 20
2.64543
 30
0.000000
  70
    32
  0
VERTEX
  8
0
  5
1EF4
 10
9.01950
 20
2.64538
 30
0.000000
  70
    32
  0
VERTEX
  8
0
  5
1EF5
 10
9.01917
 20
2.64534
 30
0.000000
  70
    32
  0
VERTEX
  8
0
  5
1EF6
 10
9.01884
 20
2.64529
 30
0.000000
  70
    32
  0
VERTEX
  8
0
  5
1EF7
 10
9.01851
 20
2.64525
 30
0.000000
  70
    32
  0
VERTEX
  8
0
  5
1EF8
 10
9.01818
 20
2.64520
 30
0.000000
  70
    32
  0
VERTEX
  8
0
  5
1EF9
 10
9.01785
 20
2.64515
 30
0.000000
  70
    32
  0
VERTEX
  8
0
  5
1EFA
 10
9.01753
 20
2.64511
 30
0.000000
  70
    32
  0
VERTEX
  8
0
  5
1EFB
 10
9.01719
 20
2.64506
 30
0.000000
  70
    32
  0
VERTEX
  8
0
  5
1EFC
 10
9.01686
 20
2.64502
 30
0.000000
  70
    32
  0
VERTEX
  8
0
  5
1EFD
 10
9.01653
 20
2.64497
 30
0.000000
  70
    32
  0
VERTEX
  8
0
  5
1EFE
 10
9.01620
 20
2.64492
 30
0.000000
  70
    32
  0
VERTEX
  8
0
  5
1EFF
 10
9.01587
 20
2.64488
 30
0.000000
  70
    32
  0
VERTEX
  8
0
  5
1F00
 10
9.01554
 20
2.64483
 30
0.000000
  70
    32
  0
VERTEX
  8
0
  5
1F01
 10
9.01521
 20
2.64478
 30
0.000000
  70
    32
  0
VERTEX
  8
0
  5
1F02
 10
9.01487
 20
2.64474
 30
0.000000
  70
    32
  0
VERTEX
  8
0
  5
1F03
 10
9.01454
 20
2.64469
 30
0.000000
  70
    32
  0
VERTEX
  8
0
  5
1F04
 10
9.01421
 20
2.64464
 30
0.000000
  70
    32
  0
VERTEX
  8
0
  5
1F05
 10
9.01387
 20
2.64459
 30
0.000000
  70
    32
  0
VERTEX
  8
0
  5
1F06
 10
9.01354
 20
2.64455
 30
0.000000
  70
    32
  0
VERTEX
  8
0
  5
1F07
 10
9.01320
 20
2.64450
 30
0.000000
  70
    32
  0
VERTEX
  8
0
  5
1F08
 10
9.01287
 20
2.64445
 30
0.000000
  70
    32
  0
VERTEX
  8
0
  5
1F09
 10
9.01253
 20
2.64441
 30
0.000000
  70
    32
  0
VERTEX
  8
0
  5
1F0A
 10
9.01220
 20
2.64436
 30
0.000000
  70
    32
  0
VERTEX
  8
0
  5
1F0B
 10
9.01186
 20
2.64431
 30
0.000000
  70
    32
  0
VERTEX
  8
0
  5
1F0C
 10
9.01152
 20
2.64426
 30
0.000000
  70
    32
  0
VERTEX
  8
0
  5
1F0D
 10
9.01119
 20
2.64422
 30
0.000000
  70
    32
  0
VERTEX
  8
0
  5
1F0E
 10
9.01085
 20
2.64417
 30
0.000000
  70
    32
  0
VERTEX
  8
0
  5
1F0F
 10
9.01051
 20
2.64412
 30
0.000000
  70
    32
  0
VERTEX
  8
0
  5
1F10
 10
9.01018
 20
2.64408
 30
0.000000
  70
    32
  0
VERTEX
  8
0
  5
1F11
 10
9.00984
 20
2.64403
 30
0.000000
  70
    32
  0
VERTEX
  8
0
  5
1F12
 10
9.00950
 20
2.64398
 30
0.000000
  70
    32
  0
VERTEX
  8
0
  5
1F13
 10
9.00916
 20
2.64393
 30
0.000000
  70
    32
  0
VERTEX
  8
0
  5
1F14
 10
9.00882
 20
2.64389
 30
0.000000
  70
    32
  0
VERTEX
  8
0
  5
1F15
 10
9.00849
 20
2.64384
 30
0.000000
  70
    32
  0
VERTEX
  8
0
  5
1F16
 10
9.00815
 20
2.64379
 30
0.000000
  70
    32
  0
VERTEX
  8
0
  5
1F17
 10
9.00781
 20
2.64374
 30
0.000000
  70
    32
  0
VERTEX
  8
0
  5
1F18
 10
9.00747
 20
2.64369
 30
0.000000
  70
    32
  0
VERTEX
  8
0
  5
1F19
 10
9.00713
 20
2.64365
 30
0.000000
  70
    32
  0
VERTEX
  8
0
  5
1F1A
 10
9.00679
 20
2.64360
 30
0.000000
  70
    32
  0
VERTEX
  8
0
  5
1F1B
 10
9.00645
 20
2.64355
 30
0.000000
  70
    32
  0
VERTEX
  8
0
  5
1F1C
 10
9.00611
 20
2.64350
 30
0.000000
  70
    32
  0
VERTEX
  8
0
  5
1F1D
 10
9.00577
 20
2.64346
 30
0.000000
  70
    32
  0
VERTEX
  8
0
  5
1F1E
 10
9.00543
 20
2.64341
 30
0.000000
  70
    32
  0
VERTEX
  8
0
  5
1F1F
 10
9.00509
 20
2.64336
 30
0.000000
  70
    32
  0
VERTEX
  8
0
  5
1F20
 10
9.00475
 20
2.64331
 30
0.000000
  70
    32
  0
VERTEX
  8
0
  5
1F21
 10
9.00441
 20
2.64327
 30
0.000000
  70
    32
  0
VERTEX
  8
0
  5
1F22
 10
9.00407
 20
2.64322
 30
0.000000
  70
    32
  0
VERTEX
  8
0
  5
1F23
 10
9.00373
 20
2.64317
 30
0.000000
  70
    32
  0
VERTEX
  8
0
  5
1F24
 10
9.00339
 20
2.64312
 30
0.000000
  70
    32
  0
VERTEX
  8
0
  5
1F25
 10
9.00305
 20
2.64307
 30
0.000000
  70
    32
  0
VERTEX
  8
0
  5
1F26
 10
9.00271
 20
2.64303
 30
0.000000
  70
    32
  0
SEQEND
  8
0
  5
1F27
  0
ARC
  5
12A7
  8
0
  6
CONTINUOUS
 62
     7
 10
8.9404559167999995
 20
3.0592500833999989
 30
0.0
 40
0.0100000000000002
 50
187.7966808333
 51
270.0
  0
LINE
  5
12A8
  8
0
  6
CONTINUOUS
 62
     7
 10
8.9404559167999995
 20
3.0492500833999991
 30
0.0
 11
8.9645042348999997
 21
3.0492500833999991
 31
0.0
  0
LINE
  5
12A9
  8
0
  6
CONTINUOUS
 62
     7
 10
8.9697804172000009
 20
2.7469778030000001
 30
0.0
 11
8.9645042348999997
 21
3.0492500833999991
 31
0.0
  0
LINE
  5
12AA
  8
0
  6
CONTINUOUS
 62
     7
 10
8.9442727340000001
 20
2.6369469184000001
 30
0.0
 11
8.9594558427000006
 21
2.6369469184000001
 31
0.0
  0
ARC
  5
12AB
  8
0
  6
CONTINUOUS
 62
     7
 10
8.9442727340000001
 20
2.6994469183999992
 30
0.0
 40
0.0624999999999997
 50
269.74919628740003
 51
270.0
  0
ARC
  5
12AC
  8
0
  6
CONTINUOUS
 62
     7
 10
8.9440319804000001
 20
2.6444474452999991
 30
0.0
 40
0.0075000000000002
 50
181.0
 51
269.74919628740003
  0
LINE
  5
12AD
  8
0
  6
CONTINUOUS
 62
     7
 10
8.9298345450000003
 20
3.0280778114999989
 30
0.0
 11
8.9365331227000002
 21
2.644316552299999
 31
0.0
  0
ARC
  5
12AE
  8
0
  6
CONTINUOUS
 62
     7
 10
8.9223356873000004
 20
3.0279469183999992
 30
0.0
 40
0.0074999999999996
 50
1.0
 51
90.0
  0
LINE
  5
12AF
  8
0
  6
CONTINUOUS
 62
     7
 10
8.9223356873000004
 20
3.035446918399999
 30
0.0
 11
8.5865761463000005
 21
3.035446918399999
 31
0.0
  0
ARC
  5
12B0
  8
0
  6
CONTINUOUS
 62
     7
 10
8.5865761463000005
 20
3.0279469183999992
 30
0.0
 40
0.0075000000000014
 50
90.0
 51
179.0
  0
LINE
  5
12B1
  8
0
  6
CONTINUOUS
 62
     7
 10
8.5723787109000007
 20
2.644316552299999
 30
0.0
 11
8.5790772885000006
 21
3.0280778114999989
 31
0.0
  0
ARC
  5
12B2
  8
0
  6
CONTINUOUS
 62
     7
 10
8.5648798530999972
 20
2.6444474452999991
 30
0.0
 40
0.0075000000000002
 50
270.25080371259997
 51
359.0
  0
ARC
  5
12B3
  8
0
  6
CONTINUOUS
 62
     7
 10
8.5646390996000008
 20
2.6994469183999992
 30
0.0
 40
0.0624999999999997
 50
270.0
 51
270.25080371259997
  0
LINE
  5
12B4
  8
0
  6
CONTINUOUS
 62
     7
 10
8.5494559909000003
 20
2.6369469184000001
 30
0.0
 11
8.5646390996000008
 21
2.6369469184000001
 31
0.0
  0
LINE
  5
12B5
  8
0
  6
CONTINUOUS
 62
     7
 10
8.5444075986999994
 20
3.0492500833999991
 30
0.0
 11
8.5391314164000001
 21
2.7469778030000001
 31
0.0
  0
LINE
  5
12B6
  8
0
  6
CONTINUOUS
 62
     7
 10
8.5444075986999994
 20
3.0492500833999991
 30
0.0
 11
8.5684559167999996
 21
3.0492500833999991
 31
0.0
  0
ARC
  5
12B7
  8
0
  6
CONTINUOUS
 62
     7
 10
8.5684559167999996
 20
3.0592500833999989
 30
0.0
 40
0.0100000000000012
 50
270.0
 51
352.2033191667
  0
LINE
  5
12B8
  8
0
  6
CONTINUOUS
 62
     7
 10
8.5783634737999996
 20
3.0578935016000002
 30
0.0
 11
8.5819540544000006
 21
3.0841166773999991
 31
0.0
  0
LINE
  5
12B9
  8
0
  6
CONTINUOUS
 62
     7
 10
8.6631418608999997
 20
3.0841166773999991
 30
0.0
 11
8.5819540544000006
 21
3.0841166773999991
 31
0.0
  0
LINE
  5
12BA
  8
0
  6
CONTINUOUS
 62
     7
 10
8.6632059167999991
 20
3.080446918399999
 30
0.0
 11
8.6631418608999997
 21
3.0841166773999991
 31
0.0
  0
LINE
  5
12BB
  8
0
  6
CONTINUOUS
 62
     7
 10
8.8457059168000001
 20
3.080446918399999
 30
0.0
 11
8.6632059167999991
 21
3.080446918399999
 31
0.0
  0
LINE
  5
12BC
  8
0
  6
CONTINUOUS
 62
     7
 10
8.8457699726999994
 20
3.0841166773999991
 30
0.0
 11
8.8457059168000001
 21
3.080446918399999
 31
0.0
  0
LINE
  5
12BD
  8
0
  6
CONTINUOUS
 62
     7
 10
8.9269577791000003
 20
3.0841166773999991
 30
0.0
 11
8.8457699726999994
 21
3.0841166773999991
 31
0.0
  0
LINE
  5
12BE
  8
0
  6
CONTINUOUS
 62
     7
 10
8.9269577791000003
 20
3.0841166773999991
 30
0.0
 11
8.9305483597999995
 21
3.0578935016000002
 31
0.0
  0
ARC
  5
12BF
  8
0
  6
CONTINUOUS
 62
     7
 10
9.0322708981000002
 20
2.748068578399999
 30
0.0
 40
0.0624999999999991
 50
181.0
 51
241.1360518518
  0
ARC
  5
12C0
  8
0
  6
CONTINUOUS
 62
     7
 10
8.4766409353999972
 20
2.748068578399999
 30
0.0
 40
0.0625000000000008
 50
298.8639481482
 51
359.0
  0
LINE
  5
12C1
  8
0
  6
CONTINUOUS
 62
     7
 10
8.9594558427000006
 20
2.6369469184000001
 30
0.0
 11
9.0027150379999998
 21
2.6430265982000001
 31
0.0
  0
LINE
  5
12C2
  8
0
  6
CONTINUOUS
 62
     7
 10
8.5061967955999993
 20
2.6430265982000001
 30
0.0
 11
8.5494559909000003
 21
2.6369469184000001
 31
0.0
  0
LINE
  5
12C3
  8
0
  6
CONTINUOUS
 62
     7
 10
8.5829743761999993
 20
3.0915684183999992
 30
0.0
 11
8.5996245363000003
 21
3.1055395616000001
 31
0.0
  0
LINE
  5
12C5
  8
0
  6
CONTINUOUS
 62
     7
 10
8.6626108274999982
 20
3.1145395616
 30
0.0
 11
8.6631418608999997
 21
3.0841166773999991
 31
0.0
  0
LINE
  5
12C6
  8
0
  6
CONTINUOUS
 62
     7
 10
8.5819540544000006
 20
3.0841166773999991
 30
0.0
 11
8.5829743761999993
 21
3.0915684183999992
 31
0.0
  0
LINE
  5
12C8
  8
0
  6
CONTINUOUS
 62
     7
 10
8.9092872973000006
 20
3.1055395616000001
 30
0.0
 11
8.9259374573999999
 21
3.0915684183999992
 31
0.0
  0
LINE
  5
12C9
  8
0
  6
CONTINUOUS
 62
     7
 10
8.8457699726999994
 20
3.0841166773999991
 30
0.0
 11
8.8463010060999991
 21
3.1145395616
 31
0.0
  0
LINE
  5
12CA
  8
0
  6
CONTINUOUS
 62
     7
 10
8.9259374573999999
 20
3.0915684183999992
 30
0.0
 11
8.9269577791000003
 21
3.0841166773999991
 31
0.0
  0
LINE
  5
12CB
  8
0
  6
CONTINUOUS
 62
     7
 10
8.4207245538999995
 20
2.685568578399999
 30
0.0
 11
8.4479949069999982
 21
2.685568578399999
 31
0.0
  0
LINE
  5
12CC
  8
0
  6
CONTINUOUS
 62
     7
 10
8.4475756461000007
 20
2.6512652586000001
 30
0.0
 11
8.4201929609999997
 21
2.655113641799999
 31
0.0
  0
LINE
  5
12CD
  8
0
  6
CONTINUOUS
 62
     7
 10
9.0609169265999991
 20
2.685568578399999
 30
0.0
 11
9.0881872796999996
 21
2.685568578399999
 31
0.0
  0
LINE
  5
12CE
  8
0
  6
CONTINUOUS
 62
     7
 10
9.0887188725999994
 20
2.655113641799999
 30
0.0
 11
9.0613361875000002
 21
2.6512652586000001
 31
0.0
  0
LINE
  5
12CF
  8
0
  6
CONTINUOUS
 62
     7
 10
8.8803171005999992
 20
3.1115684183999992
 30
0.0
 11
8.9021023854999992
 21
3.1115684183999992
 31
0.0
  0
LINE
  5
12D0
  8
0
  6
CONTINUOUS
 62
     7
 10
8.9021023854999992
 20
3.1115684183999992
 30
0.0
 11
8.9092872973000006
 21
3.1055395616000001
 31
0.0
  0
LINE
  5
12D1
  8
0
  6
CONTINUOUS
 62
     7
 10
8.6068094480999981
 20
3.1115684183999992
 30
0.0
 11
8.6285947329999981
 21
3.1115684183999992
 31
0.0
  0
LINE
  5
12D2
  8
0
  6
CONTINUOUS
 62
     7
 10
8.5996245363000003
 20
3.1055395616000001
 30
0.0
 11
8.6068094480999981
 21
3.1115684183999992
 31
0.0
  0
LINE
  5
12D3
  8
0
  6
CONTINUOUS
 62
     7
 10
8.6389480485999997
 20
3.1205684183999991
 30
0.0
 11
8.6625055934000006
 21
3.1205684183999991
 31
0.0
  0
LINE
  5
12D4
  8
0
  6
CONTINUOUS
 62
     7
 10
8.6285947329999981
 20
3.1115684183999992
 30
0.0
 11
8.6389480485999997
 21
3.1205684183999991
 31
0.0
  0
LINE
  5
12D5
  8
0
  6
CONTINUOUS
 62
     7
 10
8.6625055934000006
 20
3.1205684183999991
 30
0.0
 11
8.6626108274999982
 21
3.1145395616
 31
0.0
  0
LINE
  5
12D6
  8
0
  6
CONTINUOUS
 62
     7
 10
8.8464062402000003
 20
3.1205684183999991
 30
0.0
 11
8.8699637848999995
 21
3.1205684183999991
 31
0.0
  0
LINE
  5
12D7
  8
0
  6
CONTINUOUS
 62
     7
 10
8.8699637848999995
 20
3.1205684183999991
 30
0.0
 11
8.8803171005999992
 21
3.1115684183999992
 31
0.0
  0
LINE
  5
12D8
  8
0
  6
CONTINUOUS
 62
     7
 10
8.8463010060999991
 20
3.1145395616
 30
0.0
 11
8.8464062402000003
 21
3.1205684183999991
 31
0.0
  0
LINE
  5
12D9
  8
0
  6
CONTINUOUS
 62
     7
 10
9.0919559167999981
 20
2.685568578399999
 30
0.0
 11
9.0924782873000005
 21
2.6556419927000001
 31
0.0
  0
LINE
  5
12DA
  8
0
  6
CONTINUOUS
 62
     7
 10
9.0881872796999996
 20
2.685568578399999
 30
0.0
 11
9.0919559167999981
 21
2.685568578399999
 31
0.0
  0
LINE
  5
12DB
  8
0
  6
CONTINUOUS
 62
     7
 10
9.0924782873000005
 20
2.6556419927000001
 30
0.0
 11
9.0887188725999994
 21
2.655113641799999
 31
0.0
  0
LINE
  5
12DC
  8
0
  6
CONTINUOUS
 62
     7
 10
8.4164335463000004
 20
2.6556419927000001
 30
0.0
 11
8.4169559167999992
 21
2.685568578399999
 31
0.0
  0
LINE
  5
12DD
  8
0
  6
CONTINUOUS
 62
     7
 10
8.4169559167999992
 20
2.685568578399999
 30
0.0
 11
8.4207245538999995
 21
2.685568578399999
 31
0.0
  0
LINE
  5
12DE
  8
0
  6
CONTINUOUS
 62
     7
 10
8.4201929609999997
 20
2.655113641799999
 30
0.0
 11
8.4164335463000004
 21
2.6556419927000001
 31
0.0
  0
POLYLINE
  8
0
  5
1F28
  62
7
  66
     1
 10
0.000000
 20
0.000000
 30
0.000000
  70
     8
  0
VERTEX
  8
0
  5
1F29
 10
8.62128
 20
2.67303
 30
0.000000
  70
    32
  0
VERTEX
  8
0
  5
1F2A
 10
8.62101
 20
2.67256
 30
0.000000
  70
    32
  0
VERTEX
  8
0
  5
1F2B
 10
8.62073
 20
2.67209
 30
0.000000
  70
    32
  0
VERTEX
  8
0
  5
1F2C
 10
8.62045
 20
2.67163
 30
0.000000
  70
    32
  0
VERTEX
  8
0
  5
1F2D
 10
8.62018
 20
2.67116
 30
0.000000
  70
    32
  0
VERTEX
  8
0
  5
1F2E
 10
8.61990
 20
2.67069
 30
0.000000
  70
    32
  0
VERTEX
  8
0
  5
1F2F
 10
8.61962
 20
2.67022
 30
0.000000
  70
    32
  0
VERTEX
  8
0
  5
1F30
 10
8.61935
 20
2.66976
 30
0.000000
  70
    32
  0
VERTEX
  8
0
  5
1F31
 10
8.61907
 20
2.66929
 30
0.000000
  70
    32
  0
VERTEX
  8
0
  5
1F32
 10
8.61879
 20
2.66883
 30
0.000000
  70
    32
  0
VERTEX
  8
0
  5
1F33
 10
8.61851
 20
2.66837
 30
0.000000
  70
    32
  0
VERTEX
  8
0
  5
1F34
 10
8.61823
 20
2.66790
 30
0.000000
  70
    32
  0
VERTEX
  8
0
  5
1F35
 10
8.61795
 20
2.66745
 30
0.000000
  70
    32
  0
VERTEX
  8
0
  5
1F36
 10
8.61767
 20
2.66699
 30
0.000000
  70
    32
  0
VERTEX
  8
0
  5
1F37
 10
8.61739
 20
2.66653
 30
0.000000
  70
    32
  0
VERTEX
  8
0
  5
1F38
 10
8.61711
 20
2.66608
 30
0.000000
  70
    32
  0
VERTEX
  8
0
  5
1F39
 10
8.61682
 20
2.66563
 30
0.000000
  70
    32
  0
VERTEX
  8
0
  5
1F3A
 10
8.61654
 20
2.66518
 30
0.000000
  70
    32
  0
VERTEX
  8
0
  5
1F3B
 10
8.61625
 20
2.66474
 30
0.000000
  70
    32
  0
VERTEX
  8
0
  5
1F3C
 10
8.61597
 20
2.66429
 30
0.000000
  70
    32
  0
VERTEX
  8
0
  5
1F3D
 10
8.61568
 20
2.66385
 30
0.000000
  70
    32
  0
VERTEX
  8
0
  5
1F3E
 10
8.61539
 20
2.66342
 30
0.000000
  70
    32
  0
VERTEX
  8
0
  5
1F3F
 10
8.61510
 20
2.66298
 30
0.000000
  70
    32
  0
VERTEX
  8
0
  5
1F40
 10
8.61481
 20
2.66255
 30
0.000000
  70
    32
  0
VERTEX
  8
0
  5
1F41
 10
8.61452
 20
2.66213
 30
0.000000
  70
    32
  0
VERTEX
  8
0
  5
1F42
 10
8.61422
 20
2.66171
 30
0.000000
  70
    32
  0
VERTEX
  8
0
  5
1F43
 10
8.61393
 20
2.66129
 30
0.000000
  70
    32
  0
VERTEX
  8
0
  5
1F44
 10
8.61363
 20
2.66087
 30
0.000000
  70
    32
  0
VERTEX
  8
0
  5
1F45
 10
8.61333
 20
2.66046
 30
0.000000
  70
    32
  0
VERTEX
  8
0
  5
1F46
 10
8.61303
 20
2.66006
 30
0.000000
  70
    32
  0
VERTEX
  8
0
  5
1F47
 10
8.61273
 20
2.65966
 30
0.000000
  70
    32
  0
VERTEX
  8
0
  5
1F48
 10
8.61242
 20
2.65926
 30
0.000000
  70
    32
  0
VERTEX
  8
0
  5
1F49
 10
8.61212
 20
2.65887
 30
0.000000
  70
    32
  0
VERTEX
  8
0
  5
1F4A
 10
8.61181
 20
2.65848
 30
0.000000
  70
    32
  0
VERTEX
  8
0
  5
1F4B
 10
8.61150
 20
2.65810
 30
0.000000
  70
    32
  0
VERTEX
  8
0
  5
1F4C
 10
8.61119
 20
2.65772
 30
0.000000
  70
    32
  0
VERTEX
  8
0
  5
1F4D
 10
8.61087
 20
2.65735
 30
0.000000
  70
    32
  0
VERTEX
  8
0
  5
1F4E
 10
8.61055
 20
2.65699
 30
0.000000
  70
    32
  0
VERTEX
  8
0
  5
1F4F
 10
8.61024
 20
2.65663
 30
0.000000
  70
    32
  0
VERTEX
  8
0
  5
1F50
 10
8.60992
 20
2.65627
 30
0.000000
  70
    32
  0
VERTEX
  8
0
  5
1F51
 10
8.60959
 20
2.65592
 30
0.000000
  70
    32
  0
VERTEX
  8
0
  5
1F52
 10
8.60927
 20
2.65557
 30
0.000000
  70
    32
  0
VERTEX
  8
0
  5
1F53
 10
8.60895
 20
2.65523
 30
0.000000
  70
    32
  0
VERTEX
  8
0
  5
1F54
 10
8.60862
 20
2.65490
 30
0.000000
  70
    32
  0
VERTEX
  8
0
  5
1F55
 10
8.60829
 20
2.65457
 30
0.000000
  70
    32
  0
VERTEX
  8
0
  5
1F56
 10
8.60796
 20
2.65424
 30
0.000000
  70
    32
  0
VERTEX
  8
0
  5
1F57
 10
8.60763
 20
2.65392
 30
0.000000
  70
    32
  0
VERTEX
  8
0
  5
1F58
 10
8.60730
 20
2.65361
 30
0.000000
  70
    32
  0
VERTEX
  8
0
  5
1F59
 10
8.60697
 20
2.65330
 30
0.000000
  70
    32
  0
VERTEX
  8
0
  5
1F5A
 10
8.60663
 20
2.65299
 30
0.000000
  70
    32
  0
VERTEX
  8
0
  5
1F5B
 10
8.60630
 20
2.65269
 30
0.000000
  70
    32
  0
VERTEX
  8
0
  5
1F5C
 10
8.60596
 20
2.65239
 30
0.000000
  70
    32
  0
VERTEX
  8
0
  5
1F5D
 10
8.60563
 20
2.65210
 30
0.000000
  70
    32
  0
VERTEX
  8
0
  5
1F5E
 10
8.60529
 20
2.65181
 30
0.000000
  70
    32
  0
VERTEX
  8
0
  5
1F5F
 10
8.60495
 20
2.65153
 30
0.000000
  70
    32
  0
VERTEX
  8
0
  5
1F60
 10
8.60461
 20
2.65125
 30
0.000000
  70
    32
  0
VERTEX
  8
0
  5
1F61
 10
8.60427
 20
2.65097
 30
0.000000
  70
    32
  0
VERTEX
  8
0
  5
1F62
 10
8.60393
 20
2.65070
 30
0.000000
  70
    32
  0
VERTEX
  8
0
  5
1F63
 10
8.60359
 20
2.65043
 30
0.000000
  70
    32
  0
VERTEX
  8
0
  5
1F64
 10
8.60325
 20
2.65017
 30
0.000000
  70
    32
  0
VERTEX
  8
0
  5
1F65
 10
8.60291
 20
2.64991
 30
0.000000
  70
    32
  0
VERTEX
  8
0
  5
1F66
 10
8.60257
 20
2.64966
 30
0.000000
  70
    32
  0
VERTEX
  8
0
  5
1F67
 10
8.60223
 20
2.64941
 30
0.000000
  70
    32
  0
VERTEX
  8
0
  5
1F68
 10
8.60189
 20
2.64916
 30
0.000000
  70
    32
  0
VERTEX
  8
0
  5
1F69
 10
8.60155
 20
2.64892
 30
0.000000
  70
    32
  0
VERTEX
  8
0
  5
1F6A
 10
8.60121
 20
2.64868
 30
0.000000
  70
    32
  0
VERTEX
  8
0
  5
1F6B
 10
8.60087
 20
2.64844
 30
0.000000
  70
    32
  0
VERTEX
  8
0
  5
1F6C
 10
8.60053
 20
2.64821
 30
0.000000
  70
    32
  0
VERTEX
  8
0
  5
1F6D
 10
8.60019
 20
2.64798
 30
0.000000
  70
    32
  0
VERTEX
  8
0
  5
1F6E
 10
8.59985
 20
2.64775
 30
0.000000
  70
    32
  0
VERTEX
  8
0
  5
1F6F
 10
8.59951
 20
2.64753
 30
0.000000
  70
    32
  0
VERTEX
  8
0
  5
1F70
 10
8.59917
 20
2.64732
 30
0.000000
  70
    32
  0
VERTEX
  8
0
  5
1F71
 10
8.59884
 20
2.64710
 30
0.000000
  70
    32
  0
VERTEX
  8
0
  5
1F72
 10
8.59850
 20
2.64689
 30
0.000000
  70
    32
  0
VERTEX
  8
0
  5
1F73
 10
8.59816
 20
2.64668
 30
0.000000
  70
    32
  0
VERTEX
  8
0
  5
1F74
 10
8.59783
 20
2.64648
 30
0.000000
  70
    32
  0
VERTEX
  8
0
  5
1F75
 10
8.59750
 20
2.64628
 30
0.000000
  70
    32
  0
VERTEX
  8
0
  5
1F76
 10
8.59716
 20
2.64608
 30
0.000000
  70
    32
  0
VERTEX
  8
0
  5
1F77
 10
8.59683
 20
2.64588
 30
0.000000
  70
    32
  0
VERTEX
  8
0
  5
1F78
 10
8.59650
 20
2.64569
 30
0.000000
  70
    32
  0
VERTEX
  8
0
  5
1F79
 10
8.59617
 20
2.64550
 30
0.000000
  70
    32
  0
VERTEX
  8
0
  5
1F7A
 10
8.59584
 20
2.64531
 30
0.000000
  70
    32
  0
VERTEX
  8
0
  5
1F7B
 10
8.59552
 20
2.64513
 30
0.000000
  70
    32
  0
VERTEX
  8
0
  5
1F7C
 10
8.59519
 20
2.64495
 30
0.000000
  70
    32
  0
VERTEX
  8
0
  5
1F7D
 10
8.59487
 20
2.64477
 30
0.000000
  70
    32
  0
VERTEX
  8
0
  5
1F7E
 10
8.59454
 20
2.64460
 30
0.000000
  70
    32
  0
VERTEX
  8
0
  5
1F7F
 10
8.59422
 20
2.64443
 30
0.000000
  70
    32
  0
VERTEX
  8
0
  5
1F80
 10
8.59390
 20
2.64426
 30
0.000000
  70
    32
  0
VERTEX
  8
0
  5
1F81
 10
8.59358
 20
2.64409
 30
0.000000
  70
    32
  0
VERTEX
  8
0
  5
1F82
 10
8.59326
 20
2.64393
 30
0.000000
  70
    32
  0
VERTEX
  8
0
  5
1F83
 10
8.59295
 20
2.64377
 30
0.000000
  70
    32
  0
VERTEX
  8
0
  5
1F84
 10
8.59263
 20
2.64361
 30
0.000000
  70
    32
  0
VERTEX
  8
0
  5
1F85
 10
8.59232
 20
2.64345
 30
0.000000
  70
    32
  0
VERTEX
  8
0
  5
1F86
 10
8.59200
 20
2.64330
 30
0.000000
  70
    32
  0
VERTEX
  8
0
  5
1F87
 10
8.59169
 20
2.64315
 30
0.000000
  70
    32
  0
VERTEX
  8
0
  5
1F88
 10
8.59138
 20
2.64300
 30
0.000000
  70
    32
  0
VERTEX
  8
0
  5
1F89
 10
8.59107
 20
2.64286
 30
0.000000
  70
    32
  0
VERTEX
  8
0
  5
1F8A
 10
8.59077
 20
2.64272
 30
0.000000
  70
    32
  0
VERTEX
  8
0
  5
1F8B
 10
8.59046
 20
2.64258
 30
0.000000
  70
    32
  0
VERTEX
  8
0
  5
1F8C
 10
8.59015
 20
2.64244
 30
0.000000
  70
    32
  0
VERTEX
  8
0
  5
1F8D
 10
8.58985
 20
2.64230
 30
0.000000
  70
    32
  0
VERTEX
  8
0
  5
1F8E
 10
8.58955
 20
2.64217
 30
0.000000
  70
    32
  0
VERTEX
  8
0
  5
1F8F
 10
8.58925
 20
2.64204
 30
0.000000
  70
    32
  0
VERTEX
  8
0
  5
1F90
 10
8.58895
 20
2.64191
 30
0.000000
  70
    32
  0
VERTEX
  8
0
  5
1F91
 10
8.58865
 20
2.64179
 30
0.000000
  70
    32
  0
VERTEX
  8
0
  5
1F92
 10
8.58835
 20
2.64167
 30
0.000000
  70
    32
  0
VERTEX
  8
0
  5
1F93
 10
8.58806
 20
2.64155
 30
0.000000
  70
    32
  0
VERTEX
  8
0
  5
1F94
 10
8.58777
 20
2.64143
 30
0.000000
  70
    32
  0
VERTEX
  8
0
  5
1F95
 10
8.58747
 20
2.64131
 30
0.000000
  70
    32
  0
VERTEX
  8
0
  5
1F96
 10
8.58718
 20
2.64120
 30
0.000000
  70
    32
  0
VERTEX
  8
0
  5
1F97
 10
8.58689
 20
2.64109
 30
0.000000
  70
    32
  0
VERTEX
  8
0
  5
1F98
 10
8.58661
 20
2.64098
 30
0.000000
  70
    32
  0
VERTEX
  8
0
  5
1F99
 10
8.58632
 20
2.64087
 30
0.000000
  70
    32
  0
VERTEX
  8
0
  5
1F9A
 10
8.58604
 20
2.64076
 30
0.000000
  70
    32
  0
VERTEX
  8
0
  5
1F9B
 10
8.58575
 20
2.64066
 30
0.000000
  70
    32
  0
VERTEX
  8
0
  5
1F9C
 10
8.58547
 20
2.64056
 30
0.000000
  70
    32
  0
VERTEX
  8
0
  5
1F9D
 10
8.58519
 20
2.64046
 30
0.000000
  70
    32
  0
VERTEX
  8
0
  5
1F9E
 10
8.58491
 20
2.64036
 30
0.000000
  70
    32
  0
VERTEX
  8
0
  5
1F9F
 10
8.58464
 20
2.64027
 30
0.000000
  70
    32
  0
VERTEX
  8
0
  5
1FA0
 10
8.58436
 20
2.64017
 30
0.000000
  70
    32
  0
VERTEX
  8
0
  5
1FA1
 10
8.58409
 20
2.64008
 30
0.000000
  70
    32
  0
VERTEX
  8
0
  5
1FA2
 10
8.58382
 20
2.63999
 30
0.000000
  70
    32
  0
VERTEX
  8
0
  5
1FA3
 10
8.58354
 20
2.63991
 30
0.000000
  70
    32
  0
VERTEX
  8
0
  5
1FA4
 10
8.58328
 20
2.63982
 30
0.000000
  70
    32
  0
VERTEX
  8
0
  5
1FA5
 10
8.58301
 20
2.63974
 30
0.000000
  70
    32
  0
VERTEX
  8
0
  5
1FA6
 10
8.58274
 20
2.63965
 30
0.000000
  70
    32
  0
VERTEX
  8
0
  5
1FA7
 10
8.58248
 20
2.63957
 30
0.000000
  70
    32
  0
VERTEX
  8
0
  5
1FA8
 10
8.58222
 20
2.63950
 30
0.000000
  70
    32
  0
VERTEX
  8
0
  5
1FA9
 10
8.58196
 20
2.63942
 30
0.000000
  70
    32
  0
VERTEX
  8
0
  5
1FAA
 10
8.58170
 20
2.63934
 30
0.000000
  70
    32
  0
VERTEX
  8
0
  5
1FAB
 10
8.58144
 20
2.63927
 30
0.000000
  70
    32
  0
VERTEX
  8
0
  5
1FAC
 10
8.58119
 20
2.63920
 30
0.000000
  70
    32
  0
VERTEX
  8
0
  5
1FAD
 10
8.58093
 20
2.63913
 30
0.000000
  70
    32
  0
VERTEX
  8
0
  5
1FAE
 10
8.58068
 20
2.63906
 30
0.000000
  70
    32
  0
VERTEX
  8
0
  5
1FAF
 10
8.58043
 20
2.63899
 30
0.000000
  70
    32
  0
VERTEX
  8
0
  5
1FB0
 10
8.58018
 20
2.63892
 30
0.000000
  70
    32
  0
VERTEX
  8
0
  5
1FB1
 10
8.57993
 20
2.63886
 30
0.000000
  70
    32
  0
VERTEX
  8
0
  5
1FB2
 10
8.57969
 20
2.63880
 30
0.000000
  70
    32
  0
VERTEX
  8
0
  5
1FB3
 10
8.57945
 20
2.63874
 30
0.000000
  70
    32
  0
VERTEX
  8
0
  5
1FB4
 10
8.57921
 20
2.63868
 30
0.000000
  70
    32
  0
VERTEX
  8
0
  5
1FB5
 10
8.57897
 20
2.63862
 30
0.000000
  70
    32
  0
VERTEX
  8
0
  5
1FB6
 10
8.57873
 20
2.63856
 30
0.000000
  70
    32
  0
VERTEX
  8
0
  5
1FB7
 10
8.57849
 20
2.63850
 30
0.000000
  70
    32
  0
VERTEX
  8
0
  5
1FB8
 10
8.57826
 20
2.63845
 30
0.000000
  70
    32
  0
VERTEX
  8
0
  5
1FB9
 10
8.57803
 20
2.63839
 30
0.000000
  70
    32
  0
VERTEX
  8
0
  5
1FBA
 10
8.57780
 20
2.63834
 30
0.000000
  70
    32
  0
VERTEX
  8
0
  5
1FBB
 10
8.57757
 20
2.63829
 30
0.000000
  70
    32
  0
VERTEX
  8
0
  5
1FBC
 10
8.57734
 20
2.63824
 30
0.000000
  70
    32
  0
VERTEX
  8
0
  5
1FBD
 10
8.57712
 20
2.63819
 30
0.000000
  70
    32
  0
VERTEX
  8
0
  5
1FBE
 10
8.57689
 20
2.63814
 30
0.000000
  70
    32
  0
VERTEX
  8
0
  5
1FBF
 10
8.57667
 20
2.63810
 30
0.000000
  70
    32
  0
VERTEX
  8
0
  5
1FC0
 10
8.57645
 20
2.63805
 30
0.000000
  70
    32
  0
VERTEX
  8
0
  5
1FC1
 10
8.57624
 20
2.63801
 30
0.000000
  70
    32
  0
VERTEX
  8
0
  5
1FC2
 10
8.57602
 20
2.63797
 30
0.000000
  70
    32
  0
VERTEX
  8
0
  5
1FC3
 10
8.57581
 20
2.63792
 30
0.000000
  70
    32
  0
VERTEX
  8
0
  5
1FC4
 10
8.57560
 20
2.63788
 30
0.000000
  70
    32
  0
VERTEX
  8
0
  5
1FC5
 10
8.57539
 20
2.63784
 30
0.000000
  70
    32
  0
VERTEX
  8
0
  5
1FC6
 10
8.57518
 20
2.63780
 30
0.000000
  70
    32
  0
VERTEX
  8
0
  5
1FC7
 10
8.57498
 20
2.63777
 30
0.000000
  70
    32
  0
VERTEX
  8
0
  5
1FC8
 10
8.57477
 20
2.63773
 30
0.000000
  70
    32
  0
VERTEX
  8
0
  5
1FC9
 10
8.57457
 20
2.63770
 30
0.000000
  70
    32
  0
VERTEX
  8
0
  5
1FCA
 10
8.57437
 20
2.63766
 30
0.000000
  70
    32
  0
VERTEX
  8
0
  5
1FCB
 10
8.57417
 20
2.63763
 30
0.000000
  70
    32
  0
VERTEX
  8
0
  5
1FCC
 10
8.57398
 20
2.63760
 30
0.000000
  70
    32
  0
VERTEX
  8
0
  5
1FCD
 10
8.57378
 20
2.63756
 30
0.000000
  70
    32
  0
VERTEX
  8
0
  5
1FCE
 10
8.57359
 20
2.63753
 30
0.000000
  70
    32
  0
VERTEX
  8
0
  5
1FCF
 10
8.57340
 20
2.63750
 30
0.000000
  70
    32
  0
VERTEX
  8
0
  5
1FD0
 10
8.57321
 20
2.63748
 30
0.000000
  70
    32
  0
VERTEX
  8
0
  5
1FD1
 10
8.57303
 20
2.63745
 30
0.000000
  70
    32
  0
VERTEX
  8
0
  5
1FD2
 10
8.57284
 20
2.63742
 30
0.000000
  70
    32
  0
VERTEX
  8
0
  5
1FD3
 10
8.57266
 20
2.63740
 30
0.000000
  70
    32
  0
VERTEX
  8
0
  5
1FD4
 10
8.57248
 20
2.63737
 30
0.000000
  70
    32
  0
VERTEX
  8
0
  5
1FD5
 10
8.57230
 20
2.63735
 30
0.000000
  70
    32
  0
VERTEX
  8
0
  5
1FD6
 10
8.57213
 20
2.63732
 30
0.000000
  70
    32
  0
VERTEX
  8
0
  5
1FD7
 10
8.57195
 20
2.63730
 30
0.000000
  70
    32
  0
VERTEX
  8
0
  5
1FD8
 10
8.57178
 20
2.63728
 30
0.000000
  70
    32
  0
VERTEX
  8
0
  5
1FD9
 10
8.57161
 20
2.63726
 30
0.000000
  70
    32
  0
VERTEX
  8
0
  5
1FDA
 10
8.57144
 20
2.63724
 30
0.000000
  70
    32
  0
VERTEX
  8
0
  5
1FDB
 10
8.57127
 20
2.63722
 30
0.000000
  70
    32
  0
VERTEX
  8
0
  5
1FDC
 10
8.57111
 20
2.63720
 30
0.000000
  70
    32
  0
VERTEX
  8
0
  5
1FDD
 10
8.57095
 20
2.63718
 30
0.000000
  70
    32
  0
VERTEX
  8
0
  5
1FDE
 10
8.57079
 20
2.63716
 30
0.000000
  70
    32
  0
VERTEX
  8
0
  5
1FDF
 10
8.57063
 20
2.63715
 30
0.000000
  70
    32
  0
VERTEX
  8
0
  5
1FE0
 10
8.57047
 20
2.63713
 30
0.000000
  70
    32
  0
VERTEX
  8
0
  5
1FE1
 10
8.57032
 20
2.63712
 30
0.000000
  70
    32
  0
VERTEX
  8
0
  5
1FE2
 10
8.57017
 20
2.63710
 30
0.000000
  70
    32
  0
VERTEX
  8
0
  5
1FE3
 10
8.57002
 20
2.63709
 30
0.000000
  70
    32
  0
VERTEX
  8
0
  5
1FE4
 10
8.56987
 20
2.63708
 30
0.000000
  70
    32
  0
VERTEX
  8
0
  5
1FE5
 10
8.56973
 20
2.63707
 30
0.000000
  70
    32
  0
VERTEX
  8
0
  5
1FE6
 10
8.56958
 20
2.63705
 30
0.000000
  70
    32
  0
VERTEX
  8
0
  5
1FE7
 10
8.56944
 20
2.63704
 30
0.000000
  70
    32
  0
VERTEX
  8
0
  5
1FE8
 10
8.56930
 20
2.63703
 30
0.000000
  70
    32
  0
VERTEX
  8
0
  5
1FE9
 10
8.56916
 20
2.63702
 30
0.000000
  70
    32
  0
VERTEX
  8
0
  5
1FEA
 10
8.56903
 20
2.63701
 30
0.000000
  70
    32
  0
VERTEX
  8
0
  5
1FEB
 10
8.56890
 20
2.63700
 30
0.000000
  70
    32
  0
VERTEX
  8
0
  5
1FEC
 10
8.56877
 20
2.63700
 30
0.000000
  70
    32
  0
VERTEX
  8
0
  5
1FED
 10
8.56864
 20
2.63699
 30
0.000000
  70
    32
  0
VERTEX
  8
0
  5
1FEE
 10
8.56851
 20
2.63698
 30
0.000000
  70
    32
  0
VERTEX
  8
0
  5
1FEF
 10
8.56839
 20
2.63697
 30
0.000000
  70
    32
  0
VERTEX
  8
0
  5
1FF0
 10
8.56826
 20
2.63697
 30
0.000000
  70
    32
  0
VERTEX
  8
0
  5
1FF1
 10
8.56814
 20
2.63696
 30
0.000000
  70
    32
  0
VERTEX
  8
0
  5
1FF2
 10
8.56803
 20
2.63696
 30
0.000000
  70
    32
  0
VERTEX
  8
0
  5
1FF3
 10
8.56791
 20
2.63695
 30
0.000000
  70
    32
  0
VERTEX
  8
0
  5
1FF4
 10
8.56780
 20
2.63695
 30
0.000000
  70
    32
  0
VERTEX
  8
0
  5
1FF5
 10
8.56768
 20
2.63694
 30
0.000000
  70
    32
  0
VERTEX
  8
0
  5
1FF6
 10
8.56757
 20
2.63694
 30
0.000000
  70
    32
  0
VERTEX
  8
0
  5
1FF7
 10
8.56747
 20
2.63694
 30
0.000000
  70
    32
  0
VERTEX
  8
0
  5
1FF8
 10
8.56736
 20
2.63693
 30
0.000000
  70
    32
  0
VERTEX
  8
0
  5
1FF9
 10
8.56726
 20
2.63693
 30
0.000000
  70
    32
  0
VERTEX
  8
0
  5
1FFA
 10
8.56716
 20
2.63693
 30
0.000000
  70
    32
  0
VERTEX
  8
0
  5
1FFB
 10
8.56706
 20
2.63693
 30
0.000000
  70
    32
  0
VERTEX
  8
0
  5
1FFC
 10
8.56696
 20
2.63692
 30
0.000000
  70
    32
  0
VERTEX
  8
0
  5
1FFD
 10
8.56687
 20
2.63692
 30
0.000000
  70
    32
  0
VERTEX
  8
0
  5
1FFE
 10
8.56678
 20
2.63692
 30
0.000000
  70
    32
  0
VERTEX
  8
0
  5
1FFF
 10
8.56669
 20
2.63692
 30
0.000000
  70
    32
  0
VERTEX
  8
0
  5
2000
 10
8.56660
 20
2.63692
 30
0.000000
  70
    32
  0
VERTEX
  8
0
  5
2001
 10
8.56651
 20
2.63692
 30
0.000000
  70
    32
  0
VERTEX
  8
0
  5
2002
 10
8.56643
 20
2.63692
 30
0.000000
  70
    32
  0
VERTEX
  8
0
  5
2003
 10
8.56635
 20
2.63692
 30
0.000000
  70
    32
  0
VERTEX
  8
0
  5
2004
 10
8.56627
 20
2.63692
 30
0.000000
  70
    32
  0
VERTEX
  8
0
  5
2005
 10
8.56620
 20
2.63692
 30
0.000000
  70
    32
  0
VERTEX
  8
0
  5
2006
 10
8.56612
 20
2.63692
 30
0.000000
  70
    32
  0
VERTEX
  8
0
  5
2007
 10
8.56605
 20
2.63692
 30
0.000000
  70
    32
  0
VERTEX
  8
0
  5
2008
 10
8.56598
 20
2.63692
 30
0.000000
  70
    32
  0
VERTEX
  8
0
  5
2009
 10
8.56591
 20
2.63692
 30
0.000000
  70
    32
  0
VERTEX
  8
0
  5
200A
 10
8.56585
 20
2.63693
 30
0.000000
  70
    32
  0
VERTEX
  8
0
  5
200B
 10
8.56578
 20
2.63693
 30
0.000000
  70
    32
  0
VERTEX
  8
0
  5
200C
 10
8.56572
 20
2.63693
 30
0.000000
  70
    32
  0
VERTEX
  8
0
  5
200D
 10
8.56567
 20
2.63693
 30
0.000000
  70
    32
  0
VERTEX
  8
0
  5
200E
 10
8.56561
 20
2.63693
 30
0.000000
  70
    32
  0
VERTEX
  8
0
  5
200F
 10
8.56556
 20
2.63693
 30
0.000000
  70
    32
  0
VERTEX
  8
0
  5
2010
 10
8.56550
 20
2.63693
 30
0.000000
  70
    32
  0
VERTEX
  8
0
  5
2011
 10
8.56546
 20
2.63694
 30
0.000000
  70
    32
  0
VERTEX
  8
0
  5
2012
 10
8.56541
 20
2.63694
 30
0.000000
  70
    32
  0
VERTEX
  8
0
  5
2013
 10
8.56536
 20
2.63694
 30
0.000000
  70
    32
  0
VERTEX
  8
0
  5
2014
 10
8.56532
 20
2.63694
 30
0.000000
  70
    32
  0
VERTEX
  8
0
  5
2015
 10
8.56528
 20
2.63694
 30
0.000000
  70
    32
  0
VERTEX
  8
0
  5
2016
 10
8.56524
 20
2.63694
 30
0.000000
  70
    32
  0
VERTEX
  8
0
  5
2017
 10
8.56521
 20
2.63694
 30
0.000000
  70
    32
  0
VERTEX
  8
0
  5
2018
 10
8.56518
 20
2.63694
 30
0.000000
  70
    32
  0
VERTEX
  8
0
  5
2019
 10
8.56515
 20
2.63695
 30
0.000000
  70
    32
  0
VERTEX
  8
0
  5
201A
 10
8.56512
 20
2.63695
 30
0.000000
  70
    32
  0
VERTEX
  8
0
  5
201B
 10
8.56509
 20
2.63695
 30
0.000000
  70
    32
  0
VERTEX
  8
0
  5
201C
 10
8.56507
 20
2.63695
 30
0.000000
  70
    32
  0
VERTEX
  8
0
  5
201D
 10
8.56505
 20
2.63695
 30
0.000000
  70
    32
  0
VERTEX
  8
0
  5
201E
 10
8.56503
 20
2.63695
 30
0.000000
  70
    32
  0
VERTEX
  8
0
  5
201F
 10
8.56501
 20
2.63695
 30
0.000000
  70
    32
  0
VERTEX
  8
0
  5
2020
 10
8.56500
 20
2.63695
 30
0.000000
  70
    32
  0
VERTEX
  8
0
  5
2021
 10
8.56498
 20
2.63695
 30
0.000000
  70
    32
  0
VERTEX
  8
0
  5
2022
 10
8.56497
 20
2.63695
 30
0.000000
  70
    32
  0
VERTEX
  8
0
  5
2023
 10
8.56496
 20
2.63695
 30
0.000000
  70
    32
  0
VERTEX
  8
0
  5
2024
 10
8.56495
 20
2.63695
 30
0.000000
  70
    32
  0
VERTEX
  8
0
  5
2025
 10
8.56494
 20
2.63695
 30
0.000000
  70
    32
  0
VERTEX
  8
0
  5
2026
 10
8.56493
 20
2.63695
 30
0.000000
  70
    32
  0
VERTEX
  8
0
  5
2027
 10
8.56492
 20
2.63695
 30
0.000000
  70
    32
  0
VERTEX
  8
0
  5
2028
 10
8.56491
 20
2.63695
 30
0.000000
  70
    32
  0
SEQEND
  8
0
  5
2029
  0
POLYLINE
  8
0
  5
202A
  62
7
  66
     1
 10
0.000000
 20
0.000000
 30
0.000000
  70
     8
  0
VERTEX
  8
0
  5
202B
 10
8.94400
 20
2.63695
 30
0.000000
  70
    32
  0
VERTEX
  8
0
  5
202C
 10
8.94394
 20
2.63694
 30
0.000000
  70
    32
  0
VERTEX
  8
0
  5
202D
 10
8.94388
 20
2.63694
 30
0.000000
  70
    32
  0
VERTEX
  8
0
  5
202E
 10
8.94383
 20
2.63694
 30
0.000000
  70
    32
  0
VERTEX
  8
0
  5
202F
 10
8.94377
 20
2.63693
 30
0.000000
  70
    32
  0
VERTEX
  8
0
  5
2030
 10
8.94371
 20
2.63693
 30
0.000000
  70
    32
  0
VERTEX
  8
0
  5
2031
 10
8.94365
 20
2.63692
 30
0.000000
  70
    32
  0
VERTEX
  8
0
  5
2032
 10
8.94359
 20
2.63692
 30
0.000000
  70
    32
  0
VERTEX
  8
0
  5
2033
 10
8.94354
 20
2.63692
 30
0.000000
  70
    32
  0
VERTEX
  8
0
  5
2034
 10
8.94348
 20
2.63691
 30
0.000000
  70
    32
  0
VERTEX
  8
0
  5
2035
 10
8.94342
 20
2.63691
 30
0.000000
  70
    32
  0
VERTEX
  8
0
  5
2036
 10
8.94336
 20
2.63690
 30
0.000000
  70
    32
  0
VERTEX
  8
0
  5
2037
 10
8.94330
 20
2.63690
 30
0.000000
  70
    32
  0
VERTEX
  8
0
  5
2038
 10
8.94324
 20
2.63690
 30
0.000000
  70
    32
  0
VERTEX
  8
0
  5
2039
 10
8.94318
 20
2.63689
 30
0.000000
  70
    32
  0
VERTEX
  8
0
  5
203A
 10
8.94312
 20
2.63689
 30
0.000000
  70
    32
  0
VERTEX
  8
0
  5
203B
 10
8.94306
 20
2.63689
 30
0.000000
  70
    32
  0
VERTEX
  8
0
  5
203C
 10
8.94300
 20
2.63689
 30
0.000000
  70
    32
  0
VERTEX
  8
0
  5
203D
 10
8.94293
 20
2.63688
 30
0.000000
  70
    32
  0
VERTEX
  8
0
  5
203E
 10
8.94287
 20
2.63688
 30
0.000000
  70
    32
  0
VERTEX
  8
0
  5
203F
 10
8.94281
 20
2.63688
 30
0.000000
  70
    32
  0
VERTEX
  8
0
  5
2040
 10
8.94274
 20
2.63688
 30
0.000000
  70
    32
  0
VERTEX
  8
0
  5
2041
 10
8.94268
 20
2.63687
 30
0.000000
  70
    32
  0
VERTEX
  8
0
  5
2042
 10
8.94261
 20
2.63687
 30
0.000000
  70
    32
  0
VERTEX
  8
0
  5
2043
 10
8.94255
 20
2.63687
 30
0.000000
  70
    32
  0
VERTEX
  8
0
  5
2044
 10
8.94248
 20
2.63687
 30
0.000000
  70
    32
  0
VERTEX
  8
0
  5
2045
 10
8.94241
 20
2.63687
 30
0.000000
  70
    32
  0
VERTEX
  8
0
  5
2046
 10
8.94235
 20
2.63687
 30
0.000000
  70
    32
  0
VERTEX
  8
0
  5
2047
 10
8.94228
 20
2.63686
 30
0.000000
  70
    32
  0
VERTEX
  8
0
  5
2048
 10
8.94221
 20
2.63686
 30
0.000000
  70
    32
  0
VERTEX
  8
0
  5
2049
 10
8.94214
 20
2.63686
 30
0.000000
  70
    32
  0
VERTEX
  8
0
  5
204A
 10
8.94207
 20
2.63686
 30
0.000000
  70
    32
  0
VERTEX
  8
0
  5
204B
 10
8.94200
 20
2.63686
 30
0.000000
  70
    32
  0
VERTEX
  8
0
  5
204C
 10
8.94192
 20
2.63686
 30
0.000000
  70
    32
  0
VERTEX
  8
0
  5
204D
 10
8.94185
 20
2.63686
 30
0.000000
  70
    32
  0
VERTEX
  8
0
  5
204E
 10
8.94177
 20
2.63687
 30
0.000000
  70
    32
  0
VERTEX
  8
0
  5
204F
 10
8.94170
 20
2.63687
 30
0.000000
  70
    32
  0
VERTEX
  8
0
  5
2050
 10
8.94162
 20
2.63687
 30
0.000000
  70
    32
  0
VERTEX
  8
0
  5
2051
 10
8.94154
 20
2.63687
 30
0.000000
  70
    32
  0
VERTEX
  8
0
  5
2052
 10
8.94146
 20
2.63687
 30
0.000000
  70
    32
  0
VERTEX
  8
0
  5
2053
 10
8.94138
 20
2.63687
 30
0.000000
  70
    32
  0
VERTEX
  8
0
  5
2054
 10
8.94130
 20
2.63688
 30
0.000000
  70
    32
  0
VERTEX
  8
0
  5
2055
 10
8.94122
 20
2.63688
 30
0.000000
  70
    32
  0
VERTEX
  8
0
  5
2056
 10
8.94113
 20
2.63688
 30
0.000000
  70
    32
  0
VERTEX
  8
0
  5
2057
 10
8.94105
 20
2.63689
 30
0.000000
  70
    32
  0
VERTEX
  8
0
  5
2058
 10
8.94096
 20
2.63689
 30
0.000000
  70
    32
  0
VERTEX
  8
0
  5
2059
 10
8.94087
 20
2.63690
 30
0.000000
  70
    32
  0
VERTEX
  8
0
  5
205A
 10
8.94078
 20
2.63690
 30
0.000000
  70
    32
  0
VERTEX
  8
0
  5
205B
 10
8.94069
 20
2.63691
 30
0.000000
  70
    32
  0
VERTEX
  8
0
  5
205C
 10
8.94060
 20
2.63691
 30
0.000000
  70
    32
  0
VERTEX
  8
0
  5
205D
 10
8.94051
 20
2.63692
 30
0.000000
  70
    32
  0
VERTEX
  8
0
  5
205E
 10
8.94041
 20
2.63692
 30
0.000000
  70
    32
  0
VERTEX
  8
0
  5
205F
 10
8.94032
 20
2.63693
 30
0.000000
  70
    32
  0
VERTEX
  8
0
  5
2060
 10
8.94022
 20
2.63694
 30
0.000000
  70
    32
  0
VERTEX
  8
0
  5
2061
 10
8.94012
 20
2.63695
 30
0.000000
  70
    32
  0
VERTEX
  8
0
  5
2062
 10
8.94002
 20
2.63695
 30
0.000000
  70
    32
  0
VERTEX
  8
0
  5
2063
 10
8.93992
 20
2.63696
 30
0.000000
  70
    32
  0
VERTEX
  8
0
  5
2064
 10
8.93981
 20
2.63697
 30
0.000000
  70
    32
  0
VERTEX
  8
0
  5
2065
 10
8.93971
 20
2.63698
 30
0.000000
  70
    32
  0
VERTEX
  8
0
  5
2066
 10
8.93960
 20
2.63699
 30
0.000000
  70
    32
  0
VERTEX
  8
0
  5
2067
 10
8.93949
 20
2.63700
 30
0.000000
  70
    32
  0
VERTEX
  8
0
  5
2068
 10
8.93938
 20
2.63701
 30
0.000000
  70
    32
  0
VERTEX
  8
0
  5
2069
 10
8.93927
 20
2.63703
 30
0.000000
  70
    32
  0
VERTEX
  8
0
  5
206A
 10
8.93915
 20
2.63704
 30
0.000000
  70
    32
  0
VERTEX
  8
0
  5
206B
 10
8.93903
 20
2.63705
 30
0.000000
  70
    32
  0
VERTEX
  8
0
  5
206C
 10
8.93892
 20
2.63706
 30
0.000000
  70
    32
  0
VERTEX
  8
0
  5
206D
 10
8.93880
 20
2.63708
 30
0.000000
  70
    32
  0
VERTEX
  8
0
  5
206E
 10
8.93867
 20
2.63709
 30
0.000000
  70
    32
  0
VERTEX
  8
0
  5
206F
 10
8.93855
 20
2.63711
 30
0.000000
  70
    32
  0
VERTEX
  8
0
  5
2070
 10
8.93842
 20
2.63712
 30
0.000000
  70
    32
  0
VERTEX
  8
0
  5
2071
 10
8.93829
 20
2.63714
 30
0.000000
  70
    32
  0
VERTEX
  8
0
  5
2072
 10
8.93816
 20
2.63715
 30
0.000000
  70
    32
  0
VERTEX
  8
0
  5
2073
 10
8.93803
 20
2.63717
 30
0.000000
  70
    32
  0
VERTEX
  8
0
  5
2074
 10
8.93790
 20
2.63719
 30
0.000000
  70
    32
  0
VERTEX
  8
0
  5
2075
 10
8.93776
 20
2.63721
 30
0.000000
  70
    32
  0
VERTEX
  8
0
  5
2076
 10
8.93762
 20
2.63723
 30
0.000000
  70
    32
  0
VERTEX
  8
0
  5
2077
 10
8.93748
 20
2.63725
 30
0.000000
  70
    32
  0
VERTEX
  8
0
  5
2078
 10
8.93734
 20
2.63727
 30
0.000000
  70
    32
  0
VERTEX
  8
0
  5
2079
 10
8.93719
 20
2.63729
 30
0.000000
  70
    32
  0
VERTEX
  8
0
  5
207A
 10
8.93705
 20
2.63731
 30
0.000000
  70
    32
  0
VERTEX
  8
0
  5
207B
 10
8.93690
 20
2.63733
 30
0.000000
  70
    32
  0
VERTEX
  8
0
  5
207C
 10
8.93674
 20
2.63735
 30
0.000000
  70
    32
  0
VERTEX
  8
0
  5
207D
 10
8.93659
 20
2.63738
 30
0.000000
  70
    32
  0
VERTEX
  8
0
  5
207E
 10
8.93643
 20
2.63740
 30
0.000000
  70
    32
  0
VERTEX
  8
0
  5
207F
 10
8.93627
 20
2.63743
 30
0.000000
  70
    32
  0
VERTEX
  8
0
  5
2080
 10
8.93611
 20
2.63745
 30
0.000000
  70
    32
  0
VERTEX
  8
0
  5
2081
 10
8.93595
 20
2.63748
 30
0.000000
  70
    32
  0
VERTEX
  8
0
  5
2082
 10
8.93578
 20
2.63750
 30
0.000000
  70
    32
  0
VERTEX
  8
0
  5
2083
 10
8.93561
 20
2.63753
 30
0.000000
  70
    32
  0
VERTEX
  8
0
  5
2084
 10
8.93544
 20
2.63756
 30
0.000000
  70
    32
  0
VERTEX
  8
0
  5
2085
 10
8.93526
 20
2.63759
 30
0.000000
  70
    32
  0
VERTEX
  8
0
  5
2086
 10
8.93509
 20
2.63762
 30
0.000000
  70
    32
  0
VERTEX
  8
0
  5
2087
 10
8.93491
 20
2.63765
 30
0.000000
  70
    32
  0
VERTEX
  8
0
  5
2088
 10
8.93472
 20
2.63768
 30
0.000000
  70
    32
  0
VERTEX
  8
0
  5
2089
 10
8.93454
 20
2.63771
 30
0.000000
  70
    32
  0
VERTEX
  8
0
  5
208A
 10
8.93435
 20
2.63775
 30
0.000000
  70
    32
  0
VERTEX
  8
0
  5
208B
 10
8.93416
 20
2.63778
 30
0.000000
  70
    32
  0
VERTEX
  8
0
  5
208C
 10
8.93397
 20
2.63781
 30
0.000000
  70
    32
  0
VERTEX
  8
0
  5
208D
 10
8.93377
 20
2.63785
 30
0.000000
  70
    32
  0
VERTEX
  8
0
  5
208E
 10
8.93357
 20
2.63789
 30
0.000000
  70
    32
  0
VERTEX
  8
0
  5
208F
 10
8.93337
 20
2.63792
 30
0.000000
  70
    32
  0
VERTEX
  8
0
  5
2090
 10
8.93317
 20
2.63796
 30
0.000000
  70
    32
  0
VERTEX
  8
0
  5
2091
 10
8.93296
 20
2.63800
 30
0.000000
  70
    32
  0
VERTEX
  8
0
  5
2092
 10
8.93275
 20
2.63804
 30
0.000000
  70
    32
  0
VERTEX
  8
0
  5
2093
 10
8.93254
 20
2.63808
 30
0.000000
  70
    32
  0
VERTEX
  8
0
  5
2094
 10
8.93233
 20
2.63813
 30
0.000000
  70
    32
  0
VERTEX
  8
0
  5
2095
 10
8.93211
 20
2.63817
 30
0.000000
  70
    32
  0
VERTEX
  8
0
  5
2096
 10
8.93189
 20
2.63821
 30
0.000000
  70
    32
  0
VERTEX
  8
0
  5
2097
 10
8.93167
 20
2.63826
 30
0.000000
  70
    32
  0
VERTEX
  8
0
  5
2098
 10
8.93145
 20
2.63831
 30
0.000000
  70
    32
  0
VERTEX
  8
0
  5
2099
 10
8.93122
 20
2.63835
 30
0.000000
  70
    32
  0
VERTEX
  8
0
  5
209A
 10
8.93100
 20
2.63840
 30
0.000000
  70
    32
  0
VERTEX
  8
0
  5
209B
 10
8.93077
 20
2.63846
 30
0.000000
  70
    32
  0
VERTEX
  8
0
  5
209C
 10
8.93053
 20
2.63851
 30
0.000000
  70
    32
  0
VERTEX
  8
0
  5
209D
 10
8.93030
 20
2.63856
 30
0.000000
  70
    32
  0
VERTEX
  8
0
  5
209E
 10
8.93006
 20
2.63862
 30
0.000000
  70
    32
  0
VERTEX
  8
0
  5
209F
 10
8.92982
 20
2.63867
 30
0.000000
  70
    32
  0
VERTEX
  8
0
  5
20A0
 10
8.92958
 20
2.63873
 30
0.000000
  70
    32
  0
VERTEX
  8
0
  5
20A1
 10
8.92934
 20
2.63879
 30
0.000000
  70
    32
  0
VERTEX
  8
0
  5
20A2
 10
8.92909
 20
2.63885
 30
0.000000
  70
    32
  0
VERTEX
  8
0
  5
20A3
 10
8.92884
 20
2.63891
 30
0.000000
  70
    32
  0
VERTEX
  8
0
  5
20A4
 10
8.92860
 20
2.63898
 30
0.000000
  70
    32
  0
VERTEX
  8
0
  5
20A5
 10
8.92834
 20
2.63904
 30
0.000000
  70
    32
  0
VERTEX
  8
0
  5
20A6
 10
8.92809
 20
2.63911
 30
0.000000
  70
    32
  0
VERTEX
  8
0
  5
20A7
 10
8.92783
 20
2.63918
 30
0.000000
  70
    32
  0
VERTEX
  8
0
  5
20A8
 10
8.92758
 20
2.63925
 30
0.000000
  70
    32
  0
VERTEX
  8
0
  5
20A9
 10
8.92732
 20
2.63932
 30
0.000000
  70
    32
  0
VERTEX
  8
0
  5
20AA
 10
8.92706
 20
2.63939
 30
0.000000
  70
    32
  0
VERTEX
  8
0
  5
20AB
 10
8.92679
 20
2.63947
 30
0.000000
  70
    32
  0
VERTEX
  8
0
  5
20AC
 10
8.92653
 20
2.63954
 30
0.000000
  70
    32
  0
VERTEX
  8
0
  5
20AD
 10
8.92626
 20
2.63962
 30
0.000000
  70
    32
  0
VERTEX
  8
0
  5
20AE
 10
8.92599
 20
2.63970
 30
0.000000
  70
    32
  0
VERTEX
  8
0
  5
20AF
 10
8.92572
 20
2.63979
 30
0.000000
  70
    32
  0
VERTEX
  8
0
  5
20B0
 10
8.92545
 20
2.63987
 30
0.000000
  70
    32
  0
VERTEX
  8
0
  5
20B1
 10
8.92517
 20
2.63996
 30
0.000000
  70
    32
  0
VERTEX
  8
0
  5
20B2
 10
8.92490
 20
2.64005
 30
0.000000
  70
    32
  0
VERTEX
  8
0
  5
20B3
 10
8.92462
 20
2.64014
 30
0.000000
  70
    32
  0
VERTEX
  8
0
  5
20B4
 10
8.92434
 20
2.64023
 30
0.000000
  70
    32
  0
VERTEX
  8
0
  5
20B5
 10
8.92406
 20
2.64032
 30
0.000000
  70
    32
  0
VERTEX
  8
0
  5
20B6
 10
8.92377
 20
2.64042
 30
0.000000
  70
    32
  0
VERTEX
  8
0
  5
20B7
 10
8.92349
 20
2.64052
 30
0.000000
  70
    32
  0
VERTEX
  8
0
  5
20B8
 10
8.92320
 20
2.64062
 30
0.000000
  70
    32
  0
VERTEX
  8
0
  5
20B9
 10
8.92292
 20
2.64072
 30
0.000000
  70
    32
  0
VERTEX
  8
0
  5
20BA
 10
8.92263
 20
2.64083
 30
0.000000
  70
    32
  0
VERTEX
  8
0
  5
20BB
 10
8.92234
 20
2.64093
 30
0.000000
  70
    32
  0
VERTEX
  8
0
  5
20BC
 10
8.92204
 20
2.64104
 30
0.000000
  70
    32
  0
VERTEX
  8
0
  5
20BD
 10
8.92175
 20
2.64116
 30
0.000000
  70
    32
  0
VERTEX
  8
0
  5
20BE
 10
8.92146
 20
2.64127
 30
0.000000
  70
    32
  0
VERTEX
  8
0
  5
20BF
 10
8.92116
 20
2.64139
 30
0.000000
  70
    32
  0
VERTEX
  8
0
  5
20C0
 10
8.92086
 20
2.64150
 30
0.000000
  70
    32
  0
VERTEX
  8
0
  5
20C1
 10
8.92056
 20
2.64163
 30
0.000000
  70
    32
  0
VERTEX
  8
0
  5
20C2
 10
8.92026
 20
2.64175
 30
0.000000
  70
    32
  0
VERTEX
  8
0
  5
20C3
 10
8.91996
 20
2.64187
 30
0.000000
  70
    32
  0
VERTEX
  8
0
  5
20C4
 10
8.91966
 20
2.64200
 30
0.000000
  70
    32
  0
VERTEX
  8
0
  5
20C5
 10
8.91935
 20
2.64213
 30
0.000000
  70
    32
  0
VERTEX
  8
0
  5
20C6
 10
8.91904
 20
2.64227
 30
0.000000
  70
    32
  0
VERTEX
  8
0
  5
20C7
 10
8.91874
 20
2.64240
 30
0.000000
  70
    32
  0
VERTEX
  8
0
  5
20C8
 10
8.91843
 20
2.64254
 30
0.000000
  70
    32
  0
VERTEX
  8
0
  5
20C9
 10
8.91812
 20
2.64268
 30
0.000000
  70
    32
  0
VERTEX
  8
0
  5
20CA
 10
8.91781
 20
2.64283
 30
0.000000
  70
    32
  0
VERTEX
  8
0
  5
20CB
 10
8.91750
 20
2.64297
 30
0.000000
  70
    32
  0
VERTEX
  8
0
  5
20CC
 10
8.91718
 20
2.64312
 30
0.000000
  70
    32
  0
VERTEX
  8
0
  5
20CD
 10
8.91687
 20
2.64327
 30
0.000000
  70
    32
  0
VERTEX
  8
0
  5
20CE
 10
8.91655
 20
2.64343
 30
0.000000
  70
    32
  0
VERTEX
  8
0
  5
20CF
 10
8.91624
 20
2.64359
 30
0.000000
  70
    32
  0
VERTEX
  8
0
  5
20D0
 10
8.91592
 20
2.64375
 30
0.000000
  70
    32
  0
VERTEX
  8
0
  5
20D1
 10
8.91560
 20
2.64391
 30
0.000000
  70
    32
  0
VERTEX
  8
0
  5
20D2
 10
8.91528
 20
2.64408
 30
0.000000
  70
    32
  0
VERTEX
  8
0
  5
20D3
 10
8.91496
 20
2.64424
 30
0.000000
  70
    32
  0
VERTEX
  8
0
  5
20D4
 10
8.91464
 20
2.64442
 30
0.000000
  70
    32
  0
VERTEX
  8
0
  5
20D5
 10
8.91432
 20
2.64459
 30
0.000000
  70
    32
  0
VERTEX
  8
0
  5
20D6
 10
8.91400
 20
2.64477
 30
0.000000
  70
    32
  0
VERTEX
  8
0
  5
20D7
 10
8.91367
 20
2.64495
 30
0.000000
  70
    32
  0
VERTEX
  8
0
  5
20D8
 10
8.91335
 20
2.64513
 30
0.000000
  70
    32
  0
VERTEX
  8
0
  5
20D9
 10
8.91302
 20
2.64532
 30
0.000000
  70
    32
  0
VERTEX
  8
0
  5
20DA
 10
8.91270
 20
2.64551
 30
0.000000
  70
    32
  0
VERTEX
  8
0
  5
20DB
 10
8.91237
 20
2.64570
 30
0.000000
  70
    32
  0
VERTEX
  8
0
  5
20DC
 10
8.91204
 20
2.64590
 30
0.000000
  70
    32
  0
VERTEX
  8
0
  5
20DD
 10
8.91172
 20
2.64610
 30
0.000000
  70
    32
  0
VERTEX
  8
0
  5
20DE
 10
8.91139
 20
2.64630
 30
0.000000
  70
    32
  0
VERTEX
  8
0
  5
20DF
 10
8.91106
 20
2.64651
 30
0.000000
  70
    32
  0
VERTEX
  8
0
  5
20E0
 10
8.91073
 20
2.64672
 30
0.000000
  70
    32
  0
VERTEX
  8
0
  5
20E1
 10
8.91040
 20
2.64693
 30
0.000000
  70
    32
  0
VERTEX
  8
0
  5
20E2
 10
8.91007
 20
2.64714
 30
0.000000
  70
    32
  0
VERTEX
  8
0
  5
20E3
 10
8.90973
 20
2.64736
 30
0.000000
  70
    32
  0
VERTEX
  8
0
  5
20E4
 10
8.90940
 20
2.64759
 30
0.000000
  70
    32
  0
VERTEX
  8
0
  5
20E5
 10
8.90907
 20
2.64781
 30
0.000000
  70
    32
  0
VERTEX
  8
0
  5
20E6
 10
8.90874
 20
2.64804
 30
0.000000
  70
    32
  0
VERTEX
  8
0
  5
20E7
 10
8.90840
 20
2.64827
 30
0.000000
  70
    32
  0
VERTEX
  8
0
  5
20E8
 10
8.90807
 20
2.64851
 30
0.000000
  70
    32
  0
VERTEX
  8
0
  5
20E9
 10
8.90773
 20
2.64875
 30
0.000000
  70
    32
  0
VERTEX
  8
0
  5
20EA
 10
8.90740
 20
2.64899
 30
0.000000
  70
    32
  0
VERTEX
  8
0
  5
20EB
 10
8.90706
 20
2.64924
 30
0.000000
  70
    32
  0
VERTEX
  8
0
  5
20EC
 10
8.90673
 20
2.64949
 30
0.000000
  70
    32
  0
VERTEX
  8
0
  5
20ED
 10
8.90639
 20
2.64974
 30
0.000000
  70
    32
  0
VERTEX
  8
0
  5
20EE
 10
8.90606
 20
2.65000
 30
0.000000
  70
    32
  0
VERTEX
  8
0
  5
20EF
 10
8.90572
 20
2.65026
 30
0.000000
  70
    32
  0
VERTEX
  8
0
  5
20F0
 10
8.90538
 20
2.65053
 30
0.000000
  70
    32
  0
VERTEX
  8
0
  5
20F1
 10
8.90505
 20
2.65080
 30
0.000000
  70
    32
  0
VERTEX
  8
0
  5
20F2
 10
8.90471
 20
2.65107
 30
0.000000
  70
    32
  0
VERTEX
  8
0
  5
20F3
 10
8.90437
 20
2.65135
 30
0.000000
  70
    32
  0
VERTEX
  8
0
  5
20F4
 10
8.90404
 20
2.65163
 30
0.000000
  70
    32
  0
VERTEX
  8
0
  5
20F5
 10
8.90370
 20
2.65191
 30
0.000000
  70
    32
  0
VERTEX
  8
0
  5
20F6
 10
8.90336
 20
2.65220
 30
0.000000
  70
    32
  0
VERTEX
  8
0
  5
20F7
 10
8.90302
 20
2.65249
 30
0.000000
  70
    32
  0
VERTEX
  8
0
  5
20F8
 10
8.90269
 20
2.65279
 30
0.000000
  70
    32
  0
VERTEX
  8
0
  5
20F9
 10
8.90235
 20
2.65309
 30
0.000000
  70
    32
  0
VERTEX
  8
0
  5
20FA
 10
8.90201
 20
2.65340
 30
0.000000
  70
    32
  0
VERTEX
  8
0
  5
20FB
 10
8.90168
 20
2.65370
 30
0.000000
  70
    32
  0
VERTEX
  8
0
  5
20FC
 10
8.90134
 20
2.65402
 30
0.000000
  70
    32
  0
VERTEX
  8
0
  5
20FD
 10
8.90100
 20
2.65433
 30
0.000000
  70
    32
  0
VERTEX
  8
0
  5
20FE
 10
8.90067
 20
2.65465
 30
0.000000
  70
    32
  0
VERTEX
  8
0
  5
20FF
 10
8.90033
 20
2.65498
 30
0.000000
  70
    32
  0
VERTEX
  8
0
  5
2100
 10
8.90000
 20
2.65531
 30
0.000000
  70
    32
  0
VERTEX
  8
0
  5
2101
 10
8.89966
 20
2.65564
 30
0.000000
  70
    32
  0
VERTEX
  8
0
  5
2102
 10
8.89933
 20
2.65598
 30
0.000000
  70
    32
  0
VERTEX
  8
0
  5
2103
 10
8.89900
 20
2.65632
 30
0.000000
  70
    32
  0
VERTEX
  8
0
  5
2104
 10
8.89867
 20
2.65667
 30
0.000000
  70
    32
  0
VERTEX
  8
0
  5
2105
 10
8.89834
 20
2.65702
 30
0.000000
  70
    32
  0
VERTEX
  8
0
  5
2106
 10
8.89801
 20
2.65737
 30
0.000000
  70
    32
  0
VERTEX
  8
0
  5
2107
 10
8.89768
 20
2.65773
 30
0.000000
  70
    32
  0
VERTEX
  8
0
  5
2108
 10
8.89736
 20
2.65809
 30
0.000000
  70
    32
  0
VERTEX
  8
0
  5
2109
 10
8.89703
 20
2.65846
 30
0.000000
  70
    32
  0
VERTEX
  8
0
  5
210A
 10
8.89671
 20
2.65883
 30
0.000000
  70
    32
  0
VERTEX
  8
0
  5
210B
 10
8.89639
 20
2.65921
 30
0.000000
  70
    32
  0
VERTEX
  8
0
  5
210C
 10
8.89607
 20
2.65959
 30
0.000000
  70
    32
  0
VERTEX
  8
0
  5
210D
 10
8.89575
 20
2.65998
 30
0.000000
  70
    32
  0
VERTEX
  8
0
  5
210E
 10
8.89544
 20
2.66037
 30
0.000000
  70
    32
  0
VERTEX
  8
0
  5
210F
 10
8.89512
 20
2.66076
 30
0.000000
  70
    32
  0
VERTEX
  8
0
  5
2110
 10
8.89481
 20
2.66116
 30
0.000000
  70
    32
  0
VERTEX
  8
0
  5
2111
 10
8.89450
 20
2.66157
 30
0.000000
  70
    32
  0
VERTEX
  8
0
  5
2112
 10
8.89420
 20
2.66198
 30
0.000000
  70
    32
  0
VERTEX
  8
0
  5
2113
 10
8.89389
 20
2.66239
 30
0.000000
  70
    32
  0
VERTEX
  8
0
  5
2114
 10
8.89359
 20
2.66281
 30
0.000000
  70
    32
  0
VERTEX
  8
0
  5
2115
 10
8.89329
 20
2.66323
 30
0.000000
  70
    32
  0
VERTEX
  8
0
  5
2116
 10
8.89300
 20
2.66366
 30
0.000000
  70
    32
  0
VERTEX
  8
0
  5
2117
 10
8.89271
 20
2.66409
 30
0.000000
  70
    32
  0
VERTEX
  8
0
  5
2118
 10
8.89242
 20
2.66453
 30
0.000000
  70
    32
  0
VERTEX
  8
0
  5
2119
 10
8.89213
 20
2.66497
 30
0.000000
  70
    32
  0
VERTEX
  8
0
  5
211A
 10
8.89185
 20
2.66542
 30
0.000000
  70
    32
  0
VERTEX
  8
0
  5
211B
 10
8.89157
 20
2.66587
 30
0.000000
  70
    32
  0
VERTEX
  8
0
  5
211C
 10
8.89129
 20
2.66633
 30
0.000000
  70
    32
  0
VERTEX
  8
0
  5
211D
 10
8.89102
 20
2.66679
 30
0.000000
  70
    32
  0
VERTEX
  8
0
  5
211E
 10
8.89074
 20
2.66725
 30
0.000000
  70
    32
  0
VERTEX
  8
0
  5
211F
 10
8.89048
 20
2.66772
 30
0.000000
  70
    32
  0
VERTEX
  8
0
  5
2120
 10
8.89021
 20
2.66819
 30
0.000000
  70
    32
  0
VERTEX
  8
0
  5
2121
 10
8.88995
 20
2.66867
 30
0.000000
  70
    32
  0
VERTEX
  8
0
  5
2122
 10
8.88968
 20
2.66915
 30
0.000000
  70
    32
  0
VERTEX
  8
0
  5
2123
 10
8.88942
 20
2.66963
 30
0.000000
  70
    32
  0
VERTEX
  8
0
  5
2124
 10
8.88916
 20
2.67011
 30
0.000000
  70
    32
  0
VERTEX
  8
0
  5
2125
 10
8.88891
 20
2.67059
 30
0.000000
  70
    32
  0
VERTEX
  8
0
  5
2126
 10
8.88865
 20
2.67108
 30
0.000000
  70
    32
  0
VERTEX
  8
0
  5
2127
 10
8.88839
 20
2.67157
 30
0.000000
  70
    32
  0
VERTEX
  8
0
  5
2128
 10
8.88814
 20
2.67206
 30
0.000000
  70
    32
  0
VERTEX
  8
0
  5
2129
 10
8.88788
 20
2.67254
 30
0.000000
  70
    32
  0
VERTEX
  8
0
  5
212A
 10
8.88763
 20
2.67303
 30
0.000000
  70
    32
  0
SEQEND
  8
0
  5
212B
  0
LINE
  5
12E1
  8
0
  6
CONTINUOUS
 62
     7
 10
8.8876284972999997
 20
2.673033277
 30
0.0
 11
8.8236671782999991
 21
2.8101987681999989
 31
0.0
  0
LINE
  5
12E2
  8
0
  6
CONTINUOUS
 62
     7
 10
8.6852446553
 20
2.8101987681999989
 30
0.0
 11
8.6212833362999994
 21
2.673033277
 31
0.0
  0
POLYLINE
  8
0
  5
212C
  62
7
  66
     1
 10
0.000000
 20
0.000000
 30
0.000000
  70
     8
  0
VERTEX
  8
0
  5
212D
 10
8.82367
 20
2.81020
 30
0.000000
  70
    32
  0
VERTEX
  8
0
  5
212E
 10
8.82364
 20
2.81024
 30
0.000000
  70
    32
  0
VERTEX
  8
0
  5
212F
 10
8.82362
 20
2.81029
 30
0.000000
  70
    32
  0
VERTEX
  8
0
  5
2130
 10
8.82360
 20
2.81034
 30
0.000000
  70
    32
  0
VERTEX
  8
0
  5
2131
 10
8.82358
 20
2.81038
 30
0.000000
  70
    32
  0
VERTEX
  8
0
  5
2132
 10
8.82355
 20
2.81043
 30
0.000000
  70
    32
  0
VERTEX
  8
0
  5
2133
 10
8.82353
 20
2.81048
 30
0.000000
  70
    32
  0
VERTEX
  8
0
  5
2134
 10
8.82351
 20
2.81052
 30
0.000000
  70
    32
  0
VERTEX
  8
0
  5
2135
 10
8.82348
 20
2.81057
 30
0.000000
  70
    32
  0
VERTEX
  8
0
  5
2136
 10
8.82346
 20
2.81061
 30
0.000000
  70
    32
  0
VERTEX
  8
0
  5
2137
 10
8.82344
 20
2.81066
 30
0.000000
  70
    32
  0
VERTEX
  8
0
  5
2138
 10
8.82341
 20
2.81070
 30
0.000000
  70
    32
  0
VERTEX
  8
0
  5
2139
 10
8.82339
 20
2.81075
 30
0.000000
  70
    32
  0
VERTEX
  8
0
  5
213A
 10
8.82337
 20
2.81079
 30
0.000000
  70
    32
  0
VERTEX
  8
0
  5
213B
 10
8.82334
 20
2.81084
 30
0.000000
  70
    32
  0
VERTEX
  8
0
  5
213C
 10
8.82332
 20
2.81088
 30
0.000000
  70
    32
  0
VERTEX
  8
0
  5
213D
 10
8.82329
 20
2.81092
 30
0.000000
  70
    32
  0
VERTEX
  8
0
  5
213E
 10
8.82327
 20
2.81097
 30
0.000000
  70
    32
  0
VERTEX
  8
0
  5
213F
 10
8.82324
 20
2.81101
 30
0.000000
  70
    32
  0
VERTEX
  8
0
  5
2140
 10
8.82321
 20
2.81106
 30
0.000000
  70
    32
  0
VERTEX
  8
0
  5
2141
 10
8.82319
 20
2.81110
 30
0.000000
  70
    32
  0
VERTEX
  8
0
  5
2142
 10
8.82316
 20
2.81114
 30
0.000000
  70
    32
  0
VERTEX
  8
0
  5
2143
 10
8.82314
 20
2.81119
 30
0.000000
  70
    32
  0
VERTEX
  8
0
  5
2144
 10
8.82311
 20
2.81123
 30
0.000000
  70
    32
  0
VERTEX
  8
0
  5
2145
 10
8.82308
 20
2.81127
 30
0.000000
  70
    32
  0
VERTEX
  8
0
  5
2146
 10
8.82306
 20
2.81131
 30
0.000000
  70
    32
  0
VERTEX
  8
0
  5
2147
 10
8.82303
 20
2.81135
 30
0.000000
  70
    32
  0
VERTEX
  8
0
  5
2148
 10
8.82300
 20
2.81140
 30
0.000000
  70
    32
  0
VERTEX
  8
0
  5
2149
 10
8.82297
 20
2.81144
 30
0.000000
  70
    32
  0
VERTEX
  8
0
  5
214A
 10
8.82295
 20
2.81148
 30
0.000000
  70
    32
  0
VERTEX
  8
0
  5
214B
 10
8.82292
 20
2.81152
 30
0.000000
  70
    32
  0
VERTEX
  8
0
  5
214C
 10
8.82289
 20
2.81156
 30
0.000000
  70
    32
  0
VERTEX
  8
0
  5
214D
 10
8.82286
 20
2.81160
 30
0.000000
  70
    32
  0
VERTEX
  8
0
  5
214E
 10
8.82283
 20
2.81164
 30
0.000000
  70
    32
  0
VERTEX
  8
0
  5
214F
 10
8.82280
 20
2.81168
 30
0.000000
  70
    32
  0
VERTEX
  8
0
  5
2150
 10
8.82277
 20
2.81172
 30
0.000000
  70
    32
  0
VERTEX
  8
0
  5
2151
 10
8.82274
 20
2.81176
 30
0.000000
  70
    32
  0
VERTEX
  8
0
  5
2152
 10
8.82271
 20
2.81180
 30
0.000000
  70
    32
  0
VERTEX
  8
0
  5
2153
 10
8.82268
 20
2.81184
 30
0.000000
  70
    32
  0
VERTEX
  8
0
  5
2154
 10
8.82266
 20
2.81188
 30
0.000000
  70
    32
  0
VERTEX
  8
0
  5
2155
 10
8.82262
 20
2.81192
 30
0.000000
  70
    32
  0
VERTEX
  8
0
  5
2156
 10
8.82259
 20
2.81196
 30
0.000000
  70
    32
  0
VERTEX
  8
0
  5
2157
 10
8.82256
 20
2.81200
 30
0.000000
  70
    32
  0
VERTEX
  8
0
  5
2158
 10
8.82253
 20
2.81204
 30
0.000000
  70
    32
  0
VERTEX
  8
0
  5
2159
 10
8.82250
 20
2.81208
 30
0.000000
  70
    32
  0
VERTEX
  8
0
  5
215A
 10
8.82247
 20
2.81212
 30
0.000000
  70
    32
  0
VERTEX
  8
0
  5
215B
 10
8.82244
 20
2.81215
 30
0.000000
  70
    32
  0
VERTEX
  8
0
  5
215C
 10
8.82241
 20
2.81219
 30
0.000000
  70
    32
  0
VERTEX
  8
0
  5
215D
 10
8.82238
 20
2.81223
 30
0.000000
  70
    32
  0
VERTEX
  8
0
  5
215E
 10
8.82235
 20
2.81227
 30
0.000000
  70
    32
  0
VERTEX
  8
0
  5
215F
 10
8.82231
 20
2.81231
 30
0.000000
  70
    32
  0
VERTEX
  8
0
  5
2160
 10
8.82228
 20
2.81234
 30
0.000000
  70
    32
  0
VERTEX
  8
0
  5
2161
 10
8.82225
 20
2.81238
 30
0.000000
  70
    32
  0
VERTEX
  8
0
  5
2162
 10
8.82222
 20
2.81242
 30
0.000000
  70
    32
  0
VERTEX
  8
0
  5
2163
 10
8.82218
 20
2.81245
 30
0.000000
  70
    32
  0
VERTEX
  8
0
  5
2164
 10
8.82215
 20
2.81249
 30
0.000000
  70
    32
  0
VERTEX
  8
0
  5
2165
 10
8.82212
 20
2.81252
 30
0.000000
  70
    32
  0
VERTEX
  8
0
  5
2166
 10
8.82209
 20
2.81256
 30
0.000000
  70
    32
  0
VERTEX
  8
0
  5
2167
 10
8.82205
 20
2.81260
 30
0.000000
  70
    32
  0
VERTEX
  8
0
  5
2168
 10
8.82202
 20
2.81263
 30
0.000000
  70
    32
  0
VERTEX
  8
0
  5
2169
 10
8.82199
 20
2.81267
 30
0.000000
  70
    32
  0
VERTEX
  8
0
  5
216A
 10
8.82195
 20
2.81270
 30
0.000000
  70
    32
  0
VERTEX
  8
0
  5
216B
 10
8.82192
 20
2.81274
 30
0.000000
  70
    32
  0
VERTEX
  8
0
  5
216C
 10
8.82189
 20
2.81277
 30
0.000000
  70
    32
  0
VERTEX
  8
0
  5
216D
 10
8.82185
 20
2.81281
 30
0.000000
  70
    32
  0
VERTEX
  8
0
  5
216E
 10
8.82182
 20
2.81284
 30
0.000000
  70
    32
  0
VERTEX
  8
0
  5
216F
 10
8.82178
 20
2.81288
 30
0.000000
  70
    32
  0
VERTEX
  8
0
  5
2170
 10
8.82175
 20
2.81291
 30
0.000000
  70
    32
  0
VERTEX
  8
0
  5
2171
 10
8.82171
 20
2.81294
 30
0.000000
  70
    32
  0
VERTEX
  8
0
  5
2172
 10
8.82168
 20
2.81298
 30
0.000000
  70
    32
  0
VERTEX
  8
0
  5
2173
 10
8.82164
 20
2.81301
 30
0.000000
  70
    32
  0
VERTEX
  8
0
  5
2174
 10
8.82161
 20
2.81304
 30
0.000000
  70
    32
  0
VERTEX
  8
0
  5
2175
 10
8.82157
 20
2.81308
 30
0.000000
  70
    32
  0
VERTEX
  8
0
  5
2176
 10
8.82154
 20
2.81311
 30
0.000000
  70
    32
  0
VERTEX
  8
0
  5
2177
 10
8.82150
 20
2.81314
 30
0.000000
  70
    32
  0
VERTEX
  8
0
  5
2178
 10
8.82147
 20
2.81317
 30
0.000000
  70
    32
  0
VERTEX
  8
0
  5
2179
 10
8.82143
 20
2.81321
 30
0.000000
  70
    32
  0
VERTEX
  8
0
  5
217A
 10
8.82140
 20
2.81324
 30
0.000000
  70
    32
  0
VERTEX
  8
0
  5
217B
 10
8.82136
 20
2.81327
 30
0.000000
  70
    32
  0
VERTEX
  8
0
  5
217C
 10
8.82132
 20
2.81330
 30
0.000000
  70
    32
  0
VERTEX
  8
0
  5
217D
 10
8.82129
 20
2.81333
 30
0.000000
  70
    32
  0
VERTEX
  8
0
  5
217E
 10
8.82125
 20
2.81336
 30
0.000000
  70
    32
  0
VERTEX
  8
0
  5
217F
 10
8.82122
 20
2.81339
 30
0.000000
  70
    32
  0
VERTEX
  8
0
  5
2180
 10
8.82118
 20
2.81343
 30
0.000000
  70
    32
  0
VERTEX
  8
0
  5
2181
 10
8.82114
 20
2.81346
 30
0.000000
  70
    32
  0
VERTEX
  8
0
  5
2182
 10
8.82111
 20
2.81349
 30
0.000000
  70
    32
  0
VERTEX
  8
0
  5
2183
 10
8.82107
 20
2.81352
 30
0.000000
  70
    32
  0
VERTEX
  8
0
  5
2184
 10
8.82103
 20
2.81355
 30
0.000000
  70
    32
  0
VERTEX
  8
0
  5
2185
 10
8.82099
 20
2.81358
 30
0.000000
  70
    32
  0
VERTEX
  8
0
  5
2186
 10
8.82096
 20
2.81361
 30
0.000000
  70
    32
  0
VERTEX
  8
0
  5
2187
 10
8.82092
 20
2.81364
 30
0.000000
  70
    32
  0
VERTEX
  8
0
  5
2188
 10
8.82088
 20
2.81366
 30
0.000000
  70
    32
  0
VERTEX
  8
0
  5
2189
 10
8.82085
 20
2.81369
 30
0.000000
  70
    32
  0
VERTEX
  8
0
  5
218A
 10
8.82081
 20
2.81372
 30
0.000000
  70
    32
  0
VERTEX
  8
0
  5
218B
 10
8.82077
 20
2.81375
 30
0.000000
  70
    32
  0
VERTEX
  8
0
  5
218C
 10
8.82073
 20
2.81378
 30
0.000000
  70
    32
  0
VERTEX
  8
0
  5
218D
 10
8.82069
 20
2.81381
 30
0.000000
  70
    32
  0
VERTEX
  8
0
  5
218E
 10
8.82066
 20
2.81384
 30
0.000000
  70
    32
  0
VERTEX
  8
0
  5
218F
 10
8.82062
 20
2.81386
 30
0.000000
  70
    32
  0
VERTEX
  8
0
  5
2190
 10
8.82058
 20
2.81389
 30
0.000000
  70
    32
  0
VERTEX
  8
0
  5
2191
 10
8.82054
 20
2.81392
 30
0.000000
  70
    32
  0
VERTEX
  8
0
  5
2192
 10
8.82050
 20
2.81394
 30
0.000000
  70
    32
  0
VERTEX
  8
0
  5
2193
 10
8.82046
 20
2.81397
 30
0.000000
  70
    32
  0
VERTEX
  8
0
  5
2194
 10
8.82043
 20
2.81400
 30
0.000000
  70
    32
  0
VERTEX
  8
0
  5
2195
 10
8.82039
 20
2.81402
 30
0.000000
  70
    32
  0
VERTEX
  8
0
  5
2196
 10
8.82035
 20
2.81405
 30
0.000000
  70
    32
  0
VERTEX
  8
0
  5
2197
 10
8.82031
 20
2.81408
 30
0.000000
  70
    32
  0
VERTEX
  8
0
  5
2198
 10
8.82027
 20
2.81410
 30
0.000000
  70
    32
  0
VERTEX
  8
0
  5
2199
 10
8.82023
 20
2.81413
 30
0.000000
  70
    32
  0
VERTEX
  8
0
  5
219A
 10
8.82019
 20
2.81415
 30
0.000000
  70
    32
  0
VERTEX
  8
0
  5
219B
 10
8.82015
 20
2.81418
 30
0.000000
  70
    32
  0
VERTEX
  8
0
  5
219C
 10
8.82011
 20
2.81420
 30
0.000000
  70
    32
  0
VERTEX
  8
0
  5
219D
 10
8.82007
 20
2.81423
 30
0.000000
  70
    32
  0
VERTEX
  8
0
  5
219E
 10
8.82003
 20
2.81425
 30
0.000000
  70
    32
  0
VERTEX
  8
0
  5
219F
 10
8.81999
 20
2.81428
 30
0.000000
  70
    32
  0
VERTEX
  8
0
  5
21A0
 10
8.81995
 20
2.81430
 30
0.000000
  70
    32
  0
VERTEX
  8
0
  5
21A1
 10
8.81991
 20
2.81432
 30
0.000000
  70
    32
  0
VERTEX
  8
0
  5
21A2
 10
8.81987
 20
2.81435
 30
0.000000
  70
    32
  0
VERTEX
  8
0
  5
21A3
 10
8.81983
 20
2.81437
 30
0.000000
  70
    32
  0
VERTEX
  8
0
  5
21A4
 10
8.81979
 20
2.81439
 30
0.000000
  70
    32
  0
VERTEX
  8
0
  5
21A5
 10
8.81975
 20
2.81441
 30
0.000000
  70
    32
  0
VERTEX
  8
0
  5
21A6
 10
8.81971
 20
2.81444
 30
0.000000
  70
    32
  0
VERTEX
  8
0
  5
21A7
 10
8.81967
 20
2.81446
 30
0.000000
  70
    32
  0
VERTEX
  8
0
  5
21A8
 10
8.81963
 20
2.81448
 30
0.000000
  70
    32
  0
VERTEX
  8
0
  5
21A9
 10
8.81959
 20
2.81450
 30
0.000000
  70
    32
  0
VERTEX
  8
0
  5
21AA
 10
8.81955
 20
2.81452
 30
0.000000
  70
    32
  0
VERTEX
  8
0
  5
21AB
 10
8.81951
 20
2.81455
 30
0.000000
  70
    32
  0
VERTEX
  8
0
  5
21AC
 10
8.81947
 20
2.81457
 30
0.000000
  70
    32
  0
VERTEX
  8
0
  5
21AD
 10
8.81943
 20
2.81459
 30
0.000000
  70
    32
  0
VERTEX
  8
0
  5
21AE
 10
8.81939
 20
2.81461
 30
0.000000
  70
    32
  0
VERTEX
  8
0
  5
21AF
 10
8.81934
 20
2.81463
 30
0.000000
  70
    32
  0
VERTEX
  8
0
  5
21B0
 10
8.81930
 20
2.81465
 30
0.000000
  70
    32
  0
VERTEX
  8
0
  5
21B1
 10
8.81926
 20
2.81467
 30
0.000000
  70
    32
  0
VERTEX
  8
0
  5
21B2
 10
8.81922
 20
2.81469
 30
0.000000
  70
    32
  0
VERTEX
  8
0
  5
21B3
 10
8.81918
 20
2.81471
 30
0.000000
  70
    32
  0
VERTEX
  8
0
  5
21B4
 10
8.81914
 20
2.81472
 30
0.000000
  70
    32
  0
VERTEX
  8
0
  5
21B5
 10
8.81910
 20
2.81474
 30
0.000000
  70
    32
  0
VERTEX
  8
0
  5
21B6
 10
8.81905
 20
2.81476
 30
0.000000
  70
    32
  0
VERTEX
  8
0
  5
21B7
 10
8.81901
 20
2.81478
 30
0.000000
  70
    32
  0
VERTEX
  8
0
  5
21B8
 10
8.81897
 20
2.81480
 30
0.000000
  70
    32
  0
VERTEX
  8
0
  5
21B9
 10
8.81893
 20
2.81482
 30
0.000000
  70
    32
  0
VERTEX
  8
0
  5
21BA
 10
8.81889
 20
2.81483
 30
0.000000
  70
    32
  0
VERTEX
  8
0
  5
21BB
 10
8.81884
 20
2.81485
 30
0.000000
  70
    32
  0
VERTEX
  8
0
  5
21BC
 10
8.81880
 20
2.81487
 30
0.000000
  70
    32
  0
VERTEX
  8
0
  5
21BD
 10
8.81876
 20
2.81488
 30
0.000000
  70
    32
  0
VERTEX
  8
0
  5
21BE
 10
8.81872
 20
2.81490
 30
0.000000
  70
    32
  0
VERTEX
  8
0
  5
21BF
 10
8.81867
 20
2.81492
 30
0.000000
  70
    32
  0
VERTEX
  8
0
  5
21C0
 10
8.81863
 20
2.81493
 30
0.000000
  70
    32
  0
VERTEX
  8
0
  5
21C1
 10
8.81859
 20
2.81495
 30
0.000000
  70
    32
  0
VERTEX
  8
0
  5
21C2
 10
8.81855
 20
2.81496
 30
0.000000
  70
    32
  0
VERTEX
  8
0
  5
21C3
 10
8.81850
 20
2.81498
 30
0.000000
  70
    32
  0
VERTEX
  8
0
  5
21C4
 10
8.81846
 20
2.81499
 30
0.000000
  70
    32
  0
VERTEX
  8
0
  5
21C5
 10
8.81842
 20
2.81501
 30
0.000000
  70
    32
  0
VERTEX
  8
0
  5
21C6
 10
8.81837
 20
2.81502
 30
0.000000
  70
    32
  0
VERTEX
  8
0
  5
21C7
 10
8.81833
 20
2.81503
 30
0.000000
  70
    32
  0
VERTEX
  8
0
  5
21C8
 10
8.81829
 20
2.81505
 30
0.000000
  70
    32
  0
VERTEX
  8
0
  5
21C9
 10
8.81824
 20
2.81506
 30
0.000000
  70
    32
  0
VERTEX
  8
0
  5
21CA
 10
8.81820
 20
2.81507
 30
0.000000
  70
    32
  0
VERTEX
  8
0
  5
21CB
 10
8.81816
 20
2.81509
 30
0.000000
  70
    32
  0
VERTEX
  8
0
  5
21CC
 10
8.81811
 20
2.81510
 30
0.000000
  70
    32
  0
VERTEX
  8
0
  5
21CD
 10
8.81807
 20
2.81511
 30
0.000000
  70
    32
  0
VERTEX
  8
0
  5
21CE
 10
8.81803
 20
2.81512
 30
0.000000
  70
    32
  0
VERTEX
  8
0
  5
21CF
 10
8.81798
 20
2.81514
 30
0.000000
  70
    32
  0
VERTEX
  8
0
  5
21D0
 10
8.81794
 20
2.81515
 30
0.000000
  70
    32
  0
VERTEX
  8
0
  5
21D1
 10
8.81790
 20
2.81516
 30
0.000000
  70
    32
  0
VERTEX
  8
0
  5
21D2
 10
8.81785
 20
2.81517
 30
0.000000
  70
    32
  0
VERTEX
  8
0
  5
21D3
 10
8.81781
 20
2.81518
 30
0.000000
  70
    32
  0
VERTEX
  8
0
  5
21D4
 10
8.81776
 20
2.81519
 30
0.000000
  70
    32
  0
VERTEX
  8
0
  5
21D5
 10
8.81772
 20
2.81520
 30
0.000000
  70
    32
  0
VERTEX
  8
0
  5
21D6
 10
8.81768
 20
2.81521
 30
0.000000
  70
    32
  0
VERTEX
  8
0
  5
21D7
 10
8.81763
 20
2.81522
 30
0.000000
  70
    32
  0
VERTEX
  8
0
  5
21D8
 10
8.81759
 20
2.81523
 30
0.000000
  70
    32
  0
VERTEX
  8
0
  5
21D9
 10
8.81754
 20
2.81524
 30
0.000000
  70
    32
  0
VERTEX
  8
0
  5
21DA
 10
8.81750
 20
2.81525
 30
0.000000
  70
    32
  0
VERTEX
  8
0
  5
21DB
 10
8.81745
 20
2.81526
 30
0.000000
  70
    32
  0
VERTEX
  8
0
  5
21DC
 10
8.81741
 20
2.81527
 30
0.000000
  70
    32
  0
VERTEX
  8
0
  5
21DD
 10
8.81737
 20
2.81528
 30
0.000000
  70
    32
  0
VERTEX
  8
0
  5
21DE
 10
8.81732
 20
2.81529
 30
0.000000
  70
    32
  0
VERTEX
  8
0
  5
21DF
 10
8.81728
 20
2.81530
 30
0.000000
  70
    32
  0
VERTEX
  8
0
  5
21E0
 10
8.81723
 20
2.81531
 30
0.000000
  70
    32
  0
VERTEX
  8
0
  5
21E1
 10
8.81719
 20
2.81531
 30
0.000000
  70
    32
  0
VERTEX
  8
0
  5
21E2
 10
8.81714
 20
2.81532
 30
0.000000
  70
    32
  0
VERTEX
  8
0
  5
21E3
 10
8.81710
 20
2.81533
 30
0.000000
  70
    32
  0
VERTEX
  8
0
  5
21E4
 10
8.81705
 20
2.81534
 30
0.000000
  70
    32
  0
VERTEX
  8
0
  5
21E5
 10
8.81701
 20
2.81535
 30
0.000000
  70
    32
  0
VERTEX
  8
0
  5
21E6
 10
8.81696
 20
2.81535
 30
0.000000
  70
    32
  0
VERTEX
  8
0
  5
21E7
 10
8.81692
 20
2.81536
 30
0.000000
  70
    32
  0
VERTEX
  8
0
  5
21E8
 10
8.81687
 20
2.81537
 30
0.000000
  70
    32
  0
VERTEX
  8
0
  5
21E9
 10
8.81683
 20
2.81538
 30
0.000000
  70
    32
  0
VERTEX
  8
0
  5
21EA
 10
8.81678
 20
2.81538
 30
0.000000
  70
    32
  0
VERTEX
  8
0
  5
21EB
 10
8.81674
 20
2.81539
 30
0.000000
  70
    32
  0
VERTEX
  8
0
  5
21EC
 10
8.81669
 20
2.81540
 30
0.000000
  70
    32
  0
VERTEX
  8
0
  5
21ED
 10
8.81665
 20
2.81540
 30
0.000000
  70
    32
  0
VERTEX
  8
0
  5
21EE
 10
8.81660
 20
2.81541
 30
0.000000
  70
    32
  0
VERTEX
  8
0
  5
21EF
 10
8.81656
 20
2.81542
 30
0.000000
  70
    32
  0
VERTEX
  8
0
  5
21F0
 10
8.81651
 20
2.81542
 30
0.000000
  70
    32
  0
VERTEX
  8
0
  5
21F1
 10
8.81647
 20
2.81543
 30
0.000000
  70
    32
  0
VERTEX
  8
0
  5
21F2
 10
8.81642
 20
2.81543
 30
0.000000
  70
    32
  0
VERTEX
  8
0
  5
21F3
 10
8.81638
 20
2.81544
 30
0.000000
  70
    32
  0
VERTEX
  8
0
  5
21F4
 10
8.81633
 20
2.81545
 30
0.000000
  70
    32
  0
VERTEX
  8
0
  5
21F5
 10
8.81629
 20
2.81545
 30
0.000000
  70
    32
  0
VERTEX
  8
0
  5
21F6
 10
8.81624
 20
2.81546
 30
0.000000
  70
    32
  0
VERTEX
  8
0
  5
21F7
 10
8.81620
 20
2.81546
 30
0.000000
  70
    32
  0
VERTEX
  8
0
  5
21F8
 10
8.81615
 20
2.81547
 30
0.000000
  70
    32
  0
VERTEX
  8
0
  5
21F9
 10
8.81610
 20
2.81547
 30
0.000000
  70
    32
  0
VERTEX
  8
0
  5
21FA
 10
8.81606
 20
2.81548
 30
0.000000
  70
    32
  0
VERTEX
  8
0
  5
21FB
 10
8.81601
 20
2.81548
 30
0.000000
  70
    32
  0
VERTEX
  8
0
  5
21FC
 10
8.81597
 20
2.81549
 30
0.000000
  70
    32
  0
VERTEX
  8
0
  5
21FD
 10
8.81592
 20
2.81550
 30
0.000000
  70
    32
  0
VERTEX
  8
0
  5
21FE
 10
8.81588
 20
2.81550
 30
0.000000
  70
    32
  0
VERTEX
  8
0
  5
21FF
 10
8.81583
 20
2.81551
 30
0.000000
  70
    32
  0
VERTEX
  8
0
  5
2200
 10
8.81579
 20
2.81551
 30
0.000000
  70
    32
  0
VERTEX
  8
0
  5
2201
 10
8.81574
 20
2.81552
 30
0.000000
  70
    32
  0
VERTEX
  8
0
  5
2202
 10
8.81569
 20
2.81552
 30
0.000000
  70
    32
  0
VERTEX
  8
0
  5
2203
 10
8.81565
 20
2.81553
 30
0.000000
  70
    32
  0
VERTEX
  8
0
  5
2204
 10
8.81560
 20
2.81553
 30
0.000000
  70
    32
  0
VERTEX
  8
0
  5
2205
 10
8.81556
 20
2.81553
 30
0.000000
  70
    32
  0
VERTEX
  8
0
  5
2206
 10
8.81551
 20
2.81554
 30
0.000000
  70
    32
  0
VERTEX
  8
0
  5
2207
 10
8.81547
 20
2.81554
 30
0.000000
  70
    32
  0
VERTEX
  8
0
  5
2208
 10
8.81542
 20
2.81555
 30
0.000000
  70
    32
  0
VERTEX
  8
0
  5
2209
 10
8.81538
 20
2.81555
 30
0.000000
  70
    32
  0
VERTEX
  8
0
  5
220A
 10
8.81533
 20
2.81556
 30
0.000000
  70
    32
  0
VERTEX
  8
0
  5
220B
 10
8.81528
 20
2.81556
 30
0.000000
  70
    32
  0
VERTEX
  8
0
  5
220C
 10
8.81524
 20
2.81557
 30
0.000000
  70
    32
  0
SEQEND
  8
0
  5
220D
  0
POLYLINE
  8
0
  5
220E
  62
7
  66
     1
 10
0.000000
 20
0.000000
 30
0.000000
  70
     8
  0
VERTEX
  8
0
  5
220F
 10
8.69367
 20
2.81557
 30
0.000000
  70
    32
  0
VERTEX
  8
0
  5
2210
 10
8.69363
 20
2.81557
 30
0.000000
  70
    32
  0
VERTEX
  8
0
  5
2211
 10
8.69358
 20
2.81556
 30
0.000000
  70
    32
  0
VERTEX
  8
0
  5
2212
 10
8.69354
 20
2.81556
 30
0.000000
  70
    32
  0
VERTEX
  8
0
  5
2213
 10
8.69349
 20
2.81556
 30
0.000000
  70
    32
  0
VERTEX
  8
0
  5
2214
 10
8.69344
 20
2.81556
 30
0.000000
  70
    32
  0
VERTEX
  8
0
  5
2215
 10
8.69340
 20
2.81556
 30
0.000000
  70
    32
  0
VERTEX
  8
0
  5
2216
 10
8.69335
 20
2.81556
 30
0.000000
  70
    32
  0
VERTEX
  8
0
  5
2217
 10
8.69331
 20
2.81555
 30
0.000000
  70
    32
  0
VERTEX
  8
0
  5
2218
 10
8.69326
 20
2.81555
 30
0.000000
  70
    32
  0
VERTEX
  8
0
  5
2219
 10
8.69322
 20
2.81555
 30
0.000000
  70
    32
  0
VERTEX
  8
0
  5
221A
 10
8.69317
 20
2.81555
 30
0.000000
  70
    32
  0
VERTEX
  8
0
  5
221B
 10
8.69312
 20
2.81554
 30
0.000000
  70
    32
  0
VERTEX
  8
0
  5
221C
 10
8.69308
 20
2.81554
 30
0.000000
  70
    32
  0
VERTEX
  8
0
  5
221D
 10
8.69303
 20
2.81554
 30
0.000000
  70
    32
  0
VERTEX
  8
0
  5
221E
 10
8.69299
 20
2.81554
 30
0.000000
  70
    32
  0
VERTEX
  8
0
  5
221F
 10
8.69294
 20
2.81553
 30
0.000000
  70
    32
  0
VERTEX
  8
0
  5
2220
 10
8.69290
 20
2.81553
 30
0.000000
  70
    32
  0
VERTEX
  8
0
  5
2221
 10
8.69285
 20
2.81553
 30
0.000000
  70
    32
  0
VERTEX
  8
0
  5
2222
 10
8.69281
 20
2.81552
 30
0.000000
  70
    32
  0
VERTEX
  8
0
  5
2223
 10
8.69276
 20
2.81552
 30
0.000000
  70
    32
  0
VERTEX
  8
0
  5
2224
 10
8.69272
 20
2.81552
 30
0.000000
  70
    32
  0
VERTEX
  8
0
  5
2225
 10
8.69267
 20
2.81551
 30
0.000000
  70
    32
  0
VERTEX
  8
0
  5
2226
 10
8.69262
 20
2.81551
 30
0.000000
  70
    32
  0
VERTEX
  8
0
  5
2227
 10
8.69258
 20
2.81550
 30
0.000000
  70
    32
  0
VERTEX
  8
0
  5
2228
 10
8.69253
 20
2.81550
 30
0.000000
  70
    32
  0
VERTEX
  8
0
  5
2229
 10
8.69249
 20
2.81549
 30
0.000000
  70
    32
  0
VERTEX
  8
0
  5
222A
 10
8.69244
 20
2.81549
 30
0.000000
  70
    32
  0
VERTEX
  8
0
  5
222B
 10
8.69240
 20
2.81548
 30
0.000000
  70
    32
  0
VERTEX
  8
0
  5
222C
 10
8.69235
 20
2.81548
 30
0.000000
  70
    32
  0
VERTEX
  8
0
  5
222D
 10
8.69231
 20
2.81547
 30
0.000000
  70
    32
  0
VERTEX
  8
0
  5
222E
 10
8.69226
 20
2.81546
 30
0.000000
  70
    32
  0
VERTEX
  8
0
  5
222F
 10
8.69222
 20
2.81546
 30
0.000000
  70
    32
  0
VERTEX
  8
0
  5
2230
 10
8.69217
 20
2.81545
 30
0.000000
  70
    32
  0
VERTEX
  8
0
  5
2231
 10
8.69213
 20
2.81544
 30
0.000000
  70
    32
  0
VERTEX
  8
0
  5
2232
 10
8.69208
 20
2.81544
 30
0.000000
  70
    32
  0
VERTEX
  8
0
  5
2233
 10
8.69204
 20
2.81543
 30
0.000000
  70
    32
  0
VERTEX
  8
0
  5
2234
 10
8.69199
 20
2.81542
 30
0.000000
  70
    32
  0
VERTEX
  8
0
  5
2235
 10
8.69195
 20
2.81541
 30
0.000000
  70
    32
  0
VERTEX
  8
0
  5
2236
 10
8.69190
 20
2.81540
 30
0.000000
  70
    32
  0
VERTEX
  8
0
  5
2237
 10
8.69186
 20
2.81540
 30
0.000000
  70
    32
  0
VERTEX
  8
0
  5
2238
 10
8.69182
 20
2.81539
 30
0.000000
  70
    32
  0
VERTEX
  8
0
  5
2239
 10
8.69177
 20
2.81538
 30
0.000000
  70
    32
  0
VERTEX
  8
0
  5
223A
 10
8.69173
 20
2.81537
 30
0.000000
  70
    32
  0
VERTEX
  8
0
  5
223B
 10
8.69168
 20
2.81536
 30
0.000000
  70
    32
  0
VERTEX
  8
0
  5
223C
 10
8.69164
 20
2.81535
 30
0.000000
  70
    32
  0
VERTEX
  8
0
  5
223D
 10
8.69159
 20
2.81534
 30
0.000000
  70
    32
  0
VERTEX
  8
0
  5
223E
 10
8.69155
 20
2.81533
 30
0.000000
  70
    32
  0
VERTEX
  8
0
  5
223F
 10
8.69150
 20
2.81532
 30
0.000000
  70
    32
  0
VERTEX
  8
0
  5
2240
 10
8.69146
 20
2.81531
 30
0.000000
  70
    32
  0
VERTEX
  8
0
  5
2241
 10
8.69142
 20
2.81530
 30
0.000000
  70
    32
  0
VERTEX
  8
0
  5
2242
 10
8.69137
 20
2.81528
 30
0.000000
  70
    32
  0
VERTEX
  8
0
  5
2243
 10
8.69133
 20
2.81527
 30
0.000000
  70
    32
  0
VERTEX
  8
0
  5
2244
 10
8.69128
 20
2.81526
 30
0.000000
  70
    32
  0
VERTEX
  8
0
  5
2245
 10
8.69124
 20
2.81525
 30
0.000000
  70
    32
  0
VERTEX
  8
0
  5
2246
 10
8.69120
 20
2.81524
 30
0.000000
  70
    32
  0
VERTEX
  8
0
  5
2247
 10
8.69115
 20
2.81523
 30
0.000000
  70
    32
  0
VERTEX
  8
0
  5
2248
 10
8.69111
 20
2.81521
 30
0.000000
  70
    32
  0
VERTEX
  8
0
  5
2249
 10
8.69106
 20
2.81520
 30
0.000000
  70
    32
  0
VERTEX
  8
0
  5
224A
 10
8.69102
 20
2.81519
 30
0.000000
  70
    32
  0
VERTEX
  8
0
  5
224B
 10
8.69098
 20
2.81517
 30
0.000000
  70
    32
  0
VERTEX
  8
0
  5
224C
 10
8.69093
 20
2.81516
 30
0.000000
  70
    32
  0
VERTEX
  8
0
  5
224D
 10
8.69089
 20
2.81515
 30
0.000000
  70
    32
  0
VERTEX
  8
0
  5
224E
 10
8.69085
 20
2.81513
 30
0.000000
  70
    32
  0
VERTEX
  8
0
  5
224F
 10
8.69080
 20
2.81512
 30
0.000000
  70
    32
  0
VERTEX
  8
0
  5
2250
 10
8.69076
 20
2.81510
 30
0.000000
  70
    32
  0
VERTEX
  8
0
  5
2251
 10
8.69072
 20
2.81509
 30
0.000000
  70
    32
  0
VERTEX
  8
0
  5
2252
 10
8.69067
 20
2.81507
 30
0.000000
  70
    32
  0
VERTEX
  8
0
  5
2253
 10
8.69063
 20
2.81506
 30
0.000000
  70
    32
  0
VERTEX
  8
0
  5
2254
 10
8.69059
 20
2.81504
 30
0.000000
  70
    32
  0
VERTEX
  8
0
  5
2255
 10
8.69054
 20
2.81503
 30
0.000000
  70
    32
  0
VERTEX
  8
0
  5
2256
 10
8.69050
 20
2.81501
 30
0.000000
  70
    32
  0
VERTEX
  8
0
  5
2257
 10
8.69046
 20
2.81500
 30
0.000000
  70
    32
  0
VERTEX
  8
0
  5
2258
 10
8.69042
 20
2.81498
 30
0.000000
  70
    32
  0
VERTEX
  8
0
  5
2259
 10
8.69037
 20
2.81496
 30
0.000000
  70
    32
  0
VERTEX
  8
0
  5
225A
 10
8.69033
 20
2.81495
 30
0.000000
  70
    32
  0
VERTEX
  8
0
  5
225B
 10
8.69029
 20
2.81493
 30
0.000000
  70
    32
  0
VERTEX
  8
0
  5
225C
 10
8.69024
 20
2.81491
 30
0.000000
  70
    32
  0
VERTEX
  8
0
  5
225D
 10
8.69020
 20
2.81490
 30
0.000000
  70
    32
  0
VERTEX
  8
0
  5
225E
 10
8.69016
 20
2.81488
 30
0.000000
  70
    32
  0
VERTEX
  8
0
  5
225F
 10
8.69012
 20
2.81486
 30
0.000000
  70
    32
  0
VERTEX
  8
0
  5
2260
 10
8.69007
 20
2.81484
 30
0.000000
  70
    32
  0
VERTEX
  8
0
  5
2261
 10
8.69003
 20
2.81483
 30
0.000000
  70
    32
  0
VERTEX
  8
0
  5
2262
 10
8.68999
 20
2.81481
 30
0.000000
  70
    32
  0
VERTEX
  8
0
  5
2263
 10
8.68995
 20
2.81479
 30
0.000000
  70
    32
  0
VERTEX
  8
0
  5
2264
 10
8.68991
 20
2.81477
 30
0.000000
  70
    32
  0
VERTEX
  8
0
  5
2265
 10
8.68986
 20
2.81475
 30
0.000000
  70
    32
  0
VERTEX
  8
0
  5
2266
 10
8.68982
 20
2.81473
 30
0.000000
  70
    32
  0
VERTEX
  8
0
  5
2267
 10
8.68978
 20
2.81471
 30
0.000000
  70
    32
  0
VERTEX
  8
0
  5
2268
 10
8.68974
 20
2.81469
 30
0.000000
  70
    32
  0
VERTEX
  8
0
  5
2269
 10
8.68970
 20
2.81467
 30
0.000000
  70
    32
  0
VERTEX
  8
0
  5
226A
 10
8.68965
 20
2.81465
 30
0.000000
  70
    32
  0
VERTEX
  8
0
  5
226B
 10
8.68961
 20
2.81463
 30
0.000000
  70
    32
  0
VERTEX
  8
0
  5
226C
 10
8.68957
 20
2.81461
 30
0.000000
  70
    32
  0
VERTEX
  8
0
  5
226D
 10
8.68953
 20
2.81459
 30
0.000000
  70
    32
  0
VERTEX
  8
0
  5
226E
 10
8.68949
 20
2.81457
 30
0.000000
  70
    32
  0
VERTEX
  8
0
  5
226F
 10
8.68945
 20
2.81455
 30
0.000000
  70
    32
  0
VERTEX
  8
0
  5
2270
 10
8.68940
 20
2.81453
 30
0.000000
  70
    32
  0
VERTEX
  8
0
  5
2271
 10
8.68936
 20
2.81451
 30
0.000000
  70
    32
  0
VERTEX
  8
0
  5
2272
 10
8.68932
 20
2.81449
 30
0.000000
  70
    32
  0
VERTEX
  8
0
  5
2273
 10
8.68928
 20
2.81447
 30
0.000000
  70
    32
  0
VERTEX
  8
0
  5
2274
 10
8.68924
 20
2.81445
 30
0.000000
  70
    32
  0
VERTEX
  8
0
  5
2275
 10
8.68920
 20
2.81442
 30
0.000000
  70
    32
  0
VERTEX
  8
0
  5
2276
 10
8.68916
 20
2.81440
 30
0.000000
  70
    32
  0
VERTEX
  8
0
  5
2277
 10
8.68912
 20
2.81438
 30
0.000000
  70
    32
  0
VERTEX
  8
0
  5
2278
 10
8.68908
 20
2.81436
 30
0.000000
  70
    32
  0
VERTEX
  8
0
  5
2279
 10
8.68904
 20
2.81433
 30
0.000000
  70
    32
  0
VERTEX
  8
0
  5
227A
 10
8.68900
 20
2.81431
 30
0.000000
  70
    32
  0
VERTEX
  8
0
  5
227B
 10
8.68895
 20
2.81429
 30
0.000000
  70
    32
  0
VERTEX
  8
0
  5
227C
 10
8.68891
 20
2.81426
 30
0.000000
  70
    32
  0
VERTEX
  8
0
  5
227D
 10
8.68887
 20
2.81424
 30
0.000000
  70
    32
  0
VERTEX
  8
0
  5
227E
 10
8.68883
 20
2.81422
 30
0.000000
  70
    32
  0
VERTEX
  8
0
  5
227F
 10
8.68879
 20
2.81419
 30
0.000000
  70
    32
  0
VERTEX
  8
0
  5
2280
 10
8.68875
 20
2.81417
 30
0.000000
  70
    32
  0
VERTEX
  8
0
  5
2281
 10
8.68871
 20
2.81414
 30
0.000000
  70
    32
  0
VERTEX
  8
0
  5
2282
 10
8.68867
 20
2.81412
 30
0.000000
  70
    32
  0
VERTEX
  8
0
  5
2283
 10
8.68863
 20
2.81410
 30
0.000000
  70
    32
  0
VERTEX
  8
0
  5
2284
 10
8.68860
 20
2.81407
 30
0.000000
  70
    32
  0
VERTEX
  8
0
  5
2285
 10
8.68856
 20
2.81405
 30
0.000000
  70
    32
  0
VERTEX
  8
0
  5
2286
 10
8.68852
 20
2.81402
 30
0.000000
  70
    32
  0
VERTEX
  8
0
  5
2287
 10
8.68848
 20
2.81399
 30
0.000000
  70
    32
  0
VERTEX
  8
0
  5
2288
 10
8.68844
 20
2.81397
 30
0.000000
  70
    32
  0
VERTEX
  8
0
  5
2289
 10
8.68840
 20
2.81394
 30
0.000000
  70
    32
  0
VERTEX
  8
0
  5
228A
 10
8.68836
 20
2.81392
 30
0.000000
  70
    32
  0
VERTEX
  8
0
  5
228B
 10
8.68832
 20
2.81389
 30
0.000000
  70
    32
  0
VERTEX
  8
0
  5
228C
 10
8.68828
 20
2.81386
 30
0.000000
  70
    32
  0
VERTEX
  8
0
  5
228D
 10
8.68825
 20
2.81384
 30
0.000000
  70
    32
  0
VERTEX
  8
0
  5
228E
 10
8.68821
 20
2.81381
 30
0.000000
  70
    32
  0
VERTEX
  8
0
  5
228F
 10
8.68817
 20
2.81378
 30
0.000000
  70
    32
  0
VERTEX
  8
0
  5
2290
 10
8.68813
 20
2.81375
 30
0.000000
  70
    32
  0
VERTEX
  8
0
  5
2291
 10
8.68809
 20
2.81373
 30
0.000000
  70
    32
  0
VERTEX
  8
0
  5
2292
 10
8.68805
 20
2.81370
 30
0.000000
  70
    32
  0
VERTEX
  8
0
  5
2293
 10
8.68802
 20
2.81367
 30
0.000000
  70
    32
  0
VERTEX
  8
0
  5
2294
 10
8.68798
 20
2.81364
 30
0.000000
  70
    32
  0
VERTEX
  8
0
  5
2295
 10
8.68794
 20
2.81361
 30
0.000000
  70
    32
  0
VERTEX
  8
0
  5
2296
 10
8.68791
 20
2.81358
 30
0.000000
  70
    32
  0
VERTEX
  8
0
  5
2297
 10
8.68787
 20
2.81355
 30
0.000000
  70
    32
  0
VERTEX
  8
0
  5
2298
 10
8.68783
 20
2.81352
 30
0.000000
  70
    32
  0
VERTEX
  8
0
  5
2299
 10
8.68779
 20
2.81349
 30
0.000000
  70
    32
  0
VERTEX
  8
0
  5
229A
 10
8.68776
 20
2.81346
 30
0.000000
  70
    32
  0
VERTEX
  8
0
  5
229B
 10
8.68772
 20
2.81343
 30
0.000000
  70
    32
  0
VERTEX
  8
0
  5
229C
 10
8.68769
 20
2.81340
 30
0.000000
  70
    32
  0
VERTEX
  8
0
  5
229D
 10
8.68765
 20
2.81337
 30
0.000000
  70
    32
  0
VERTEX
  8
0
  5
229E
 10
8.68761
 20
2.81334
 30
0.000000
  70
    32
  0
VERTEX
  8
0
  5
229F
 10
8.68758
 20
2.81331
 30
0.000000
  70
    32
  0
VERTEX
  8
0
  5
22A0
 10
8.68754
 20
2.81328
 30
0.000000
  70
    32
  0
VERTEX
  8
0
  5
22A1
 10
8.68751
 20
2.81325
 30
0.000000
  70
    32
  0
VERTEX
  8
0
  5
22A2
 10
8.68747
 20
2.81322
 30
0.000000
  70
    32
  0
VERTEX
  8
0
  5
22A3
 10
8.68744
 20
2.81318
 30
0.000000
  70
    32
  0
VERTEX
  8
0
  5
22A4
 10
8.68740
 20
2.81315
 30
0.000000
  70
    32
  0
VERTEX
  8
0
  5
22A5
 10
8.68737
 20
2.81312
 30
0.000000
  70
    32
  0
VERTEX
  8
0
  5
22A6
 10
8.68733
 20
2.81309
 30
0.000000
  70
    32
  0
VERTEX
  8
0
  5
22A7
 10
8.68730
 20
2.81305
 30
0.000000
  70
    32
  0
VERTEX
  8
0
  5
22A8
 10
8.68726
 20
2.81302
 30
0.000000
  70
    32
  0
VERTEX
  8
0
  5
22A9
 10
8.68723
 20
2.81299
 30
0.000000
  70
    32
  0
VERTEX
  8
0
  5
22AA
 10
8.68720
 20
2.81295
 30
0.000000
  70
    32
  0
VERTEX
  8
0
  5
22AB
 10
8.68716
 20
2.81292
 30
0.000000
  70
    32
  0
VERTEX
  8
0
  5
22AC
 10
8.68713
 20
2.81288
 30
0.000000
  70
    32
  0
VERTEX
  8
0
  5
22AD
 10
8.68710
 20
2.81285
 30
0.000000
  70
    32
  0
VERTEX
  8
0
  5
22AE
 10
8.68706
 20
2.81281
 30
0.000000
  70
    32
  0
VERTEX
  8
0
  5
22AF
 10
8.68703
 20
2.81278
 30
0.000000
  70
    32
  0
VERTEX
  8
0
  5
22B0
 10
8.68700
 20
2.81274
 30
0.000000
  70
    32
  0
VERTEX
  8
0
  5
22B1
 10
8.68697
 20
2.81271
 30
0.000000
  70
    32
  0
VERTEX
  8
0
  5
22B2
 10
8.68693
 20
2.81267
 30
0.000000
  70
    32
  0
VERTEX
  8
0
  5
22B3
 10
8.68690
 20
2.81263
 30
0.000000
  70
    32
  0
VERTEX
  8
0
  5
22B4
 10
8.68687
 20
2.81260
 30
0.000000
  70
    32
  0
VERTEX
  8
0
  5
22B5
 10
8.68684
 20
2.81256
 30
0.000000
  70
    32
  0
VERTEX
  8
0
  5
22B6
 10
8.68681
 20
2.81252
 30
0.000000
  70
    32
  0
VERTEX
  8
0
  5
22B7
 10
8.68678
 20
2.81249
 30
0.000000
  70
    32
  0
VERTEX
  8
0
  5
22B8
 10
8.68674
 20
2.81245
 30
0.000000
  70
    32
  0
VERTEX
  8
0
  5
22B9
 10
8.68671
 20
2.81241
 30
0.000000
  70
    32
  0
VERTEX
  8
0
  5
22BA
 10
8.68668
 20
2.81237
 30
0.000000
  70
    32
  0
VERTEX
  8
0
  5
22BB
 10
8.68665
 20
2.81234
 30
0.000000
  70
    32
  0
VERTEX
  8
0
  5
22BC
 10
8.68662
 20
2.81230
 30
0.000000
  70
    32
  0
VERTEX
  8
0
  5
22BD
 10
8.68659
 20
2.81226
 30
0.000000
  70
    32
  0
VERTEX
  8
0
  5
22BE
 10
8.68656
 20
2.81222
 30
0.000000
  70
    32
  0
VERTEX
  8
0
  5
22BF
 10
8.68653
 20
2.81218
 30
0.000000
  70
    32
  0
VERTEX
  8
0
  5
22C0
 10
8.68650
 20
2.81214
 30
0.000000
  70
    32
  0
VERTEX
  8
0
  5
22C1
 10
8.68647
 20
2.81210
 30
0.000000
  70
    32
  0
VERTEX
  8
0
  5
22C2
 10
8.68644
 20
2.81206
 30
0.000000
  70
    32
  0
VERTEX
  8
0
  5
22C3
 10
8.68641
 20
2.81202
 30
0.000000
  70
    32
  0
VERTEX
  8
0
  5
22C4
 10
8.68639
 20
2.81198
 30
0.000000
  70
    32
  0
VERTEX
  8
0
  5
22C5
 10
8.68636
 20
2.81194
 30
0.000000
  70
    32
  0
VERTEX
  8
0
  5
22C6
 10
8.68633
 20
2.81190
 30
0.000000
  70
    32
  0
VERTEX
  8
0
  5
22C7
 10
8.68630
 20
2.81186
 30
0.000000
  70
    32
  0
VERTEX
  8
0
  5
22C8
 10
8.68627
 20
2.81182
 30
0.000000
  70
    32
  0
VERTEX
  8
0
  5
22C9
 10
8.68624
 20
2.81178
 30
0.000000
  70
    32
  0
VERTEX
  8
0
  5
22CA
 10
8.68621
 20
2.81174
 30
0.000000
  70
    32
  0
VERTEX
  8
0
  5
22CB
 10
8.68618
 20
2.81170
 30
0.000000
  70
    32
  0
VERTEX
  8
0
  5
22CC
 10
8.68616
 20
2.81166
 30
0.000000
  70
    32
  0
VERTEX
  8
0
  5
22CD
 10
8.68613
 20
2.81162
 30
0.000000
  70
    32
  0
VERTEX
  8
0
  5
22CE
 10
8.68610
 20
2.81158
 30
0.000000
  70
    32
  0
VERTEX
  8
0
  5
22CF
 10
8.68607
 20
2.81153
 30
0.000000
  70
    32
  0
VERTEX
  8
0
  5
22D0
 10
8.68605
 20
2.81149
 30
0.000000
  70
    32
  0
VERTEX
  8
0
  5
22D1
 10
8.68602
 20
2.81145
 30
0.000000
  70
    32
  0
VERTEX
  8
0
  5
22D2
 10
8.68599
 20
2.81141
 30
0.000000
  70
    32
  0
VERTEX
  8
0
  5
22D3
 10
8.68596
 20
2.81137
 30
0.000000
  70
    32
  0
VERTEX
  8
0
  5
22D4
 10
8.68594
 20
2.81132
 30
0.000000
  70
    32
  0
VERTEX
  8
0
  5
22D5
 10
8.68591
 20
2.81128
 30
0.000000
  70
    32
  0
VERTEX
  8
0
  5
22D6
 10
8.68588
 20
2.81124
 30
0.000000
  70
    32
  0
VERTEX
  8
0
  5
22D7
 10
8.68585
 20
2.81120
 30
0.000000
  70
    32
  0
VERTEX
  8
0
  5
22D8
 10
8.68583
 20
2.81115
 30
0.000000
  70
    32
  0
VERTEX
  8
0
  5
22D9
 10
8.68580
 20
2.81111
 30
0.000000
  70
    32
  0
VERTEX
  8
0
  5
22DA
 10
8.68577
 20
2.81107
 30
0.000000
  70
    32
  0
VERTEX
  8
0
  5
22DB
 10
8.68575
 20
2.81103
 30
0.000000
  70
    32
  0
VERTEX
  8
0
  5
22DC
 10
8.68572
 20
2.81098
 30
0.000000
  70
    32
  0
VERTEX
  8
0
  5
22DD
 10
8.68569
 20
2.81094
 30
0.000000
  70
    32
  0
VERTEX
  8
0
  5
22DE
 10
8.68567
 20
2.81090
 30
0.000000
  70
    32
  0
VERTEX
  8
0
  5
22DF
 10
8.68564
 20
2.81085
 30
0.000000
  70
    32
  0
VERTEX
  8
0
  5
22E0
 10
8.68561
 20
2.81081
 30
0.000000
  70
    32
  0
VERTEX
  8
0
  5
22E1
 10
8.68559
 20
2.81077
 30
0.000000
  70
    32
  0
VERTEX
  8
0
  5
22E2
 10
8.68556
 20
2.81072
 30
0.000000
  70
    32
  0
VERTEX
  8
0
  5
22E3
 10
8.68553
 20
2.81068
 30
0.000000
  70
    32
  0
VERTEX
  8
0
  5
22E4
 10
8.68551
 20
2.81064
 30
0.000000
  70
    32
  0
VERTEX
  8
0
  5
22E5
 10
8.68548
 20
2.81059
 30
0.000000
  70
    32
  0
VERTEX
  8
0
  5
22E6
 10
8.68545
 20
2.81055
 30
0.000000
  70
    32
  0
VERTEX
  8
0
  5
22E7
 10
8.68543
 20
2.81050
 30
0.000000
  70
    32
  0
VERTEX
  8
0
  5
22E8
 10
8.68540
 20
2.81046
 30
0.000000
  70
    32
  0
VERTEX
  8
0
  5
22E9
 10
8.68538
 20
2.81042
 30
0.000000
  70
    32
  0
VERTEX
  8
0
  5
22EA
 10
8.68535
 20
2.81037
 30
0.000000
  70
    32
  0
VERTEX
  8
0
  5
22EB
 10
8.68532
 20
2.81033
 30
0.000000
  70
    32
  0
VERTEX
  8
0
  5
22EC
 10
8.68530
 20
2.81029
 30
0.000000
  70
    32
  0
VERTEX
  8
0
  5
22ED
 10
8.68527
 20
2.81024
 30
0.000000
  70
    32
  0
VERTEX
  8
0
  5
22EE
 10
8.68524
 20
2.81020
 30
0.000000
  70
    32
  0
SEQEND
  8
0
  5
22EF
  0
LINE
  5
12E5
  8
0
  6
CONTINUOUS
 62
     7
 10
8.8152385159000008
 20
2.8155684183999989
 30
0.0
 11
8.6936733177000001
 21
2.8155684183999989
 31
0.0
  0
LINE
  5
12E6
  8
0
  6
CONTINUOUS
 62
     7
 10
8.6625055934000006
 20
3.1205684183999991
 30
0.0
 11
8.6669559167999992
 21
3.1205684183999991
 31
0.0
  0
LINE
  5
12E7
  8
0
  6
CONTINUOUS
 62
     7
 10
8.8419559167999981
 20
3.1205684183999991
 30
0.0
 11
8.8464062402000003
 21
3.1205684183999991
 31
0.0
  0
LINE
  5
12EA
  8
0
  6
CONTINUOUS
 62
     7
 10
8.9545856872999998
 20
2.6169469184
 30
0.0
 11
8.5543261462999993
 21
2.6169469184
 31
0.0
  0
LINE
  5
12EF
  8
0
  6
CONTINUOUS
 62
     7
 10
8.4022060935000003
 20
3.0792564183999991
 30
0.0
 11
8.3614070935000004
 21
3.0792564183999991
 31
0.0
  0
LINE
  5
12F0
  8
0
  6
CONTINUOUS
 62
     7
 10
8.4035588638000007
 20
3.1567565783999991
 30
0.0
 11
8.4022060935000003
 21
3.0792564183999991
 31
0.0
  0
LINE
  5
12F1
  8
0
  6
CONTINUOUS
 62
     7
 10
8.4644559167999986
 20
3.1567565783999991
 30
0.0
 11
8.4035588638000007
 21
3.1567565783999991
 31
0.0
  0
LINE
  5
12F2
  8
0
  6
CONTINUOUS
 62
     7
 10
8.4899000457000007
 20
3.1822007072999998
 30
0.0
 11
8.4644559167999986
 21
3.1567565783999991
 31
0.0
  0
LINE
  5
12F3
  8
0
  6
CONTINUOUS
 62
     7
 10
8.4913115996999995
 20
3.2630685783999991
 30
0.0
 11
8.4899000457000007
 21
3.1822007072999998
 31
0.0
  0
LINE
  5
12F4
  8
0
  6
CONTINUOUS
 62
     7
 10
8.4913115996999995
 20
3.2630685783999991
 30
0.0
 11
8.5235727805999986
 21
3.2630685783999991
 31
0.0
  0
LINE
  5
12F6
  8
0
  6
CONTINUOUS
 62
     7
 10
8.3614070935000004
 20
3.0792564183999991
 30
0.0
 11
8.3581777458000008
 21
2.8942472107000001
 31
0.0
  0
LINE
  5
12F9
  8
0
  6
CONTINUOUS
 62
     7
 10
8.9853390529999988
 20
3.2630685783999991
 30
0.0
 11
9.0176002338999997
 21
3.2630685783999991
 31
0.0
  0
LINE
  5
12FA
  8
0
  6
CONTINUOUS
 62
     7
 10
9.0190117879000002
 20
3.1822007072999998
 30
0.0
 11
9.0176002338999997
 21
3.2630685783999991
 31
0.0
  0
LINE
  5
12FB
  8
0
  6
CONTINUOUS
 62
     7
 10
9.0444559167999987
 20
3.1567565783999991
 30
0.0
 11
9.0190117879000002
 21
3.1822007072999998
 31
0.0
  0
LINE
  5
12FC
  8
0
  6
CONTINUOUS
 62
     7
 10
9.1053529697000002
 20
3.1567565783999991
 30
0.0
 11
9.0444559167999987
 21
3.1567565783999991
 31
0.0
  0
LINE
  5
12FD
  8
0
  6
CONTINUOUS
 62
     7
 10
9.1067057401000007
 20
3.0792564183999991
 30
0.0
 11
9.1053529697000002
 21
3.1567565783999991
 31
0.0
  0
LINE
  5
12FE
  8
0
  6
CONTINUOUS
 62
     7
 10
9.1475047401000005
 20
3.0792564183999991
 30
0.0
 11
9.1067057401000007
 21
3.0792564183999991
 31
0.0
  0
LINE
  5
12FF
  8
0
  6
CONTINUOUS
 62
     7
 10
9.1507340878000001
 20
2.8942472107000001
 30
0.0
 11
9.1475047401000005
 21
3.0792564183999991
 31
0.0
  0
LINE
  5
1312
  8
0
  6
CONTINUOUS
 62
     7
 10
8.3794559167999996
 20
3.3281410406999989
 30
0.0
 11
8.3722059167999987
 21
3.3281410406999989
 31
0.0
  0
ARC
  5
1313
  8
0
  6
CONTINUOUS
 62
     7
 10
8.3794559167999996
 20
3.303141040699999
 30
0.0
 40
0.0075000000000003
 50
270.0
 51
0.0
  0
ARC
  5
1314
  8
0
  6
CONTINUOUS
 62
     7
 10
8.3622059167999971
 20
3.2756410407000001
 30
0.0
 40
0.0200000000000005
 50
90.0
 51
180.0
  0
ARC
  5
1315
  8
0
  6
CONTINUOUS
 62
     7
 10
8.3497059167999996
 20
3.2256410406999989
 30
0.0
 40
0.0075000000000003
 50
180.00000000029999
 51
270.0
  0
LINE
  5
1316
  8
0
  6
CONTINUOUS
 62
     7
 10
8.4294559168000003
 20
3.2181410406999991
 30
0.0
 11
8.3497059167999996
 21
3.2181410406999991
 31
0.0
  0
ARC
  5
1317
  8
0
  6
CONTINUOUS
 62
     7
 10
8.4294559168000003
 20
3.2256410406999989
 30
0.0
 40
0.0075000000000003
 50
270.0
 51
0.0
  0
LINE
  5
1318
  8
0
  6
CONTINUOUS
 62
     7
 10
9.0319559167999994
 20
3.3281410406999989
 30
0.0
 11
8.4769559167999997
 21
3.3281410406999989
 31
0.0
  0
ARC
  5
1319
  8
0
  6
CONTINUOUS
 62
     7
 10
9.0794559167999989
 20
3.2256410406999989
 30
0.0
 40
0.0075000000000003
 50
180.0
 51
270.0
  0
LINE
  5
131A
  8
0
  6
CONTINUOUS
 62
     7
 10
9.1592059167999995
 20
3.2181410406999991
 30
0.0
 11
9.0794559167999989
 21
3.2181410406999991
 31
0.0
  0
ARC
  5
131B
  8
0
  6
CONTINUOUS
 62
     7
 10
9.1294559167999996
 20
3.303141040699999
 30
0.0
 40
0.0075000000000003
 50
180.0
 51
270.0
  0
ARC
  5
131C
  8
0
  6
CONTINUOUS
 62
     7
 10
9.1294559167999996
 20
3.3206410406999991
 30
0.0
 40
0.0075000000000003
 50
90.0
 51
180.0
  0
ARC
  5
131D
  8
0
  6
CONTINUOUS
 62
     7
 10
9.1592059167999995
 20
2.8228498566999991
 30
0.0
 40
0.0075000000000003
 50
359.99999999969998
 51
90.0
  0
LINE
  5
131E
  8
0
  6
CONTINUOUS
 62
     7
 10
9.1517059167999992
 20
2.8303498566999998
 30
0.0
 11
9.1517059167999992
 21
2.8941621867
 31
0.0
  0
ARC
  5
131F
  8
0
  6
CONTINUOUS
 62
     7
 10
9.1592059167999995
 20
2.9010346704999992
 30
0.0
 40
0.0075000000000004
 50
265.0
 51
359.99999999969998
  0
ARC
  5
1320
  8
0
  6
CONTINUOUS
 62
     7
 10
9.1592059167999995
 20
3.0906410407
 30
0.0
 40
0.0075000000000003
 50
359.99999999969998
 51
90.0
  0
ARC
  5
1321
  8
0
  6
CONTINUOUS
 62
     7
 10
9.1242059167999994
 20
3.1231410406999989
 30
0.0
 40
0.0075000000000007
 50
90.0
 51
180.0
  0
ARC
  5
1322
  8
0
  6
CONTINUOUS
 62
     7
 10
9.1592059167999995
 20
3.138141040699999
 30
0.0
 40
0.0075000000000003
 50
270.0
 51
359.99999999969998
  0
ARC
  5
1323
  8
0
  6
CONTINUOUS
 62
     7
 10
9.1592059167999995
 20
3.1681410407000001
 30
0.0
 40
0.0075000000000003
 50
359.99999999969998
 51
90.0
  0
LINE
  5
1324
  8
0
  6
CONTINUOUS
 62
     7
 10
9.0294559167999981
 20
3.2781410407
 30
0.0
 11
9.0294559167999981
 21
3.2156410407
 31
0.0
  0
ARC
  5
1325
  8
0
  6
CONTINUOUS
 62
     7
 10
9.0219559167999996
 20
3.2781410407
 30
0.0
 40
0.0075000000000003
 50
0.0
 51
90.0
  0
LINE
  5
1326
  8
0
  6
CONTINUOUS
 62
     7
 10
8.3847059167999998
 20
3.1306410407
 30
0.0
 11
8.3497059167999996
 21
3.1306410407
 31
0.0
  0
ARC
  5
1327
  8
0
  6
CONTINUOUS
 62
     7
 10
8.3497059167999996
 20
2.9010346704999992
 30
0.0
 40
0.0075000000000003
 50
180.00000000029999
 51
275.0
  0
ARC
  5
1328
  8
0
  6
CONTINUOUS
 62
     7
 10
8.3722059167999987
 20
3.2656410406999989
 30
0.0
 40
0.0625000000000004
 50
90.0
 51
180.0
  0
LINE
  5
1329
  8
0
  6
CONTINUOUS
 62
     7
 10
8.3497059167999996
 20
3.1756410406999991
 30
0.0
 11
8.4394559168000001
 21
3.1756410406999991
 31
0.0
  0
ARC
  5
132A
  8
0
  6
CONTINUOUS
 62
     7
 10
8.3497059167999996
 20
3.1681410407000001
 30
0.0
 40
0.0075000000000003
 50
90.0
 51
180.00000000029999
  0
LINE
  5
132B
  8
0
  6
CONTINUOUS
 62
     7
 10
9.0694559167999991
 20
3.1756410406999991
 30
0.0
 11
9.1592059167999995
 21
3.1756410406999991
 31
0.0
  0
ARC
  5
132C
  8
0
  6
CONTINUOUS
 62
     7
 10
8.3497059167999996
 20
2.8228498566999991
 30
0.0
 40
0.0075000000000003
 50
90.0
 51
180.00000000029999
  0
ARC
  5
132D
  8
0
  6
CONTINUOUS
 62
     7
 10
9.1742059168000001
 20
2.639945444899999
 30
0.0
 40
0.0075000000000003
 50
179.99999999970001
 51
312.98588607650009
  0
LINE
  5
132E
  8
0
  6
CONTINUOUS
 62
     7
 10
9.1667059167999998
 20
3.1681410407000001
 30
0.0
 11
9.1667059167999998
 21
3.138141040699999
 31
0.0
  0
ARC
  5
132F
  8
0
  6
CONTINUOUS
 62
     7
 10
8.3794559167999996
 20
3.3206410406999991
 30
0.0
 40
0.0075000000000003
 50
0.0
 51
90.0
  0
LINE
  5
1330
  8
0
  6
CONTINUOUS
 62
     7
 10
8.3497059167999996
 20
3.098141040699999
 30
0.0
 11
8.3847059167999998
 21
3.098141040699999
 31
0.0
  0
LINE
  5
1331
  8
0
  6
CONTINUOUS
 62
     7
 10
8.3922059168000001
 20
3.1056410407000001
 30
0.0
 11
8.3922059168000001
 21
3.1231410406999989
 31
0.0
  0
LINE
  5
1332
  8
0
  6
CONTINUOUS
 62
     7
 10
8.3622059167999971
 20
3.2956410407000001
 30
0.0
 11
8.3794559167999996
 21
3.2956410407000001
 31
0.0
  0
LINE
  5
1333
  8
0
  6
CONTINUOUS
 62
     7
 10
8.3422059167999993
 20
2.639945444899999
 30
0.0
 11
8.3422059167999993
 21
2.8228498566999991
 31
0.0
  0
LINE
  5
1334
  8
0
  6
CONTINUOUS
 62
     7
 10
8.3422059167999993
 20
3.2256410406999989
 30
0.0
 11
8.3422059167999993
 21
3.2756410407000001
 31
0.0
  0
ARC
  5
1335
  8
0
  6
CONTINUOUS
 62
     7
 10
9.1592059167999995
 20
3.2256410406999989
 30
0.0
 40
0.0075000000000003
 50
270.0
 51
359.99999999969998
  0
LINE
  5
1336
  8
0
  6
CONTINUOUS
 62
     7
 10
8.7197972890999988
 20
3.285641040699999
 30
0.0
 11
9.0219559167999996
 21
3.285641040699999
 31
0.0
  0
LINE
  5
1337
  8
0
  6
CONTINUOUS
 62
     7
 10
8.4869559167999995
 20
3.285641040699999
 30
0.0
 11
8.7197972890999988
 21
3.285641040699999
 31
0.0
  0
LINE
  5
1338
  8
0
  6
CONTINUOUS
 62
     7
 10
9.0719559168000004
 20
3.2256410406999989
 30
0.0
 11
9.0719559168000004
 21
3.2881410406999989
 31
0.0
  0
ARC
  5
1339
  8
0
  6
CONTINUOUS
 62
     7
 10
8.3497059167999996
 20
3.138141040699999
 30
0.0
 40
0.0075000000000003
 50
180.00000000029999
 51
270.0
  0
ARC
  5
133A
  8
0
  6
CONTINUOUS
 62
     7
 10
8.3847059167999998
 20
3.1056410407000001
 30
0.0
 40
0.0075000000000003
 50
270.0
 51
0.0
  0
ARC
  5
133B
  8
0
  6
CONTINUOUS
 62
     7
 10
9.1242059167999994
 20
3.1056410407000001
 30
0.0
 40
0.0075000000000003
 50
180.0
 51
270.0
  0
LINE
  5
133C
  8
0
  6
CONTINUOUS
 62
     7
 10
9.1219559167999993
 20
3.303141040699999
 30
0.0
 11
9.1219559167999993
 21
3.3206410406999991
 31
0.0
  0
LINE
  5
133D
  8
0
  6
CONTINUOUS
 62
     7
 10
8.3572059167999981
 20
2.8941621867
 30
0.0
 11
8.3572059167999981
 21
2.8303498566999998
 31
0.0
  0
LINE
  5
133E
  8
0
  6
CONTINUOUS
 62
     7
 10
8.3497059167999996
 20
2.8303498566999998
 30
0.0
 11
8.3572059167999981
 21
2.8303498566999998
 31
0.0
  0
LINE
  5
133F
  8
0
  6
CONTINUOUS
 62
     7
 10
8.4794559167999992
 20
3.2156410407
 30
0.0
 11
8.4794559167999992
 21
3.2781410407
 31
0.0
  0
ARC
  5
1340
  8
0
  6
CONTINUOUS
 62
     7
 10
9.0319559167999994
 20
3.2881410406999989
 30
0.0
 40
0.0400000000000005
 50
0.0
 51
90.0
  0
LINE
  5
1341
  8
0
  6
CONTINUOUS
 62
     7
 10
9.1667059167999998
 20
2.8228498566999991
 30
0.0
 11
9.1667059167999998
 21
2.639945444899999
 31
0.0
  0
ARC
  5
1342
  8
0
  6
CONTINUOUS
 62
     7
 10
9.0694559167999991
 20
3.2156410407
 30
0.0
 40
0.0400000000000009
 50
180.0
 51
270.0
  0
ARC
  5
1343
  8
0
  6
CONTINUOUS
 62
     7
 10
8.4394559168000001
 20
3.2156410407
 30
0.0
 40
0.0400000000000009
 50
270.0
 51
0.0
  0
ARC
  5
1344
  8
0
  6
CONTINUOUS
 62
     7
 10
8.4869559167999995
 20
3.2781410407
 30
0.0
 40
0.0075000000000003
 50
90.0
 51
180.0
  0
LINE
  5
1345
  8
0
  6
CONTINUOUS
 62
     7
 10
8.3422059167999993
 20
2.9010346704999992
 30
0.0
 11
8.3422059167999993
 21
3.0906410407
 31
0.0
  0
LINE
  5
1346
  8
0
  6
CONTINUOUS
 62
     7
 10
8.3572059167999981
 20
2.8941621867
 30
0.0
 11
8.3503595848999996
 21
2.8935632102999991
 31
0.0
  0
LINE
  5
1347
  8
0
  6
CONTINUOUS
 62
     7
 10
9.1585522486999995
 20
2.8935632102999991
 30
0.0
 11
9.1517059167999992
 21
2.8941621867
 31
0.0
  0
LINE
  5
1348
  8
0
  6
CONTINUOUS
 62
     7
 10
9.1992059167999987
 20
2.6801791372000001
 30
0.0
 11
9.1992059167999987
 21
3.2656410406999989
 31
0.0
  0
LINE
  5
1349
  8
0
  6
CONTINUOUS
 62
     7
 10
8.4369559167999988
 20
3.2881410406999989
 30
0.0
 11
8.4369559167999988
 21
3.2256410406999989
 31
0.0
  0
ARC
  5
134A
  8
0
  6
CONTINUOUS
 62
     7
 10
8.3722059167999987
 20
2.6801791372000001
 30
0.0
 40
0.0625
 50
180.0
 51
227.01411392349999
  0
ARC
  5
134B
  8
0
  6
CONTINUOUS
 62
     7
 10
8.4769559167999997
 20
3.2881410406999989
 30
0.0
 40
0.0400000000000005
 50
90.0
 51
180.0
  0
LINE
  5
134C
  8
0
  6
CONTINUOUS
 62
     7
 10
8.3422059167999993
 20
3.138141040699999
 30
0.0
 11
8.3422059167999993
 21
3.1681410407000001
 31
0.0
  0
ARC
  5
134D
  8
0
  6
CONTINUOUS
 62
     7
 10
8.3347059167999991
 20
2.639945444899999
 30
0.0
 40
0.0075000000000003
 50
227.01411392349999
 51
0.0000000003
  0
ARC
  5
134E
  8
0
  6
CONTINUOUS
 62
     7
 10
8.3497059167999996
 20
3.0906410407
 30
0.0
 40
0.0075000000000003
 50
90.0
 51
180.00000000029999
  0
ARC
  5
134F
  8
0
  6
CONTINUOUS
 62
     7
 10
8.3847059167999998
 20
3.1231410406999989
 30
0.0
 40
0.0075000000000007
 50
0.0
 51
90.0
  0
LINE
  5
1350
  8
0
  6
CONTINUOUS
 62
     7
 10
8.3869559167999999
 20
3.3206410406999991
 30
0.0
 11
8.3869559167999999
 21
3.303141040699999
 31
0.0
  0
LINE
  5
1351
  8
0
  6
CONTINUOUS
 62
     7
 10
9.1592059167999995
 20
3.1306410407
 30
0.0
 11
9.1242059167999994
 21
3.1306410407
 31
0.0
  0
LINE
  5
1352
  8
0
  6
CONTINUOUS
 62
     7
 10
9.1242059167999994
 20
3.098141040699999
 30
0.0
 11
9.1592059167999995
 21
3.098141040699999
 31
0.0
  0
ARC
  5
1353
  8
0
  6
CONTINUOUS
 62
     7
 10
9.1367059167999987
 20
2.6801791372000001
 30
0.0
 40
0.0625000000000004
 50
312.98588607650009
 51
0.0
  0
LINE
  5
1354
  8
0
  6
CONTINUOUS
 62
     7
 10
9.1517059167999992
 20
2.8303498566999998
 30
0.0
 11
9.1592059167999995
 21
2.8303498566999998
 31
0.0
  0
LINE
  5
1355
  8
0
  6
CONTINUOUS
 62
     7
 10
9.1167059167999991
 20
3.1231410406999989
 30
0.0
 11
9.1167059167999991
 21
3.1056410407000001
 31
0.0
  0
ARC
  5
1356
  8
0
  6
CONTINUOUS
 62
     7
 10
9.1367059167999987
 20
3.2656410406999989
 30
0.0
 40
0.0625000000000004
 50
0.0
 51
90.0
  0
LINE
  5
1357
  8
0
  6
CONTINUOUS
 62
     7
 10
9.1367059167999987
 20
3.3281410406999989
 30
0.0
 11
9.1294559167999996
 21
3.3281410406999989
 31
0.0
  0
LINE
  5
1358
  8
0
  6
CONTINUOUS
 62
     7
 10
9.1667059167999998
 20
3.0906410407
 30
0.0
 11
9.1667059167999998
 21
2.9010346704999992
 31
0.0
  0
LINE
  5
1359
  8
0
  6
CONTINUOUS
 62
     7
 10
9.1667059167999998
 20
3.2756410407000001
 30
0.0
 11
9.1667059167999998
 21
3.2256410406999989
 31
0.0
  0
ARC
  5
135A
  8
0
  6
CONTINUOUS
 62
     7
 10
9.1467059168000002
 20
3.2756410407000001
 30
0.0
 40
0.0200000000000005
 50
0.0
 51
90.0
  0
LINE
  5
135B
  8
0
  6
CONTINUOUS
 62
     7
 10
9.1294559167999996
 20
3.2956410407000001
 30
0.0
 11
9.1467059168000002
 21
3.2956410407000001
 31
0.0
  0
LINE
  5
135C
  8
0
  6
CONTINUOUS
 62
     7
 10
8.3097059167999987
 20
3.2656410406999989
 30
0.0
 11
8.3097059167999987
 21
2.6801791372000001
 31
0.0
  0
LINE
  5
135D
  8
0
  6
CONTINUOUS
 62
     7
 10
8.3572059167999981
 20
2.8941621867
 30
0.0
 11
8.3581777458000008
 21
2.8942472107000001
 31
0.0
  0
LINE
  5
135E
  8
0
  6
CONTINUOUS
 62
     7
 10
9.1507340878000001
 20
2.8942472107000001
 30
0.0
 11
9.1517059167999992
 21
2.8941621867
 31
0.0
  0
INSERT
  5
151C
  8
0
  6
CONTINUOUS
 62
     7
  2
SW_BROKEN_VIEW_1
 10
0.0
 20
0.0
 30
0.0
  0
INSERT
  5
180C
  8
0
  2
*U26
 10
0.0
 20
0.0
 30
0.0
  0
ENDSEC
  0
EOF
