  0
SECTION
  2
HEADER
  9
$ACADVER
  1
AC1032
  9
$ACADMAINTVER
 90
      197
  9
$DWGCODEPAGE
  3
ANSI_1252
  9
$LASTSAVEDBY
  1
JCadena
  9
$REQUIREDVERSIONS
160
                 0
  9
$INSBASE
 10
0.0
 20
0.0
 30
0.0
  9
$EXTMIN
 10
0.4503174624991573
 20
0.4172668974116363
 30
-0.0015258207003583
  9
$EXTMAX
 10
2.382843059933321
 20
2.533813505123625
 30
0.0000000349246037
  9
$LIMMIN
 10
0.0
 20
0.0
  9
$LIMMAX
 10
34.0
 20
22.0
  9
$ORTHOMODE
 70
     0
  9
$REGENMODE
 70
     1
  9
$FILLMODE
 70
     1
  9
$QTEXTMODE
 70
     0
  9
$MIRRTEXT
 70
     1
  9
$LTSCALE
 40
1.0
  9
$ATTMODE
 70
     1
  9
$TEXTSIZE
 40
0.1377952755905512
  9
$TRACEWID
 40
0.05
  9
$TEXTSTYLE
  7
STANDARD
  9
$CLAYER
  8
0
  9
$CELTYPE
  6
ByLayer
  9
$CECOLOR
 62
   256
  9
$CELTSCALE
 40
1.0
  9
$DISPSILH
 70
     0
  9
$DIMSCALE
 40
1.0
  9
$DIMASZ
 40
0.14
  9
$DIMEXO
 40
0.0393700787401575
  9
$DIMDLI
 40
0.38
  9
$DIMRND
 40
0.0
  9
$DIMDLE
 40
0.0
  9
$DIMEXE
 40
0.0393700787401575
  9
$DIMTP
 40
0.0
  9
$DIMTM
 40
0.0
  9
$DIMTXT
 40
0.1377952755905512
  9
$DIMCEN
 40
0.09
  9
$DIMTSZ
 40
0.0
  9
$DIMTOL
 70
     0
  9
$DIMLIM
 70
     0
  9
$DIMTIH
 70
     1
  9
$DIMTOH
 70
     1
  9
$DIMSE1
 70
     0
  9
$DIMSE2
 70
     0
  9
$DIMTAD
 70
     1
  9
$DIMZIN
 70
     1
  9
$DIMBLK
  1

  9
$DIMASO
 70
     1
  9
$DIMSHO
 70
     1
  9
$DIMPOST
  1

  9
$DIMAPOST
  1

  9
$DIMALT
 70
     0
  9
$DIMALTD
 70
     2
  9
$DIMALTF
 40
25.4
  9
$DIMLFAC
 40
1.0
  9
$DIMTOFL
 70
     0
  9
$DIMTVP
 40
0.0
  9
$DIMTIX
 70
     0
  9
$DIMSOXD
 70
     0
  9
$DIMSAH
 70
     0
  9
$DIMBLK1
  1

  9
$DIMBLK2
  1

  9
$DIMSTYLE
  2
Standard
  9
$DIMCLRD
 70
     0
  9
$DIMCLRE
 70
     0
  9
$DIMCLRT
 70
     0
  9
$DIMTFAC
 40
1.0
  9
$DIMGAP
 40
0.06
  9
$DIMJUST
 70
     0
  9
$DIMSD1
 70
     0
  9
$DIMSD2
 70
     0
  9
$DIMTOLJ
 70
     1
  9
$DIMTZIN
 70
     1
  9
$DIMALTZ
 70
     0
  9
$DIMALTTZ
 70
     0
  9
$DIMUPT
 70
     0
  9
$DIMDEC
 70
     2
  9
$DIMTDEC
 70
     2
  9
$DIMALTU
 70
     2
  9
$DIMALTTD
 70
     2
  9
$DIMTXSTY
  7
STANDARD
  9
$DIMAUNIT
 70
     0
  9
$DIMADEC
 70
     2
  9
$DIMALTRND
 40
0.0
  9
$DIMAZIN
 70
     0
  9
$DIMDSEP
 70
    46
  9
$DIMATFIT
 70
     3
  9
$DIMFRAC
 70
     0
  9
$DIMLDRBLK
  1

  9
$DIMLUNIT
 70
     2
  9
$DIMLWD
 70
    -2
  9
$DIMLWE
 70
    -2
  9
$DIMTMOVE
 70
     0
  9
$DIMFXL
 40
1.0
  9
$DIMFXLON
 70
     0
  9
$DIMJOGANG
 40
0.7853981633974483
  9
$DIMTFILL
 70
     0
  9
$DIMTFILLCLR
 70
     0
  9
$DIMARCSYM
 70
     0
  9
$DIMLTYPE
  6

  9
$DIMLTEX1
  6

  9
$DIMLTEX2
  6

  9
$DIMTXTDIRECTION
 70
     0
  9
$LUNITS
 70
     2
  9
$LUPREC
 70
     5
  9
$SKETCHINC
 40
0.1
  9
$FILLETRAD
 40
0.0
  9
$AUNITS
 70
     0
  9
$AUPREC
 70
     0
  9
$MENU
  1
.
  9
$ELEVATION
 40
0.0
  9
$PELEVATION
 40
0.0
  9
$THICKNESS
 40
0.0
  9
$LIMCHECK
 70
     0
  9
$CHAMFERA
 40
0.0
  9
$CHAMFERB
 40
0.0
  9
$CHAMFERC
 40
0.0
  9
$CHAMFERD
 40
0.0
  9
$SKPOLY
 70
     0
  9
$TDCREATE
 40
2459669.657164352
  9
$TDUCREATE
 40
2459669.823832824
  9
$TDUPDATE
 40
2459689.447974537
  9
$TDUUPDATE
 40
2459689.614641204
  9
$TDINDWG
 40
0.0084143634
  9
$TDUSRTIMER
 40
0.0084143634
  9
$USRTIMER
 70
     1
  9
$ANGBASE
 50
0.0
  9
$ANGDIR
 70
     0
  9
$PDMODE
 70
     0
  9
$PDSIZE
 40
-1.0
  9
$PLINEWID
 40
0.0
  9
$SPLFRAME
 70
     0
  9
$SPLINETYPE
 70
     6
  9
$SPLINESEGS
 70
     8
  9
$HANDSEED
  5
2BAF
  9
$SURFTAB1
 70
     6
  9
$SURFTAB2
 70
     6
  9
$SURFTYPE
 70
     6
  9
$SURFU
 70
     6
  9
$SURFV
 70
     6
  9
$UCSBASE
  2

  9
$UCSNAME
  2

  9
$UCSORG
 10
0.0
 20
0.0
 30
0.0
  9
$UCSXDIR
 10
1.0
 20
0.0
 30
0.0
  9
$UCSYDIR
 10
0.0
 20
1.0
 30
0.0
  9
$UCSORTHOREF
  2

  9
$UCSORTHOVIEW
 70
     0
  9
$UCSORGTOP
 10
0.0
 20
0.0
 30
0.0
  9
$UCSORGBOTTOM
 10
0.0
 20
0.0
 30
0.0
  9
$UCSORGLEFT
 10
0.0
 20
0.0
 30
0.0
  9
$UCSORGRIGHT
 10
0.0
 20
0.0
 30
0.0
  9
$UCSORGFRONT
 10
0.0
 20
0.0
 30
0.0
  9
$UCSORGBACK
 10
0.0
 20
0.0
 30
0.0
  9
$PUCSBASE
  2

  9
$PUCSNAME
  2

  9
$PUCSORG
 10
0.0
 20
0.0
 30
0.0
  9
$PUCSXDIR
 10
1.0
 20
0.0
 30
0.0
  9
$PUCSYDIR
 10
0.0
 20
1.0
 30
0.0
  9
$PUCSORTHOREF
  2

  9
$PUCSORTHOVIEW
 70
     0
  9
$PUCSORGTOP
 10
0.0
 20
0.0
 30
0.0
  9
$PUCSORGBOTTOM
 10
0.0
 20
0.0
 30
0.0
  9
$PUCSORGLEFT
 10
0.0
 20
0.0
 30
0.0
  9
$PUCSORGRIGHT
 10
0.0
 20
0.0
 30
0.0
  9
$PUCSORGFRONT
 10
0.0
 20
0.0
 30
0.0
  9
$PUCSORGBACK
 10
0.0
 20
0.0
 30
0.0
  9
$USERI1
 70
     0
  9
$USERI2
 70
     0
  9
$USERI3
 70
     0
  9
$USERI4
 70
     0
  9
$USERI5
 70
     0
  9
$USERR1
 40
0.0
  9
$USERR2
 40
0.0
  9
$USERR3
 40
0.0
  9
$USERR4
 40
0.0
  9
$USERR5
 40
0.0
  9
$WORLDVIEW
 70
     1
  9
$SHADEDGE
 70
     3
  9
$SHADEDIF
 70
    70
  9
$TILEMODE
 70
     1
  9
$MAXACTVP
 70
    64
  9
$PINSBASE
 10
0.0
 20
0.0
 30
0.0
  9
$PLIMCHECK
 70
     0
  9
$PEXTMIN
 10
1.000000000000000E+20
 20
1.000000000000000E+20
 30
1.000000000000000E+20
  9
$PEXTMAX
 10
-1.000000000000000E+20
 20
-1.000000000000000E+20
 30
-1.000000000000000E+20
  9
$PLIMMIN
 10
0.0
 20
0.0
  9
$PLIMMAX
 10
12.0
 20
9.0
  9
$UNITMODE
 70
     0
  9
$VISRETAIN
 70
     1
  9
$PLINEGEN
 70
     0
  9
$PSLTSCALE
 70
     1
  9
$TREEDEPTH
 70
  3020
  9
$CMLSTYLE
  2
Standard
  9
$CMLJUST
 70
     0
  9
$CMLSCALE
 40
1.0
  9
$PROXYGRAPHICS
 70
     1
  9
$MEASUREMENT
 70
     0
  9
$CELWEIGHT
370
    -1
  9
$ENDCAPS
280
     0
  9
$JOINSTYLE
280
     0
  9
$LWDISPLAY
290
     1
  9
$INSUNITS
 70
     1
  9
$HYPERLINKBASE
  1

  9
$STYLESHEET
  1

  9
$XEDIT
290
     1
  9
$CEPSNTYPE
380
     0
  9
$PSTYLEMODE
290
     1
  9
$FINGERPRINTGUID
  2
{d5df49b2-601b-473e-b5aa-a60d68cf4e51}
  9
$VERSIONGUID
  2
{774F801B-4E0A-454D-822B-FB6170A861DE}
  9
$EXTNAMES
290
     1
  9
$PSVPSCALE
 40
0.0
  9
$OLESTARTUP
290
     0
  9
$SORTENTS
280
   127
  9
$INDEXCTL
280
     0
  9
$HIDETEXT
280
     0
  9
$XCLIPFRAME
280
     2
  9
$HALOGAP
280
     0
  9
$OBSCOLOR
 70
   257
  9
$OBSLTYPE
280
     0
  9
$INTERSECTIONDISPLAY
280
     0
  9
$INTERSECTIONCOLOR
 70
   257
  9
$DIMASSOC
280
     1
  9
$PROJECTNAME
  1

  9
$CAMERADISPLAY
290
     0
  9
$LENSLENGTH
 40
50.0
  9
$CAMERAHEIGHT
 40
0.0
  9
$STEPSPERSEC
 40
2.0
  9
$STEPSIZE
 40
6.0
  9
$3DDWFPREC
 40
2.0
  9
$PSOLWIDTH
 40
0.25
  9
$PSOLHEIGHT
 40
4.0
  9
$LOFTANG1
 40
1.570796326794896
  9
$LOFTANG2
 40
1.570796326794896
  9
$LOFTMAG1
 40
0.0
  9
$LOFTMAG2
 40
0.0
  9
$LOFTPARAM
 70
     7
  9
$LOFTNORMALS
280
     1
  9
$LATITUDE
 40
37.795
  9
$LONGITUDE
 40
-122.394
  9
$NORTHDIRECTION
 40
0.0
  9
$TIMEZONE
 70
 -8000
  9
$LIGHTGLYPHDISPLAY
280
     1
  9
$TILEMODELIGHTSYNCH
280
     1
  9
$CMATERIAL
347
25F0
  9
$SOLIDHIST
280
     0
  9
$SHOWHIST
280
     1
  9
$DWFFRAME
280
     2
  9
$DGNFRAME
280
     0
  9
$REALWORLDSCALE
290
     1
  9
$INTERFERECOLOR
 62
     1
  9
$INTERFEREOBJVS
345
2612
  9
$INTERFEREVPVS
346
260F
  9
$CSHADOW
280
     0
  9
$SHADOWPLANELOCATION
 40
0.0
  0
ENDSEC
  0
SECTION
  2
CLASSES
  0
CLASS
  1
ACDBDICTIONARYWDFLT
  2
AcDbDictionaryWithDefault
  3
ObjectDBX Classes
 90
        0
 91
        1
280
     0
281
     0
  0
CLASS
  1
VISUALSTYLE
  2
AcDbVisualStyle
  3
ObjectDBX Classes
 90
     4095
 91
       24
280
     0
281
     0
  0
CLASS
  1
MATERIAL
  2
AcDbMaterial
  3
ObjectDBX Classes
 90
     1153
 91
        3
280
     0
281
     0
  0
CLASS
  1
SCALE
  2
AcDbScale
  3
ObjectDBX Classes
 90
     1153
 91
       33
280
     0
281
     0
  0
CLASS
  1
TABLESTYLE
  2
AcDbTableStyle
  3
ObjectDBX Classes
 90
     4095
 91
        1
280
     0
281
     0
  0
CLASS
  1
MLEADERSTYLE
  2
AcDbMLeaderStyle
  3
ACDB_MLEADERSTYLE_CLASS
 90
     4095
 91
        1
280
     0
281
     0
  0
CLASS
  1
SUN
  2
AcDbSun
  3
SCENEOE
 90
     1153
 91
        0
280
     0
281
     0
  0
CLASS
  1
ACDBSECTIONVIEWSTYLE
  2
AcDbSectionViewStyle
  3
ObjectDBX Classes
 90
     1025
 91
        1
280
     0
281
     0
  0
CLASS
  1
ACDBDETAILVIEWSTYLE
  2
AcDbDetailViewStyle
  3
ObjectDBX Classes
 90
     1025
 91
        1
280
     0
281
     0
  0
CLASS
  1
DICTIONARYVAR
  2
AcDbDictionaryVar
  3
ObjectDBX Classes
 90
        0
 91
        9
280
     0
281
     0
  0
CLASS
  1
SORTENTSTABLE
  2
AcDbSortentsTable
  3
ObjectDBX Classes
 90
        0
 91
        1
280
     0
281
     0
  0
CLASS
  1
CELLSTYLEMAP
  2
AcDbCellStyleMap
  3
ObjectDBX Classes
 90
     1152
 91
        1
280
     0
281
     0
  0
ENDSEC
  0
SECTION
  2
TABLES
  0
TABLE
  2
VPORT
  5
8
330
0
100
AcDbSymbolTable
 70
     1
  0
VPORT
  5
29
330
8
100
AcDbSymbolTableRecord
100
AcDbViewportTableRecord
  2
*Active
 70
     0
 10
0.0
 20
0.0
 11
1.0
 21
1.0
 12
1.416580258326661
 22
1.475540195072421
 13
0.0
 23
0.0
 14
0.5
 24
0.5
 15
0.5
 25
0.5
 16
0.0
 26
0.0
 36
1.0
 17
0.0
 27
0.0
 37
0.0
 40
2.770164892046564
 41
1.899321266968325
 42
50.0
 43
0.0
 44
0.0
 50
0.0
 51
0.0
 71
     0
 72
  2000
 73
     1
 74
     3
 75
     0
 76
     0
 77
     0
 78
     0
281
     0
 65
     1
110
0.0
120
0.0
130
0.0
111
1.0
121
0.0
131
0.0
112
0.0
122
1.0
132
0.0
 79
     0
146
0.0
348
260E
 60
     3
 61
     5
292
     1
282
     1
141
0.0
142
0.0
 63
   250
421
  3355443
1001
ACAD_NAV_VCDISPLAY
1070
     3
  0
ENDTAB
  0
TABLE
  2
LTYPE
  5
5
330
0
100
AcDbSymbolTable
 70
     2
  0
LTYPE
  5
14
330
5
100
AcDbSymbolTableRecord
100
AcDbLinetypeTableRecord
  2
ByBlock
 70
     0
  3

 72
    65
 73
     0
 40
0.0
  0
LTYPE
  5
15
330
5
100
AcDbSymbolTableRecord
100
AcDbLinetypeTableRecord
  2
ByLayer
 70
     0
  3

 72
    65
 73
     0
 40
0.0
  0
LTYPE
  5
16
330
5
100
AcDbSymbolTableRecord
100
AcDbLinetypeTableRecord
  2
Continuous
 70
     0
  3
Solid line
 72
    65
 73
     0
 40
0.0
  0
ENDTAB
  0
TABLE
  2
LAYER
  5
2
102
{ACAD_XDICTIONARY
360
264D
102
}
330
0
100
AcDbSymbolTable
 70
     2
  0
LAYER
  5
10
102
{ACAD_XDICTIONARY
360
2630
102
}
330
2
100
AcDbSymbolTableRecord
100
AcDbLayerTableRecord
  2
0
 70
     0
 62
     5
  6
Continuous
370
    -3
390
F
347
2600
348
0
  0
ENDTAB
  0
TABLE
  2
STYLE
  5
3
330
0
100
AcDbSymbolTable
 70
     3
  0
STYLE
  5
11
330
3
100
AcDbSymbolTableRecord
100
AcDbTextStyleTableRecord
  2
STANDARD
 70
     0
 40
0.0
 41
1.0
 50
0.0
 71
     0
 42
0.1377952755905512
  3
GOTHIC.TTF
  4

1001
ACAD
1000
CENTURY GOTHIC
1071
       34
  0
STYLE
  5
2805
330
3
100
AcDbSymbolTableRecord
100
AcDbTextStyleTableRecord
  2
P125
 70
     0
 40
0.125
 41
0.75
 50
15.0
 71
     0
 42
0.125
  3
print
  4

  0
ENDTAB
  0
TABLE
  2
VIEW
  5
6
330
0
100
AcDbSymbolTable
 70
     1
  0
ENDTAB
  0
TABLE
  2
UCS
  5
7
330
0
100
AcDbSymbolTable
 70
     0
  0
ENDTAB
  0
TABLE
  2
APPID
  5
9
330
0
100
AcDbSymbolTable
 70
    20
  0
APPID
  5
12
330
9
100
AcDbSymbolTableRecord
100
AcDbRegAppTableRecord
  2
ACAD
 70
     0
  0
APPID
  5
263C
330
9
100
AcDbSymbolTableRecord
100
AcDbRegAppTableRecord
  2
ACAD_NAV_VCDISPLAY
 70
     0
  0
APPID
  5
266E
330
9
100
AcDbSymbolTableRecord
100
AcDbRegAppTableRecord
  2
ACAD_EXEMPT_FROM_CAD_STANDARDS
 70
     0
  0
APPID
  5
2675
330
9
100
AcDbSymbolTableRecord
100
AcDbRegAppTableRecord
  2
Acad_TC
 70
     0
  0
APPID
  5
2807
330
9
100
AcDbSymbolTableRecord
100
AcDbRegAppTableRecord
  2
ACADANNOTATIVE
 70
     0
  0
APPID
  5
2808
330
9
100
AcDbSymbolTableRecord
100
AcDbRegAppTableRecord
  2
ACAD_MLEADERVER
 70
     0
  0
APPID
  5
2809
330
9
100
AcDbSymbolTableRecord
100
AcDbRegAppTableRecord
  2
ACAD_PSEXT
 70
     0
  0
APPID
  5
280A
330
9
100
AcDbSymbolTableRecord
100
AcDbRegAppTableRecord
  2
ACAD_DSTYLE_DIMJAG
 70
     0
  0
APPID
  5
280B
330
9
100
AcDbSymbolTableRecord
100
AcDbRegAppTableRecord
  2
ACAD_DSTYLE_DIMTALN
 70
     0
  0
APPID
  5
280C
330
9
100
AcDbSymbolTableRecord
100
AcDbRegAppTableRecord
  2
ACAECLAYERSTANDARD
 70
     0
  0
APPID
  5
280D
330
9
100
AcDbSymbolTableRecord
100
AcDbRegAppTableRecord
  2
ACAD_EXEMPT_FROM_CAD_STAND
 70
     0
  0
APPID
  5
280E
330
9
100
AcDbSymbolTableRecord
100
AcDbRegAppTableRecord
  2
ACAD_DSTYLE_DIMBREAK
 70
     0
  0
APPID
  5
280F
330
9
100
AcDbSymbolTableRecord
100
AcDbRegAppTableRecord
  2
ACAUTHENVIRON
 70
     0
  0
APPID
  5
2810
330
9
100
AcDbSymbolTableRecord
100
AcDbRegAppTableRecord
  2
ACDBDYNAMICBLOCKTRUENAME
 70
     0
  0
APPID
  5
2811
330
9
100
AcDbSymbolTableRecord
100
AcDbRegAppTableRecord
  2
ACDBDYNAMICBLOCKGUID
 70
     0
  0
APPID
  5
2812
330
9
100
AcDbSymbolTableRecord
100
AcDbRegAppTableRecord
  2
ACDBBLOCKREPETAG
 70
     0
  0
APPID
  5
2813
330
9
100
AcDbSymbolTableRecord
100
AcDbRegAppTableRecord
  2
ACAD_DSTYLE_DIMRADIAL_EXTE
 70
     0
  0
APPID
  5
2814
330
9
100
AcDbSymbolTableRecord
100
AcDbRegAppTableRecord
  2
GRADIENTCOLOR1ACI
 70
     0
  0
APPID
  5
2815
330
9
100
AcDbSymbolTableRecord
100
AcDbRegAppTableRecord
  2
GRADIENTCOLOR2ACI
 70
     0
  0
APPID
  5
2816
330
9
100
AcDbSymbolTableRecord
100
AcDbRegAppTableRecord
  2
ACCMTRANSPARENCY
 70
     0
  0
ENDTAB
  0
TABLE
  2
DIMSTYLE
  5
A
330
0
100
AcDbSymbolTable
 70
     3
100
AcDbDimStyleTable
 71
     1
340
27
  0
DIMSTYLE
105
27
330
A
100
AcDbSymbolTableRecord
100
AcDbDimStyleTableRecord
  2
Standard
 70
     0
340
11
  0
ENDTAB
  0
TABLE
  2
BLOCK_RECORD
  5
1
330
0
100
AcDbSymbolTable
 70
     5
  0
BLOCK_RECORD
  5
1F
102
{ACAD_XDICTIONARY
360
2648
102
}
330
1
100
AcDbSymbolTableRecord
100
AcDbBlockTableRecord
  2
*Model_Space
340
22
 70
     0
280
     1
281
     0
  0
BLOCK_RECORD
  5
1B
330
1
100
AcDbSymbolTableRecord
100
AcDbBlockTableRecord
  2
*Paper_Space
340
1E
 70
     0
280
     1
281
     0
  0
BLOCK_RECORD
  5
23
330
1
100
AcDbSymbolTableRecord
100
AcDbBlockTableRecord
  2
*Paper_Space0
340
26
 70
     0
280
     1
281
     0
  0
ENDTAB
  0
ENDSEC
  0
SECTION
  2
BLOCKS
  0
BLOCK
  5
20
330
1F
100
AcDbEntity
  8
0
100
AcDbBlockBegin
  2
*Model_Space
 70
     0
 10
0.0
 20
0.0
 30
0.0
  3
*Model_Space
  1

  0
ENDBLK
  5
21
330
1F
100
AcDbEntity
  8
0
100
AcDbBlockEnd
  0
BLOCK
  5
1C
330
1B
100
AcDbEntity
 67
     1
  8
0
100
AcDbBlockBegin
  2
*Paper_Space
 70
     0
 10
0.0
 20
0.0
 30
0.0
  3
*Paper_Space
  1

  0
ENDBLK
  5
1D
330
1B
100
AcDbEntity
 67
     1
  8
0
100
AcDbBlockEnd
  0
BLOCK
  5
24
330
23
100
AcDbEntity
 67
     1
  8
0
100
AcDbBlockBegin
  2
*Paper_Space0
 70
     0
 10
0.0
 20
0.0
 30
0.0
  3
*Paper_Space0
  1

  0
ENDBLK
  5
25
330
23
100
AcDbEntity
 67
     1
  8
0
100
AcDbBlockEnd
  0
ENDSEC
  0
SECTION
  2
ENTITIES
  0
ARC
  5
2A7F
330
1F
100
AcDbEntity
  8
0
370
    25
100
AcDbCircle
 10
1.05223639963383
 20
1.328087576411085
 30
0.0
 40
0.0040471925417339
100
AcDbArc
 50
270.0
 51
348.6916746556325
  0
ARC
  5
2A80
330
1F
100
AcDbEntity
  8
0
370
    25
100
AcDbCircle
 10
1.05223639963383
 20
1.724351325615415
 30
0.0
 40
0.0040471925417336
100
AcDbArc
 50
11.30832534435271
 51
90.0
  0
ARC
  5
2A81
330
1F
100
AcDbEntity
  8
0
370
    25
100
AcDbCircle
 10
0.988330778136671
 20
1.328087576411085
 30
0.0
 40
0.0040471925417336
100
AcDbArc
 50
191.3083253443521
 51
270.0
  0
ARC
  5
2A82
330
1F
100
AcDbEntity
  8
0
370
    25
100
AcDbCircle
 10
0.988330778136671
 20
1.724351325615415
 30
0.0
 40
0.0040471925417336
100
AcDbArc
 50
90.0
 51
168.6916746556479
  0
LINE
  5
2A83
330
1F
100
AcDbEntity
  8
0
370
    25
100
AcDbLine
 10
1.056205020693099
 20
1.327293967969975
 30
0.0
 11
1.09598431434134
 21
1.52621945101325
 31
0.0
  0
LINE
  5
2A84
330
1F
100
AcDbEntity
  8
0
370
    25
100
AcDbLine
 10
1.095984314341336
 20
1.52621945101325
 30
0.0
 11
1.056205020693099
 21
1.725144934056524
 31
0.0
  0
LINE
  5
2A85
330
1F
100
AcDbEntity
  8
0
370
    25
100
AcDbLine
 10
1.05223639963383
 20
1.728398518157147
 30
0.0
 11
0.988330778136671
 21
1.728398518157147
 31
0.0
  0
LINE
  5
2A86
330
1F
100
AcDbEntity
  8
0
370
    25
100
AcDbLine
 10
0.988330778136671
 20
1.324040383869352
 30
0.0
 11
1.05223639963383
 21
1.324040383869352
 31
0.0
  0
LINE
  5
2A87
330
1F
100
AcDbEntity
  8
0
370
    25
100
AcDbLine
 10
0.944582863429165
 20
1.52621945101325
 30
0.0
 11
0.9843621570774025
 21
1.327293967969975
 31
0.0
  0
LINE
  5
2A88
330
1F
100
AcDbEntity
  8
0
370
    25
100
AcDbLine
 10
0.9843621570774061
 20
1.725144934056524
 30
0.0
 11
0.944582863429165
 21
1.52621945101325
 31
0.0
  0
LINE
  5
2A89
330
1F
100
AcDbEntity
  8
0
370
    25
100
AcDbLine
 10
1.750105725551023
 20
2.027261887679944
 30
0.0
 11
1.740424840991195
 21
2.027261887679944
 31
0.0
  0
LINE
  5
2A8A
330
1F
100
AcDbEntity
  8
0
370
    25
100
AcDbLine
 10
1.740424840991195
 20
0.4812343367376322
 30
0.0
 11
1.750105725551023
 21
0.4812343367376322
 31
0.0
  0
LINE
  5
2A8B
330
1F
100
AcDbEntity
  8
0
370
    25
100
AcDbLine
 10
0.7876671503565618
 20
1.994074908837683
 30
0.0
 11
0.6190075997211331
 21
1.994074908837683
 31
0.0
  0
LINE
  5
2A8C
330
1F
100
AcDbEntity
  8
0
370
    25
100
AcDbLine
 10
0.6190075997211331
 20
0.5144213155798046
 30
0.0
 11
0.7876671503565618
 21
0.5144213155798046
 31
0.0
  0
ARC
  5
2A8D
330
1F
100
AcDbEntity
  8
0
370
    25
100
AcDbCircle
 10
0.6190075997211331
 20
0.5306100857467407
 30
0.0
 40
0.0161887701669361
100
AcDbArc
 50
244.9999999999994
 51
270.0
  0
ARC
  5
2A8E
330
1F
100
AcDbEntity
  8
0
370
    25
100
AcDbCircle
 10
0.6190075997211331
 20
1.977886138670747
 30
0.0
 40
0.0161887701669354
100
AcDbArc
 50
90.0
 51
115.0000000000019
  0
LINE
  5
2A8F
330
1F
100
AcDbEntity
  8
0
370
    25
100
AcDbLine
 10
0.6121659298134646
 20
1.992558147135587
 30
0.0
 11
0.4599486327749247
 21
1.921578055822863
 31
0.0
  0
LINE
  5
2A90
330
1F
100
AcDbEntity
  8
0
370
    25
100
AcDbLine
 10
0.4599486327749247
 20
0.5869181685946244
 30
0.0
 11
0.612165929813461
 21
0.5159380772818994
 31
0.0
  0
ARC
  5
2A91
330
1F
100
AcDbEntity
  8
0
370
    25
100
AcDbCircle
 10
0.4640536347195266
 20
1.912774850743959
 30
0.0
 40
0.0097132621001614
100
AcDbArc
 50
115.0000000000006
 51
180.0
  0
ARC
  5
2A92
330
1F
100
AcDbEntity
  8
0
370
    25
100
AcDbCircle
 10
0.4640536347195266
 20
0.5957213736735279
 30
0.0
 40
0.0097132621001614
100
AcDbArc
 50
180.0
 51
244.9999999999994
  0
LINE
  5
2A93
330
1F
100
AcDbEntity
  8
0
370
    25
100
AcDbLine
 10
0.9072298264944897
 20
0.9966028068619001
 30
0.0
 11
0.9099409314274176
 21
1.001298578350381
 31
0.0
  0
LINE
  5
2A94
330
1F
100
AcDbEntity
  8
0
370
    25
100
AcDbLine
 10
0.8683519808685602
 20
0.9391337009093492
 30
0.0
 11
0.8653208517423109
 21
0.9391337009093492
 31
0.0
  0
LINE
  5
2A95
330
1F
100
AcDbEntity
  8
0
370
    25
100
AcDbLine
 10
0.8653208517423109
 20
0.9036802942437622
 30
0.0
 11
0.8683519808685602
 21
0.9036802942437622
 31
0.0
  0
ARC
  5
2A96
330
1F
100
AcDbEntity
  8
0
370
    25
100
AcDbCircle
 10
0.8683519808685602
 20
0.9060114771477998
 30
0.0
 40
0.0023311829040387
100
AcDbArc
 50
270.0
 51
0.0000000000009669
  0
ARC
  5
2A97
330
1F
100
AcDbEntity
  8
0
370
    25
100
AcDbCircle
 10
0.8683519808685602
 20
0.9368025180053116
 30
0.0
 40
0.0023311829040387
100
AcDbArc
 50
0.0000000000009669
 51
90.0
  0
ARC
  5
2A98
330
1F
100
AcDbEntity
  8
0
370
    25
100
AcDbCircle
 10
0.8653208517423109
 20
0.9060114771477998
 30
0.0
 40
0.0023311829040387
100
AcDbArc
 50
217.7097452794548
 51
270.0
  0
ARC
  5
2A99
330
1F
100
AcDbEntity
  8
0
370
    25
100
AcDbCircle
 10
0.8653208517423109
 20
0.9368025180053116
 30
0.0
 40
0.0023311829040387
100
AcDbArc
 50
90.0
 51
142.2902547205452
  0
ARC
  5
2A9A
330
1F
100
AcDbEntity
  8
0
370
    25
100
AcDbCircle
 10
0.8852333268592005
 20
0.9214069975765557
 30
0.0
 40
0.0275011792201489
100
AcDbArc
 50
201.5868296149687
 51
217.7097452794614
  0
ARC
  5
2A9B
330
1F
100
AcDbEntity
  8
0
370
    25
100
AcDbCircle
 10
0.8852333268592005
 20
0.9214069975765557
 30
0.0
 40
0.0275011792201489
100
AcDbArc
 50
142.2902547205386
 51
158.413170385031
  0
LINE
  5
2A9C
330
1F
100
AcDbEntity
  8
0
370
    25
100
AcDbLine
 10
0.8787775488560711
 20
0.8169084861489892
 30
0.0
 11
0.8119988719174635
 21
0.8169084861489892
 31
0.0
  0
LINE
  5
2A9D
330
1F
100
AcDbEntity
  8
0
370
    25
100
AcDbLine
 10
0.8119988719174635
 20
0.7966725234403205
 30
0.0
 11
0.8787775488560711
 21
0.7966725234403205
 31
0.0
  0
LINE
  5
2A9E
330
1F
100
AcDbEntity
  8
0
370
    25
100
AcDbLine
 10
0.8787775488560711
 20
0.8742167325399403
 30
0.0
 11
0.8119988719174635
 21
0.8742167325399403
 31
0.0
  0
LINE
  5
2A9F
330
1F
100
AcDbEntity
  8
0
370
    25
100
AcDbLine
 10
0.8119988719174635
 20
0.8539807698312706
 30
0.0
 11
0.8787775488560711
 21
0.8539807698312706
 31
0.0
  0
LINE
  5
2AA0
330
1F
100
AcDbEntity
  8
0
370
    25
100
AcDbLine
 10
0.8787775488560711
 20
0.9315249789308905
 30
0.0
 11
0.8119988719174635
 21
0.9315249789308905
 31
0.0
  0
LINE
  5
2AA1
330
1F
100
AcDbEntity
  8
0
370
    25
100
AcDbLine
 10
0.8119988719174635
 20
0.9112890162222218
 30
0.0
 11
0.8787775488560711
 21
0.9112890162222218
 31
0.0
  0
LINE
  5
2AA2
330
1F
100
AcDbEntity
  8
0
370
    25
100
AcDbLine
 10
0.8787775488560711
 20
0.9888332253218408
 30
0.0
 11
0.8119988719174635
 21
0.9888332253218408
 31
0.0
  0
LINE
  5
2AA3
330
1F
100
AcDbEntity
  8
0
370
    25
100
AcDbLine
 10
0.8119988719174635
 20
0.9685972626131729
 30
0.0
 11
0.8787775488560711
 21
0.9685972626131729
 31
0.0
  0
LINE
  5
2AA4
330
1F
100
AcDbEntity
  8
0
370
    25
100
AcDbLine
 10
0.8299496527969374
 20
1.103449718103741
 30
0.0
 11
0.8119988719174635
 21
1.103449718103741
 31
0.0
  0
LINE
  5
2AA5
330
1F
100
AcDbEntity
  8
0
370
    25
100
AcDbLine
 10
0.8119988719174635
 20
1.083213755395074
 30
0.0
 11
0.8479049020331572
 21
1.083213755395074
 31
0.0
  0
LINE
  5
2AA6
330
1F
100
AcDbEntity
  8
0
370
    25
100
AcDbLine
 10
0.8787775488560711
 20
0.8455893781770242
 30
0.0
 11
0.8119988719174635
 21
0.8455893781770242
 31
0.0
  0
LINE
  5
2AA7
330
1F
100
AcDbEntity
  8
0
370
    25
100
AcDbLine
 10
0.8119988719174635
 20
0.8253534154683546
 30
0.0
 11
0.8787775488560711
 21
0.8253534154683546
 31
0.0
  0
LINE
  5
2AA8
330
1F
100
AcDbEntity
  8
0
370
    25
100
AcDbLine
 10
0.8787775488560711
 20
0.7882811317860741
 30
0.0
 11
0.8119988719174635
 21
0.7882811317860741
 31
0.0
  0
LINE
  5
2AA9
330
1F
100
AcDbEntity
  8
0
370
    25
100
AcDbLine
 10
0.8119988719174635
 20
0.7680451690774044
 30
0.0
 11
0.8787775488560711
 21
0.7680451690774044
 31
0.0
  0
LINE
  5
2AAA
330
1F
100
AcDbEntity
  8
0
370
    25
100
AcDbLine
 10
0.8787775488560711
 20
0.9028976245679753
 30
0.0
 11
0.8119988719174635
 21
0.9028976245679753
 31
0.0
  0
LINE
  5
2AAB
330
1F
100
AcDbEntity
  8
0
370
    25
100
AcDbLine
 10
0.8119988719174635
 20
0.8826616618593048
 30
0.0
 11
0.8787775488560711
 21
0.8826616618593048
 31
0.0
  0
LINE
  5
2AAC
330
1F
100
AcDbEntity
  8
0
370
    25
100
AcDbLine
 10
0.8787775488560711
 20
0.9602058709589256
 30
0.0
 11
0.8119988719174635
 21
0.9602058709589256
 31
0.0
  0
LINE
  5
2AAD
330
1F
100
AcDbEntity
  8
0
370
    25
100
AcDbLine
 10
0.8119988719174635
 20
0.939969908250255
 30
0.0
 11
0.8787775488560711
 21
0.939969908250255
 31
0.0
  0
LINE
  5
2AAE
330
1F
100
AcDbEntity
  8
0
370
    25
100
AcDbLine
 10
0.8566572961378895
 20
1.074822363740826
 30
0.0
 11
0.8119988719174635
 21
1.074822363740826
 31
0.0
  0
LINE
  5
2AAF
330
1F
100
AcDbEntity
  8
0
370
    25
100
AcDbLine
 10
0.8119988719174635
 20
1.111894647423108
 30
0.0
 11
0.8235536878660028
 21
1.111894647423108
 31
0.0
  0
LINE
  5
2AB0
330
1F
100
AcDbEntity
  8
0
370
    25
100
AcDbLine
 10
0.8235536878660099
 20
1.396601576994378
 30
0.0
 11
0.8119988719174635
 21
1.396601576994378
 31
0.0
  0
LINE
  5
2AB1
330
1F
100
AcDbEntity
  8
0
370
    25
100
AcDbLine
 10
0.8119988719174635
 20
1.433673860676659
 30
0.0
 11
0.8566572961378966
 21
1.433673860676659
 31
0.0
  0
LINE
  5
2AB2
330
1F
100
AcDbEntity
  8
0
370
    25
100
AcDbLine
 10
0.8583958872159058
 20
1.568526316167229
 30
0.0
 11
0.8119988719174635
 21
1.568526316167229
 31
0.0
  0
LINE
  5
2AB3
330
1F
100
AcDbEntity
  8
0
370
    25
100
AcDbLine
 10
0.8119988719174635
 20
1.548290353458561
 30
0.0
 11
0.8583958872159058
 21
1.548290353458561
 31
0.0
  0
LINE
  5
2AB4
330
1F
100
AcDbEntity
  8
0
370
    25
100
AcDbLine
 10
0.8583958872159058
 20
1.625834562558182
 30
0.0
 11
0.8119988719174635
 21
1.625834562558182
 31
0.0
  0
LINE
  5
2AB5
330
1F
100
AcDbEntity
  8
0
370
    25
100
AcDbLine
 10
0.8119988719174635
 20
1.605598599849511
 30
0.0
 11
0.8583958872159058
 21
1.605598599849511
 31
0.0
  0
LINE
  5
2AB6
330
1F
100
AcDbEntity
  8
0
370
    25
100
AcDbLine
 10
0.8583958872159058
 20
1.683142808949131
 30
0.0
 11
0.8119988719174635
 21
1.683142808949131
 31
0.0
  0
LINE
  5
2AB7
330
1F
100
AcDbEntity
  8
0
370
    25
100
AcDbLine
 10
0.8119988719174635
 20
1.662906846240463
 30
0.0
 11
0.8583958872159058
 21
1.662906846240463
 31
0.0
  0
LINE
  5
2AB8
330
1F
100
AcDbEntity
  8
0
370
    25
100
AcDbLine
 10
0.8583958872159058
 20
1.740451055340082
 30
0.0
 11
0.8119988719174635
 21
1.740451055340082
 31
0.0
  0
LINE
  5
2AB9
330
1F
100
AcDbEntity
  8
0
370
    25
100
AcDbLine
 10
0.8119988719174635
 20
1.720215092631413
 30
0.0
 11
0.8583958872159058
 21
1.720215092631413
 31
0.0
  0
LINE
  5
2ABA
330
1F
100
AcDbEntity
  8
0
370
    25
100
AcDbLine
 10
0.8479049020331643
 20
1.425282469022413
 30
0.0
 11
0.8119988719174635
 21
1.425282469022413
 31
0.0
  0
LINE
  5
2ABB
330
1F
100
AcDbEntity
  8
0
370
    25
100
AcDbLine
 10
0.8119988719174635
 20
1.405046506313745
 30
0.0
 11
0.8299496527969409
 21
1.405046506313745
 31
0.0
  0
LINE
  5
2ABC
330
1F
100
AcDbEntity
  8
0
370
    25
100
AcDbLine
 10
0.8583958872159058
 20
1.539898961804315
 30
0.0
 11
0.8119988719174635
 21
1.539898961804315
 31
0.0
  0
LINE
  5
2ABD
330
1F
100
AcDbEntity
  8
0
370
    25
100
AcDbLine
 10
0.8119988719174635
 20
1.519662999095645
 30
0.0
 11
0.8583958872159058
 21
1.519662999095645
 31
0.0
  0
LINE
  5
2ABE
330
1F
100
AcDbEntity
  8
0
370
    25
100
AcDbLine
 10
0.8583958872159058
 20
1.597207208195264
 30
0.0
 11
0.8119988719174635
 21
1.597207208195264
 31
0.0
  0
LINE
  5
2ABF
330
1F
100
AcDbEntity
  8
0
370
    25
100
AcDbLine
 10
0.8119988719174635
 20
1.576971245486596
 30
0.0
 11
0.8583958872159058
 21
1.576971245486596
 31
0.0
  0
LINE
  5
2AC0
330
1F
100
AcDbEntity
  8
0
370
    25
100
AcDbLine
 10
0.8583958872159058
 20
1.654515454586215
 30
0.0
 11
0.8119988719174635
 21
1.654515454586215
 31
0.0
  0
LINE
  5
2AC1
330
1F
100
AcDbEntity
  8
0
370
    25
100
AcDbLine
 10
0.8119988719174635
 20
1.634279491877547
 30
0.0
 11
0.8583958872159058
 21
1.634279491877547
 31
0.0
  0
LINE
  5
2AC2
330
1F
100
AcDbEntity
  8
0
370
    25
100
AcDbLine
 10
0.8583958872159058
 20
1.711823700977166
 30
0.0
 11
0.8119988719174635
 21
1.711823700977166
 31
0.0
  0
LINE
  5
2AC3
330
1F
100
AcDbEntity
  8
0
370
    25
100
AcDbLine
 10
0.8119988719174635
 20
1.691587738268497
 30
0.0
 11
0.8583958872159058
 21
1.691587738268497
 31
0.0
  0
LINE
  5
2AC4
330
1F
100
AcDbEntity
  8
0
370
    25
100
AcDbLine
 10
1.578537139321841
 20
0.4187480668468347
 30
0.0
 11
1.740424840991192
 21
0.4792753982980101
 31
0.0
  0
LINE
  5
2AC5
330
1F
100
AcDbEntity
  8
0
370
    25
100
AcDbLine
 10
1.740424840991192
 20
2.029220826119477
 30
0.0
 11
1.578537139321841
 21
2.089748157570651
 31
0.0
  0
LINE
  5
2AC6
330
1F
100
AcDbEntity
  8
0
370
    25
100
AcDbLine
 10
1.578537139321841
 20
2.089748157570651
 30
0.0
 11
1.182171290554613
 21
2.037565603622098
 31
0.0
  0
LINE
  5
2AC7
330
1F
100
AcDbEntity
  8
0
370
    25
100
AcDbLine
 10
0.9285010830660738
 20
0.5043269371747679
 30
0.0
 11
1.578537139321841
 21
0.4187480668468347
 31
0.0
  0
ARC
  5
2AC8
330
1F
100
AcDbEntity
  8
0
370
    25
100
AcDbCircle
 10
0.9978406954061718
 20
0.5601823363402927
 30
0.0
 40
0.0890382359181436
100
AcDbArc
 50
189.1722178969048
 51
218.8526172527307
  0
ARC
  5
2AC9
330
1F
100
AcDbEntity
  8
0
370
    25
100
AcDbCircle
 10
1.052229315697928
 20
1.32809621717657
 30
0.0
 40
0.0040519874689965
100
AcDbArc
 50
270.1001680877217
 51
348.5915065679393
  0
ARC
  5
2ACA
330
1F
100
AcDbEntity
  8
0
370
    25
100
AcDbCircle
 10
1.052229315697928
 20
1.724342684849929
 30
0.0
 40
0.0040519874689971
100
AcDbArc
 50
11.40849343207714
 51
89.89983191227075
  0
ARC
  5
2ACB
330
1F
100
AcDbEntity
  8
0
370
    25
100
AcDbCircle
 10
0.9883378620725729
 20
1.32809621717657
 30
0.0
 40
0.0040519874689965
100
AcDbArc
 50
191.4084934320612
 51
269.8998319122783
  0
ARC
  5
2ACC
330
1F
100
AcDbEntity
  8
0
370
    25
100
AcDbCircle
 10
0.9883378620725764
 20
1.724342684849929
 30
0.0
 40
0.0040519874689981
100
AcDbArc
 50
90.100168087738
 51
168.59150656791
  0
LINE
  5
2ACD
330
1F
100
AcDbEntity
  8
0
370
    25
100
AcDbLine
 10
1.056201243445222
 20
1.327294723309362
 30
0.0
 11
1.095980386047621
 21
1.526219451013249
 31
0.0
  0
LINE
  5
2ACE
330
1F
100
AcDbEntity
  8
0
370
    25
100
AcDbLine
 10
1.095980386047621
 20
1.526219451013249
 30
0.0
 11
1.056201243445226
 21
1.725144178717139
 31
0.0
  0
LINE
  5
2ACF
330
1F
100
AcDbEntity
  8
0
370
    25
100
AcDbLine
 10
1.05223639963383
 20
1.728394666126632
 30
0.0
 11
0.988330778136671
 21
1.728394666126632
 31
0.0
  0
LINE
  5
2AD0
330
1F
100
AcDbEntity
  8
0
370
    25
100
AcDbLine
 10
0.988330778136671
 20
1.324044235899867
 30
0.0
 11
1.05223639963383
 21
1.324044235899867
 31
0.0
  0
LINE
  5
2AD1
330
1F
100
AcDbEntity
  8
0
370
    25
100
AcDbLine
 10
0.9843659343252788
 20
1.725144178717139
 30
0.0
 11
0.9445867917228802
 21
1.52621945101325
 31
0.0
  0
LINE
  5
2AD2
330
1F
100
AcDbEntity
  8
0
370
    25
100
AcDbLine
 10
0.9445867917228802
 20
1.52621945101325
 30
0.0
 11
0.9843659343252788
 21
1.327294723309362
 31
0.0
  0
LINE
  5
2AD3
330
1F
100
AcDbEntity
  8
0
370
    25
100
AcDbLine
 10
1.750105725551023
 20
1.868459317548323
 30
0.0
 11
1.750105725551023
 21
0.4812343367376304
 31
0.0
  0
LINE
  5
2AD4
330
1F
100
AcDbEntity
  8
0
370
    25
100
AcDbLine
 10
1.750105725551023
 20
2.006733375198029
 30
0.0
 11
1.750105725551023
 21
1.868459317548323
 31
0.0
  0
CIRCLE
  5
2AD5
330
1F
100
AcDbEntity
  8
0
370
    25
100
AcDbCircle
 10
1.71058213181455
 20
2.109958021966633
 30
0.0
 40
0.0097132621001612
  0
LINE
  5
2AD6
330
1F
100
AcDbEntity
  8
0
370
    25
100
AcDbLine
 10
1.85045310605626
 20
2.13189380554272
 30
0.0
 11
1.85045310605626
 21
1.941011884969253
 31
0.0
  0
LINE
  5
2AD7
330
1F
100
AcDbEntity
  8
0
370
    25
100
AcDbLine
 10
1.858223715736389
 20
2.13189380554272
 30
0.0
 11
1.858223715736389
 21
1.941011884969253
 31
0.0
  0
LINE
  5
2AD8
330
1F
100
AcDbEntity
  8
0
370
    25
100
AcDbLine
 10
1.689966610320727
 20
2.088022238390326
 30
0.0
 11
1.688565404386906
 21
2.088022238390326
 31
0.0
  0
LINE
  5
2AD9
330
1F
100
AcDbEntity
  8
0
370
    25
100
AcDbLine
 10
1.688565404386906
 20
2.088022238390326
 30
0.0
 11
1.688565404386906
 21
2.089423444324143
 31
0.0
  0
ARC
  5
2ADA
330
1F
100
AcDbEntity
  8
0
370
    25
100
AcDbCircle
 10
1.845434587304509
 20
2.13189380554272
 30
0.0
 40
0.0127891284318789
100
AcDbArc
 50
0.0000000000009669
 51
90.00000000000245
  0
ARC
  5
2ADB
330
1F
100
AcDbEntity
  8
0
370
    25
100
AcDbCircle
 10
1.845434587304509
 20
2.13189380554272
 30
0.0
 40
0.0050185187517499
100
AcDbArc
 50
0.0000000000009669
 51
90.00000000000509
  0
LINE
  5
2ADC
330
1F
100
AcDbEntity
  8
0
370
    25
100
AcDbLine
 10
1.845434587304509
 20
2.13691232429447
 30
0.0
 11
1.757876335231152
 21
2.13691232429447
 31
0.0
  0
LINE
  5
2ADD
330
1F
100
AcDbEntity
  8
0
370
    25
100
AcDbLine
 10
1.845434587304509
 20
2.1446829339746
 30
0.0
 11
1.757876335231152
 21
2.1446829339746
 31
0.0
  0
LINE
  5
2ADE
330
1F
100
AcDbEntity
  8
0
370
    25
100
AcDbLine
 10
1.85045310605626
 20
1.901851381470571
 30
0.0
 11
1.858223715736389
 21
1.901851381470571
 31
0.0
  0
LINE
  5
2ADF
330
1F
100
AcDbEntity
  8
0
370
    25
100
AcDbLine
 10
1.85045310605626
 20
1.941011884969253
 30
0.0
 11
1.85045310605626
 21
1.901851381470571
 31
0.0
  0
LINE
  5
2AE0
330
1F
100
AcDbEntity
  8
0
370
    25
100
AcDbLine
 10
1.858223715736389
 20
1.941011884969253
 30
0.0
 11
1.858223715736389
 21
1.901851381470571
 31
0.0
  0
ARC
  5
2AE1
330
1F
100
AcDbEntity
  8
0
370
    25
100
AcDbCircle
 10
1.845434587304509
 20
1.98520172452071
 30
0.0
 40
0.0127891284318796
100
AcDbArc
 50
66.89576752687789
 51
90.00000000000122
  0
ARC
  5
2AE2
330
1F
100
AcDbEntity
  8
0
370
    25
100
AcDbCircle
 10
1.845434587304509
 20
1.98520172452071
 30
0.0
 40
0.0050185187517509
100
AcDbArc
 50
0.0000000000009669
 51
90.0
  0
LINE
  5
2AE3
330
1F
100
AcDbEntity
  8
0
370
    25
100
AcDbLine
 10
1.759439840177751
 20
1.997990852952588
 30
0.0
 11
1.759439840177751
 21
1.99022024327246
 31
0.0
  0
LINE
  5
2AE4
330
1F
100
AcDbEntity
  8
0
370
    25
100
AcDbLine
 10
1.845434587304509
 20
1.997990852952588
 30
0.0
 11
1.759439840177751
 21
1.997990852952588
 31
0.0
  0
LINE
  5
2AE5
330
1F
100
AcDbEntity
  8
0
370
    25
100
AcDbLine
 10
1.845434587304509
 20
1.99022024327246
 30
0.0
 11
1.759439840177751
 21
1.99022024327246
 31
0.0
  0
ARC
  5
2AE6
330
1F
100
AcDbEntity
  8
0
370
    25
100
AcDbCircle
 10
1.846914571149305
 20
0.51405595443258
 30
0.0
 40
0.0097132621001615
100
AcDbArc
 50
269.9999999999988
 51
0.0000000000009669
  0
LINE
  5
2AE7
330
1F
100
AcDbEntity
  8
0
370
    25
100
AcDbLine
 10
1.762894853982899
 20
0.5043426923324184
 30
0.0
 11
1.846914571149305
 21
0.5043426923324184
 31
0.0
  0
LINE
  5
2AE8
330
1F
100
AcDbEntity
  8
0
370
    25
100
AcDbLine
 10
1.762894853982899
 20
0.5121133020125557
 30
0.0
 11
1.762894853982899
 21
0.5043426923324184
 31
0.0
  0
LINE
  5
2AE9
330
1F
100
AcDbEntity
  8
0
370
    25
100
AcDbLine
 10
1.84561946953594
 20
0.5121133020125566
 30
0.0
 11
1.762894853982899
 21
0.5121133020125557
 31
0.0
  0
ARC
  5
2AEA
330
1F
100
AcDbEntity
  8
0
370
    25
100
AcDbCircle
 10
1.84561946953594
 20
0.5153510560459447
 30
0.0
 40
0.0032377540333875
100
AcDbArc
 50
270.0000000000088
 51
0.0000000000009669
  0
LINE
  5
2AEB
330
1F
100
AcDbEntity
  8
0
370
    25
100
AcDbLine
 10
1.848857223569325
 20
0.5736032930988664
 30
0.0
 11
1.848857223569325
 21
0.5153510560459447
 31
0.0
  0
LINE
  5
2AEC
330
1F
100
AcDbEntity
  8
0
370
    25
100
AcDbLine
 10
1.856627833249465
 20
0.5736032930988664
 30
0.0
 11
1.848857223569325
 21
0.5736032930988664
 31
0.0
  0
LINE
  5
2AED
330
1F
100
AcDbEntity
  8
0
370
    25
100
AcDbLine
 10
1.856627833249465
 20
0.51405595443258
 30
0.0
 11
1.856627833249465
 21
0.5736032930988664
 31
0.0
  0
LINE
  5
2AEE
330
1F
100
AcDbEntity
  8
0
370
    25
100
AcDbLine
 10
1.856627833249465
 20
0.5882986488262896
 30
0.0
 11
1.848857223569325
 21
0.5882986488262896
 31
0.0
  0
LINE
  5
2AEF
330
1F
100
AcDbEntity
  8
0
370
    25
100
AcDbLine
 10
1.848857223569325
 20
0.5736032930988664
 30
0.0
 11
1.848857223569325
 21
0.5882986488262896
 31
0.0
  0
LINE
  5
2AF0
330
1F
100
AcDbEntity
  8
0
370
    25
100
AcDbLine
 10
1.856627833249465
 20
0.5736032930988664
 30
0.0
 11
1.856627833249465
 21
0.5882986488262896
 31
0.0
  0
LINE
  5
2AF1
330
1F
100
AcDbEntity
  8
0
370
    25
100
AcDbLine
 10
1.762894853982899
 20
1.407449830603777
 30
0.0
 11
1.846914571149305
 21
1.407449830603777
 31
0.0
  0
LINE
  5
2AF2
330
1F
100
AcDbEntity
  8
0
370
    25
100
AcDbLine
 10
1.762894853982899
 20
1.101046393813804
 30
0.0
 11
1.846914571149305
 21
1.101046393813804
 31
0.0
  0
LINE
  5
2AF3
330
1F
100
AcDbEntity
  8
0
370
    25
100
AcDbLine
 10
1.846914571149305
 20
1.407449830603777
 30
0.0
 11
1.856627833249465
 21
1.407449830603777
 31
0.0
  0
LINE
  5
2AF4
330
1F
100
AcDbEntity
  8
0
370
    25
100
AcDbLine
 10
1.856627833249465
 20
1.407449830603777
 30
0.0
 11
1.856627833249465
 21
1.101046393813804
 31
0.0
  0
LINE
  5
2AF5
330
1F
100
AcDbEntity
  8
0
370
    25
100
AcDbLine
 10
1.856627833249465
 20
1.101046393813804
 30
0.0
 11
1.846914571149305
 21
1.101046393813804
 31
0.0
  0
LINE
  5
2AF6
330
1F
100
AcDbEntity
  8
0
370
    25
100
AcDbLine
 10
1.750105725551023
 20
1.407449830603781
 30
0.0
 11
1.762894853982899
 21
1.407449830603781
 31
0.0
  0
LINE
  5
2AF7
330
1F
100
AcDbEntity
  8
0
370
    25
100
AcDbLine
 10
1.762894853982899
 20
1.101046393813798
 30
0.0
 11
1.750105725551023
 21
1.101046393813798
 31
0.0
  0
LINE
  5
2AF8
330
1F
100
AcDbEntity
  8
0
370
    25
100
AcDbLine
 10
1.750105725551023
 20
2.002575166116349
 30
0.0
 11
1.757876335231152
 21
2.002575166116349
 31
0.0
  0
LINE
  5
2AF9
330
1F
100
AcDbEntity
  8
0
370
    25
100
AcDbLine
 10
1.757876335231152
 20
2.002575166116349
 30
0.0
 11
1.757876335231152
 21
1.430013905536567
 31
0.0
  0
LINE
  5
2AFA
330
1F
100
AcDbEntity
  8
0
370
    25
100
AcDbLine
 10
1.750105725551023
 20
0.5056387404012952
 30
0.0
 11
1.757876335231152
 21
0.5056387404012952
 31
0.0
  0
LINE
  5
2AFB
330
1F
100
AcDbEntity
  8
0
370
    25
100
AcDbLine
 10
1.757876335231152
 20
1.078482318881012
 30
0.0
 11
1.757876335231152
 21
0.5056387404012952
 31
0.0
  0
LINE
  5
2AFC
330
1F
100
AcDbEntity
  8
0
370
    25
100
AcDbLine
 10
1.757876335231152
 20
1.101046393813798
 30
0.0
 11
1.757876335231152
 21
1.078482318881012
 31
0.0
  0
LINE
  5
2AFD
330
1F
100
AcDbEntity
  8
0
370
    25
100
AcDbLine
 10
1.757876335231152
 20
1.430013905536567
 30
0.0
 11
1.757876335231152
 21
1.407449830603781
 31
0.0
  0
CIRCLE
  5
2AFE
330
1F
100
AcDbEntity
  8
0
370
    25
100
AcDbCircle
 10
1.710582131814554
 20
2.109958021966633
 30
0.0
 40
0.0101179813543344
  0
LINE
  5
2AFF
330
1F
100
AcDbEntity
  8
0
370
    25
100
AcDbLine
 10
1.691045192474842
 20
2.169506384087579
 30
0.0
 11
1.745087206799272
 21
2.169506384087579
 31
0.0
  0
LINE
  5
2B00
330
1F
100
AcDbEntity
  8
0
370
    25
100
AcDbLine
 10
1.745087206799272
 20
2.086943656236208
 30
0.0
 11
1.691045192474845
 21
2.086943656236208
 31
0.0
  0
LINE
  5
2B01
330
1F
100
AcDbEntity
  8
0
370
    25
100
AcDbLine
 10
1.691045192474845
 20
2.086943656236208
 30
0.0
 11
1.677256259799815
 21
2.100732588911238
 31
0.0
  0
LINE
  5
2B02
330
1F
100
AcDbEntity
  8
0
370
    25
100
AcDbLine
 10
1.677256259799815
 20
2.100732588911238
 30
0.0
 11
1.677256259799815
 21
2.155717451412549
 31
0.0
  0
LINE
  5
2B03
330
1F
100
AcDbEntity
  8
0
370
    25
100
AcDbLine
 10
1.677256259799815
 20
2.155717451412549
 30
0.0
 11
1.691045192474842
 21
2.169506384087579
 31
0.0
  0
LINE
  5
2B04
330
1F
100
AcDbEntity
  8
0
370
    25
100
AcDbLine
 10
1.757876335231152
 20
2.086943656236208
 30
0.0
 11
1.745087206799272
 21
2.086943656236208
 31
0.0
  0
LINE
  5
2B05
330
1F
100
AcDbEntity
  8
0
370
    25
100
AcDbLine
 10
1.745087206799272
 20
2.169506384087579
 30
0.0
 11
1.757876335231152
 21
2.169506384087579
 31
0.0
  0
LINE
  5
2B06
330
1F
100
AcDbEntity
  8
0
370
    25
100
AcDbLine
 10
1.757876335231152
 20
2.169506384087579
 30
0.0
 11
1.757876335231152
 21
2.086943656236208
 31
0.0
  0
LINE
  5
2B07
330
1F
100
AcDbEntity
  8
0
370
    25
100
AcDbLine
 10
1.757876335231152
 20
2.086943656236208
 30
0.0
 11
1.757876335231152
 21
2.002575166116349
 31
0.0
  0
LINE
  5
2B08
330
1F
100
AcDbEntity
  8
0
370
    25
100
AcDbLine
 10
1.750105725551023
 20
2.086943656236208
 30
0.0
 11
1.750105725551023
 21
2.006733375198029
 31
0.0
  0
LINE
  5
2B09
330
1F
100
AcDbEntity
  8
0
370
    25
100
AcDbLine
 10
1.808709073555327
 20
0.5736032930988664
 30
0.0
 11
1.816479683235456
 21
0.5736032930988682
 31
0.0
  0
LINE
  5
2B0A
330
1F
100
AcDbEntity
  8
0
370
    25
100
AcDbLine
 10
1.808709073555327
 20
0.5249024304444357
 30
0.0
 11
1.808709073555327
 21
0.5736032930988664
 31
0.0
  0
LINE
  5
2B0B
330
1F
100
AcDbEntity
  8
0
370
    25
100
AcDbLine
 10
1.816479683235456
 20
0.5249024304444357
 30
0.0
 11
1.816479683235456
 21
0.5736032930988682
 31
0.0
  0
ARC
  5
2B0C
330
1F
100
AcDbEntity
  8
0
370
    25
100
AcDbCircle
 10
1.80369055480358
 20
0.5249024304444357
 30
0.0
 40
0.0127891284318789
100
AcDbArc
 50
270.0
 51
0.0000000000009669
  0
ARC
  5
2B0D
330
1F
100
AcDbEntity
  8
0
370
    25
100
AcDbCircle
 10
1.80369055480358
 20
0.5249024304444357
 30
0.0
 40
0.0050185187517499
100
AcDbArc
 50
269.9999999999988
 51
0.0000000000009669
  0
ARC
  5
2B0E
330
1F
100
AcDbEntity
  8
0
370
    25
100
AcDbCircle
 10
1.762894853982899
 20
0.5249024304444357
 30
0.0
 40
0.0050185187517499
100
AcDbArc
 50
180.0
 51
270.0
  0
ARC
  5
2B0F
330
1F
100
AcDbEntity
  8
0
370
    25
100
AcDbCircle
 10
1.762894853982899
 20
0.5249024304444357
 30
0.0
 40
0.0127891284318789
100
AcDbArc
 50
246.8957675268752
 51
270.0
  0
LINE
  5
2B10
330
1F
100
AcDbEntity
  8
0
370
    25
100
AcDbLine
 10
1.762894853982899
 20
0.5121133020125566
 30
0.0
 11
1.80369055480358
 21
0.5121133020125566
 31
0.0
  0
LINE
  5
2B11
330
1F
100
AcDbEntity
  8
0
370
    25
100
AcDbLine
 10
1.762894853982899
 20
0.5198839116926859
 30
0.0
 11
1.80369055480358
 21
0.5198839116926859
 31
0.0
  0
LINE
  5
2B12
330
1F
100
AcDbEntity
  8
0
370
    25
100
AcDbLine
 10
1.808709073555327
 20
0.5882986488262896
 30
0.0
 11
1.81647968323546
 21
0.5882986488262896
 31
0.0
  0
LINE
  5
2B13
330
1F
100
AcDbEntity
  8
0
370
    25
100
AcDbLine
 10
1.808709073555327
 20
0.5736032930988664
 30
0.0
 11
1.808709073555327
 21
0.5882986488262896
 31
0.0
  0
LINE
  5
2B14
330
1F
100
AcDbEntity
  8
0
370
    25
100
AcDbLine
 10
1.816479683235456
 20
0.5736032930988682
 30
0.0
 11
1.81647968323546
 21
0.5882986488262896
 31
0.0
  0
CIRCLE
  5
2B15
330
1F
100
AcDbEntity
  8
0
370
    25
100
AcDbCircle
 10
1.020283588885263
 20
1.254248112208752
 30
0.0
 40
0.060707888126007
  0
ARC
  5
2B16
330
1F
100
AcDbEntity
  8
0
370
    25
100
AcDbCircle
 10
1.020283588885263
 20
1.254248112208752
 30
0.0
 40
0.0233664770343223
100
AcDbArc
 50
243.5206810831891
 51
303.5206810831867
  0
SPLINE
  5
2B17
330
1F
100
AcDbEntity
  8
0
370
    25
100
AcDbSpline
210
0.0
220
0.0
230
1.0
 70
    24
 71
     3
 72
    10
 73
     6
 74
     0
 42
0.00000001
 43
0.0000000001
 40
0.0
 40
0.0
 40
0.0
 40
0.0
 40
0.4391285480659843
 40
0.7513765034331886
 40
1.0
 40
1.0
 40
1.0
 40
1.0
 10
1.009865066666762
 20
1.233332887041949
 30
0.0
 10
1.013203944028123
 20
1.233538311242682
 30
0.0
 10
1.018916972726039
 20
1.233889804941615
 30
0.0
 10
1.027221724504514
 20
1.234400754225379
 30
0.0
 10
1.031355168222095
 20
1.2346550640667
 30
0.0
 10
1.033187444096334
 20
1.234767794714233
 30
0.0
  0
SPLINE
  5
2B18
330
1F
100
AcDbEntity
  8
0
370
    25
100
AcDbSpline
210
0.0
220
0.0
230
1.0
 70
    24
 71
     3
 72
    10
 73
     6
 74
     0
 42
0.00000001
 43
0.0000000001
 40
0.0
 40
0.0
 40
0.0
 40
0.0
 40
0.4391285480660102
 40
0.7513765034331865
 40
1.0
 40
1.0
 40
1.0
 40
1.0
 10
1.033187444096334
 20
1.234767794714233
 30
0.0
 10
1.034678980200631
 20
1.237762059429662
 30
0.0
 10
1.037231092077043
 20
1.242885434264072
 30
0.0
 10
1.040940972906494
 20
1.250333034918236
 30
0.0
 10
1.042787455982271
 20
1.254039857103435
 30
0.0
 10
1.043605966314839
 20
1.255683019881036
 30
0.0
  0
ARC
  5
2B19
330
1F
100
AcDbEntity
  8
0
370
    25
100
AcDbCircle
 10
1.020283588885263
 20
1.254248112208752
 30
0.0
 40
0.0233664770343224
100
AcDbArc
 50
303.5206810831867
 51
3.520681083187753
  0
ARC
  5
2B1A
330
1F
100
AcDbEntity
  8
0
370
    25
100
AcDbCircle
 10
1.020283588885263
 20
1.254248112208752
 30
0.0
 40
0.0233664770343244
100
AcDbArc
 50
123.5206810831837
 51
183.5206810831817
  0
SPLINE
  5
2B1B
330
1F
100
AcDbEntity
  8
0
370
    25
100
AcDbSpline
210
0.0
220
0.0
230
1.0
 70
    24
 71
     3
 72
    10
 73
     6
 74
     0
 42
0.00000001
 43
0.0000000001
 40
0.0
 40
0.0
 40
0.0
 40
0.0
 40
0.4391285480659552
 40
0.7513765034331663
 40
1.0
 40
1.0
 40
1.0
 40
1.0
 10
1.007379733674195
 20
1.273728429703272
 30
0.0
 10
1.005888197569895
 20
1.270734164987844
 30
0.0
 10
1.003336085693483
 20
1.265610790153434
 30
0.0
 10
0.999626204864036
 20
1.258163189499269
 30
0.0
 10
0.9977797217882589
 20
1.25445636731407
 30
0.0
 10
0.9969612114556873
 20
1.252813204536469
 30
0.0
  0
ARC
  5
2B1C
330
1F
100
AcDbEntity
  8
0
370
    25
100
AcDbCircle
 10
1.020283588885263
 20
1.254248112208752
 30
0.0
 40
0.0233664770343244
100
AcDbArc
 50
63.52068108318935
 51
123.5206810831837
  0
SPLINE
  5
2B1D
330
1F
100
AcDbEntity
  8
0
370
    25
100
AcDbSpline
210
0.0
220
0.0
230
1.0
 70
    24
 71
     3
 72
    10
 73
     6
 74
     0
 42
0.00000001
 43
0.0000000001
 40
0.0
 40
0.0
 40
0.0
 40
0.0
 40
0.4391285480659469
 40
0.7513765034331365
 40
1.0
 40
1.0
 40
1.0
 40
1.0
 10
1.030702111103767
 20
1.275163337375555
 30
0.0
 10
1.027363233742402
 20
1.274957913174823
 30
0.0
 10
1.02165020504449
 20
1.274606419475892
 30
0.0
 10
1.013345453266015
 20
1.274095470192127
 30
0.0
 10
1.009212009548431
 20
1.273841160350807
 30
0.0
 10
1.007379733674195
 20
1.273728429703272
 30
0.0
  0
ARC
  5
2B1E
330
1F
100
AcDbEntity
  8
0
370
    25
100
AcDbCircle
 10
1.020283588885263
 20
1.254248112208752
 30
0.0
 40
0.0233664770343234
100
AcDbArc
 50
3.520681083187753
 51
63.52068108318935
  0
SPLINE
  5
2B1F
330
1F
100
AcDbEntity
  8
0
370
    25
100
AcDbSpline
210
0.0
220
0.0
230
1.0
 70
    24
 71
     3
 72
    11
 73
     7
 74
     0
 42
0.00000001
 43
0.0000000001
 40
0.0
 40
0.0
 40
0.0
 40
0.0
 40
0.1809422465199015
 40
0.5062925772655392
 40
0.8439745107796998
 40
1.0
 40
1.0
 40
1.0
 40
1.0
 10
1.043605966314839
 20
1.255683019881036
 30
0.0
 10
1.042871035065406
 20
1.256792509552257
 30
0.0
 10
1.040814631745863
 20
1.259896960811682
 30
0.0
 10
1.037011551792616
 20
1.265638284139825
 30
0.0
 10
1.03333532889189
 20
1.27118809759599
 30
0.0
 10
1.031334446461968
 20
1.274208731690723
 30
0.0
 10
1.030702111103767
 20
1.275163337375555
 30
0.0
  0
ARC
  5
2B20
330
1F
100
AcDbEntity
  8
0
370
    25
100
AcDbCircle
 10
1.020283588885263
 20
1.254248112208752
 30
0.0
 40
0.0233664770343222
100
AcDbArc
 50
183.5206810831817
 51
243.5206810831891
  0
SPLINE
  5
2B21
330
1F
100
AcDbEntity
  8
0
370
    25
100
AcDbSpline
210
0.0
220
0.0
230
1.0
 70
    24
 71
     3
 72
    11
 73
     7
 74
     0
 42
0.00000001
 43
0.0000000001
 40
0.0
 40
0.0
 40
0.0
 40
0.0
 40
0.1560254891889347
 40
0.4937074226657316
 40
0.819057753376097
 40
1.0
 40
1.0
 40
1.0
 40
1.0
 10
0.9969612114556873
 20
1.252813204536469
 30
0.0
 10
0.9975935468137606
 20
1.25185859885183
 30
0.0
 10
0.9995944292434018
 20
1.24883796475752
 30
0.0
 10
1.003270652143587
 20
1.24328815130217
 30
0.0
 10
1.007073732097055
 20
1.237546827973696
 30
0.0
 10
1.009130135416896
 20
1.234442376713818
 30
0.0
 10
1.009865066666762
 20
1.233332887041949
 30
0.0
  0
CIRCLE
  5
2B22
330
1F
100
AcDbEntity
  8
0
370
    25
100
AcDbCircle
 10
1.020283588885263
 20
1.254248112208752
 30
0.0
 40
0.0356658842740288
  0
CIRCLE
  5
2B23
330
1F
100
AcDbEntity
  8
0
370
    25
100
AcDbCircle
 10
1.020283588885263
 20
1.254248112208752
 30
0.0
 40
0.0379424300787545
  0
LINE
  5
2B24
330
1F
100
AcDbEntity
  8
0
370
    25
100
AcDbLine
 10
0.7876671503565582
 20
1.184557686627158
 30
0.0
 11
0.7876671503565618
 21
0.5144213155798046
 31
0.0
  0
LINE
  5
2B25
330
1F
100
AcDbEntity
  8
0
370
    25
100
AcDbLine
 10
0.7876671503565618
 20
1.994074908837683
 30
0.0
 11
0.7876671503565582
 21
1.323938537790322
 31
0.0
  0
LINE
  5
2B26
330
1F
100
AcDbEntity
  8
0
370
    25
100
AcDbLine
 10
0.4543403726193631
 20
1.254248112208744
 30
0.0
 11
0.4543403726193667
 21
1.912774850743959
 31
0.0
  0
LINE
  5
2B27
330
1F
100
AcDbEntity
  8
0
370
    25
100
AcDbLine
 10
0.4543403726193667
 20
0.5957213736735279
 30
0.0
 11
0.4543403726193631
 21
1.254248112208744
 31
0.0
  0
LINE
  5
2B28
330
1F
100
AcDbEntity
  8
0
370
    25
100
AcDbLine
 10
0.8902329919606088
 20
1.049177380189126
 30
0.0
 11
0.7876671503565582
 21
1.049177380189126
 31
0.0
  0
LINE
  5
2B29
330
1F
100
AcDbEntity
  8
0
370
    25
100
AcDbLine
 10
0.9089732404115551
 20
1.039088473911463
 30
0.0
 11
0.909940931427414
 21
1.031652522413383
 31
0.0
  0
SPLINE
  5
2B2A
330
1F
100
AcDbEntity
  8
0
370
    25
100
AcDbSpline
210
0.0
220
0.0
230
1.0
 70
     8
 71
     3
 72
     9
 73
     5
 74
     0
 42
0.00000001
 43
0.0000000001
 40
0.0
 40
0.0
 40
0.0
 40
0.0
 40
0.2085859010207747
 40
0.9999999999999998
 40
0.9999999999999998
 40
0.9999999999999998
 40
0.9999999999999998
 10
0.909940931427414
 20
1.031652522413383
 30
0.0
 10
0.9099167436719106
 20
1.030415920390447
 30
0.0
 10
0.9098007830274568
 20
1.024487417951469
 30
0.0
 10
0.908365628233021
 20
1.01870441483693
 30
0.0
 10
0.9072298264944897
 20
1.014127664637642
 30
0.0
  0
LINE
  5
2B2B
330
1F
100
AcDbEntity
  8
0
370
    25
100
AcDbLine
 10
0.9072298264944897
 20
1.014127664637642
 30
0.0
 11
0.7876671503565582
 21
1.014127664637642
 31
0.0
  0
LINE
  5
2B2C
330
1F
100
AcDbEntity
  8
0
370
    25
100
AcDbLine
 10
0.8660314966932247
 20
1.066702237964866
 30
0.0
 11
0.7876671503565582
 21
1.066702237964866
 31
0.0
  0
LINE
  5
2B2D
330
1F
100
AcDbEntity
  8
0
370
    25
100
AcDbLine
 10
0.9072298264944897
 20
1.014127664637642
 30
0.0
 11
0.9099409314274176
 21
1.005365235749771
 31
0.0
  0
SPLINE
  5
2B2E
330
1F
100
AcDbEntity
  8
0
370
    25
100
AcDbSpline
210
0.0
220
0.0
230
1.0
 70
     8
 71
     3
 72
     9
 73
     5
 74
     0
 42
0.00000001
 43
0.0000000001
 40
0.0
 40
0.0
 40
0.0
 40
0.0
 40
0.0701975103374469
 40
1.0
 40
1.0
 40
1.0
 40
1.0
 10
0.9099409314274176
 20
1.005365235749771
 30
0.0
 10
0.9099382233872397
 20
1.00515752342139
 30
0.0
 10
0.9098996459481831
 20
1.002198553404047
 30
0.0
 10
0.9085161782264883
 20
0.9992989061229806
 30
0.0
 10
0.9072298264944897
 20
0.9966028068619001
 30
0.0
  0
LINE
  5
2B2F
330
1F
100
AcDbEntity
  8
0
370
    25
100
AcDbLine
 10
0.9072298264944897
 20
0.9966028068619001
 30
0.0
 11
0.7876671503565582
 21
0.9966028068619001
 31
0.0
  0
LINE
  5
2B30
330
1F
100
AcDbEntity
  8
0
370
    25
100
AcDbLine
 10
0.7876671503565582
 20
1.441793986452621
 30
0.0
 11
0.8583958872159058
 21
1.441793986452621
 31
0.0
  0
LINE
  5
2B31
330
1F
100
AcDbEntity
  8
0
370
    25
100
AcDbLine
 10
0.7876671503565582
 20
1.459318844228363
 30
0.0
 11
0.8583958872159058
 21
1.459318844228363
 31
0.0
  0
LINE
  5
2B32
330
1F
100
AcDbEntity
  8
0
370
    25
100
AcDbLine
 10
0.7876671503565582
 20
1.494368559779847
 30
0.0
 11
0.8583958872159058
 21
1.494368559779847
 31
0.0
  0
LINE
  5
2B33
330
1F
100
AcDbEntity
  8
0
370
    25
100
AcDbLine
 10
0.7876671503565582
 20
1.51189341755559
 30
0.0
 11
0.8583958872159058
 21
1.51189341755559
 31
0.0
  0
LINE
  5
2B34
330
1F
100
AcDbEntity
  8
0
370
    25
100
AcDbLine
 10
0.452851005764007
 20
0.7751189837456005
 30
0.0
 11
0.4543403726193631
 21
0.7750409293361731
 31
0.0
  0
LINE
  5
2B35
330
1F
100
AcDbEntity
  8
0
370
    25
100
AcDbLine
 10
0.452851005764007
 20
0.7751189837456005
 30
0.0
 11
0.452851005764007
 21
0.8345542456309482
 31
0.0
  0
LINE
  5
2B36
330
1F
100
AcDbEntity
  8
0
370
    25
100
AcDbLine
 10
0.452851005764007
 20
0.8345542456309482
 30
0.0
 11
0.452851005764007
 21
1.279745425221666
 31
0.0
  0
LINE
  5
2B37
330
1F
100
AcDbEntity
  8
0
370
    25
100
AcDbLine
 10
0.452851005764007
 20
1.279745425221666
 30
0.0
 11
0.452851005764007
 21
1.339180687107013
 31
0.0
  0
LINE
  5
2B38
330
1F
100
AcDbEntity
  8
0
370
    25
100
AcDbLine
 10
0.452851005764007
 20
1.339180687107013
 30
0.0
 11
0.4543403726193631
 21
1.339258741516442
 31
0.0
  0
LINE
  5
2B39
330
1F
100
AcDbEntity
  8
0
370
    25
100
AcDbLine
 10
0.8583958872159058
 20
1.244167188126217
 30
0.0
 11
0.8583958872159058
 21
2.01077095206671
 31
0.0
  0
LINE
  5
2B3A
330
1F
100
AcDbEntity
  8
0
370
    25
100
AcDbLine
 10
1.182171290554613
 20
2.01077095206671
 30
0.0
 11
1.18217129055461
 21
1.244167188126215
 31
0.0
  0
ARC
  5
2B3B
330
1F
100
AcDbEntity
  8
0
370
    25
100
AcDbCircle
 10
1.020283588885256
 20
1.244167188126217
 30
0.0
 40
0.161887701669353
100
AcDbArc
 50
270.0
 51
0.0000000000003053
  0
ARC
  5
2B3C
330
1F
100
AcDbEntity
  8
0
370
    25
100
AcDbCircle
 10
1.020283588885256
 20
1.244167188126217
 30
0.0
 40
0.161887701669353
100
AcDbArc
 50
180.0
 51
270.0
  0
LINE
  5
2B3D
330
1F
100
AcDbEntity
  8
0
370
    25
100
AcDbLine
 10
1.182171290554613
 20
2.020588748384216
 30
0.0
 11
1.182171290554613
 21
2.01077095206671
 31
0.0
  0
LINE
  5
2B3E
330
1F
100
AcDbEntity
  8
0
370
    25
100
AcDbLine
 10
0.8583958872159058
 20
2.01077095206671
 30
0.0
 11
0.8583958872159058
 21
2.020588748384216
 31
0.0
  0
LINE
  5
2B3F
330
1F
100
AcDbEntity
  8
0
370
    25
100
AcDbLine
 10
1.182171290554613
 20
2.533160955396622
 30
0.0
 11
1.182171290554613
 21
2.020588748384216
 31
0.0
  0
LINE
  5
2B40
330
1F
100
AcDbEntity
  8
0
370
    25
100
AcDbLine
 10
0.8583958872159058
 20
2.020588748384216
 30
0.0
 11
0.8583958872159094
 21
2.533160955396622
 31
0.0
  0
LINE
  5
2B41
330
1F
100
AcDbEntity
  8
0
370
    25
100
AcDbLine
 10
0.8583958872159094
 20
2.533160955396622
 30
0.0
 11
1.182171290554613
 21
2.533160955396622
 31
0.0
  0
LINE
  5
2B42
330
1F
100
AcDbEntity
  8
0
370
    25
100
AcDbLine
 10
1.182171290554602
 20
1.244167188126235
 30
0.0
 11
1.182171290554606
 21
1.09236041053939
 31
0.0
  0
ARC
  5
2B43
330
1F
100
AcDbEntity
  8
0
370
    25
100
AcDbCircle
 10
1.020283588885252
 20
1.254248112208738
 30
0.0
 40
0.2428315525040288
100
AcDbArc
 50
131.8103148957765
 51
306.8698976458451
  0
ARC
  5
2B44
330
1F
100
AcDbEntity
  8
0
370
    25
100
AcDbCircle
 10
1.141699365137267
 20
1.09236041053939
 30
0.0
 40
0.040471925417338
100
AcDbArc
 50
306.8698976458451
 51
0.0000000000009669
  0
LINE
  5
2B45
330
1F
100
AcDbEntity
  8
0
370
    25
100
AcDbLine
 10
0.8706831637726004
 20
0.9315249789308905
 30
0.0
 11
0.8706831637726004
 21
0.939969908250255
 31
0.0
  0
LINE
  5
2B46
330
1F
100
AcDbEntity
  8
0
370
    25
100
AcDbLine
 10
0.8706831637726004
 20
0.9028976245679753
 30
0.0
 11
0.8706831637726004
 21
0.9112890162222218
 31
0.0
  0
LINE
  5
2B47
330
1F
100
AcDbEntity
  8
0
370
    25
100
AcDbLine
 10
0.8723020407892931
 20
0.9315249789308905
 30
0.0
 11
0.8723020407892931
 21
0.939969908250255
 31
0.0
  0
LINE
  5
2B48
330
1F
100
AcDbEntity
  8
0
370
    25
100
AcDbLine
 10
0.8723020407892931
 20
0.9028976245679753
 30
0.0
 11
0.8723020407892931
 21
0.9112890162222218
 31
0.0
  0
LINE
  5
2B49
330
1F
100
AcDbEntity
  8
0
370
    25
100
AcDbLine
 10
0.8706831637726004
 20
0.9318994530867694
 30
0.0
 11
0.870669673214266
 21
0.9318510689381422
 31
0.0
  0
LINE
  5
2B4A
330
1F
100
AcDbEntity
  8
0
370
    25
100
AcDbLine
 10
0.8706831637726004
 20
0.9060273373768703
 30
0.0
 11
0.870669673214266
 21
0.9060959635196335
 31
0.0
  0
LINE
  5
2B4B
330
1F
100
AcDbEntity
  8
0
370
    25
100
AcDbLine
 10
0.8755397948226821
 20
0.9315249789308905
 30
0.0
 11
0.8755397948226821
 21
0.939969908250255
 31
0.0
  0
LINE
  5
2B4C
330
1F
100
AcDbEntity
  8
0
370
    25
100
AcDbLine
 10
0.8755397948226821
 20
0.9028976245679753
 30
0.0
 11
0.8755397948226821
 21
0.9112890162222218
 31
0.0
  0
LINE
  5
2B4D
330
1F
100
AcDbEntity
  8
0
370
    25
100
AcDbLine
 10
0.8787775488560711
 20
0.7605173909497794
 30
0.0
 11
0.909131492919073
 21
0.7605173909497794
 31
0.0
  0
LINE
  5
2B4E
330
1F
100
AcDbEntity
  8
0
370
    25
100
AcDbLine
 10
0.909131492919073
 20
0.7605173909497794
 30
0.0
 11
0.909131492919073
 21
0.9998965897283174
 31
0.0
  0
LINE
  5
2B4F
330
1F
100
AcDbEntity
  8
0
370
    25
100
AcDbLine
 10
0.8787775488560711
 20
0.7605173909497794
 30
0.0
 11
0.8787775488560711
 21
0.9966028068619001
 31
0.0
  0
LINE
  5
2B50
330
1F
100
AcDbEntity
  8
0
370
    25
100
AcDbLine
 10
0.8119988719174635
 20
0.7966725234403205
 30
0.0
 11
0.8119988719174635
 21
0.8169084861489892
 31
0.0
  0
LINE
  5
2B51
330
1F
100
AcDbEntity
  8
0
370
    25
100
AcDbLine
 10
0.8119988719174635
 20
0.8539807698312706
 30
0.0
 11
0.8119988719174635
 21
0.8742167325399403
 31
0.0
  0
LINE
  5
2B52
330
1F
100
AcDbEntity
  8
0
370
    25
100
AcDbLine
 10
0.8119988719174635
 20
0.9112890162222218
 30
0.0
 11
0.8119988719174635
 21
0.9315249789308905
 31
0.0
  0
LINE
  5
2B53
330
1F
100
AcDbEntity
  8
0
370
    25
100
AcDbLine
 10
0.8119988719174635
 20
0.9685972626131729
 30
0.0
 11
0.8119988719174635
 21
0.9888332253218408
 31
0.0
  0
LINE
  5
2B54
330
1F
100
AcDbEntity
  8
0
370
    25
100
AcDbLine
 10
0.8119988719174635
 20
1.083213755395074
 30
0.0
 11
0.8119988719174635
 21
1.103449718103741
 31
0.0
  0
LINE
  5
2B55
330
1F
100
AcDbEntity
  8
0
370
    25
100
AcDbLine
 10
0.8119988719174635
 20
0.8253534154683546
 30
0.0
 11
0.8119988719174635
 21
0.8455893781770233
 31
0.0
  0
LINE
  5
2B56
330
1F
100
AcDbEntity
  8
0
370
    25
100
AcDbLine
 10
0.8119988719174635
 20
0.7680451690774044
 30
0.0
 11
0.8119988719174635
 21
0.7882811317860741
 31
0.0
  0
LINE
  5
2B57
330
1F
100
AcDbEntity
  8
0
370
    25
100
AcDbLine
 10
0.8119988719174635
 20
0.8826616618593048
 30
0.0
 11
0.8119988719174635
 21
0.9028976245679753
 31
0.0
  0
LINE
  5
2B58
330
1F
100
AcDbEntity
  8
0
370
    25
100
AcDbLine
 10
0.8119988719174635
 20
0.939969908250255
 30
0.0
 11
0.8119988719174635
 21
0.9602058709589256
 31
0.0
  0
LINE
  5
2B59
330
1F
100
AcDbEntity
  8
0
370
    25
100
AcDbLine
 10
0.8119988719174635
 20
1.066702237964868
 30
0.0
 11
0.8119988719174635
 21
1.074822363740826
 31
0.0
  0
LINE
  5
2B5A
330
1F
100
AcDbEntity
  8
0
370
    25
100
AcDbLine
 10
0.8119988719174635
 20
1.111894647423108
 30
0.0
 11
0.8119988719174635
 21
1.129409658320666
 31
0.0
  0
LINE
  5
2B5B
330
1F
100
AcDbEntity
  8
0
370
    25
100
AcDbLine
 10
0.8119988719174635
 20
1.386483595640044
 30
0.0
 11
0.8119988719174635
 21
1.396601576994378
 31
0.0
  0
LINE
  5
2B5C
330
1F
100
AcDbEntity
  8
0
370
    25
100
AcDbLine
 10
0.8119988719174635
 20
1.379086566096816
 30
0.0
 11
0.8119988719174635
 21
1.386483595640044
 31
0.0
  0
LINE
  5
2B5D
330
1F
100
AcDbEntity
  8
0
370
    25
100
AcDbLine
 10
0.8119988719174635
 20
1.433673860676659
 30
0.0
 11
0.8119988719174635
 21
1.441793986452621
 31
0.0
  0
LINE
  5
2B5E
330
1F
100
AcDbEntity
  8
0
370
    25
100
AcDbLine
 10
0.8119988719174635
 20
1.558408334812895
 30
0.0
 11
0.8119988719174635
 21
1.568526316167229
 31
0.0
  0
LINE
  5
2B5F
330
1F
100
AcDbEntity
  8
0
370
    25
100
AcDbLine
 10
0.8119988719174635
 20
1.548290353458561
 30
0.0
 11
0.8119988719174635
 21
1.558408334812895
 31
0.0
  0
LINE
  5
2B60
330
1F
100
AcDbEntity
  8
0
370
    25
100
AcDbLine
 10
0.8119988719174635
 20
1.615716581203846
 30
0.0
 11
0.8119988719174635
 21
1.625834562558182
 31
0.0
  0
LINE
  5
2B61
330
1F
100
AcDbEntity
  8
0
370
    25
100
AcDbLine
 10
0.8119988719174635
 20
1.605598599849511
 30
0.0
 11
0.8119988719174635
 21
1.615716581203846
 31
0.0
  0
LINE
  5
2B62
330
1F
100
AcDbEntity
  8
0
370
    25
100
AcDbLine
 10
0.8119988719174635
 20
1.673024827594797
 30
0.0
 11
0.8119988719174635
 21
1.683142808949131
 31
0.0
  0
LINE
  5
2B63
330
1F
100
AcDbEntity
  8
0
370
    25
100
AcDbLine
 10
0.8119988719174635
 20
1.662906846240463
 30
0.0
 11
0.8119988719174635
 21
1.673024827594797
 31
0.0
  0
LINE
  5
2B64
330
1F
100
AcDbEntity
  8
0
370
    25
100
AcDbLine
 10
0.8119988719174635
 20
1.730333073985747
 30
0.0
 11
0.8119988719174635
 21
1.740451055340082
 31
0.0
  0
LINE
  5
2B65
330
1F
100
AcDbEntity
  8
0
370
    25
100
AcDbLine
 10
0.8119988719174635
 20
1.720215092631413
 30
0.0
 11
0.8119988719174635
 21
1.730333073985747
 31
0.0
  0
LINE
  5
2B66
330
1F
100
AcDbEntity
  8
0
370
    25
100
AcDbLine
 10
0.8119988719174635
 20
1.415164487668079
 30
0.0
 11
0.8119988719174635
 21
1.425282469022413
 31
0.0
  0
LINE
  5
2B67
330
1F
100
AcDbEntity
  8
0
370
    25
100
AcDbLine
 10
0.8119988719174635
 20
1.405046506313745
 30
0.0
 11
0.8119988719174635
 21
1.415164487668079
 31
0.0
  0
LINE
  5
2B68
330
1F
100
AcDbEntity
  8
0
370
    25
100
AcDbLine
 10
0.8119988719174635
 20
1.529780980449981
 30
0.0
 11
0.8119988719174635
 21
1.539898961804315
 31
0.0
  0
LINE
  5
2B69
330
1F
100
AcDbEntity
  8
0
370
    25
100
AcDbLine
 10
0.8119988719174635
 20
1.519662999095645
 30
0.0
 11
0.8119988719174635
 21
1.529780980449981
 31
0.0
  0
LINE
  5
2B6A
330
1F
100
AcDbEntity
  8
0
370
    25
100
AcDbLine
 10
0.8119988719174635
 20
1.58708922684093
 30
0.0
 11
0.8119988719174635
 21
1.597207208195264
 31
0.0
  0
LINE
  5
2B6B
330
1F
100
AcDbEntity
  8
0
370
    25
100
AcDbLine
 10
0.8119988719174635
 20
1.576971245486596
 30
0.0
 11
0.8119988719174635
 21
1.58708922684093
 31
0.0
  0
LINE
  5
2B6C
330
1F
100
AcDbEntity
  8
0
370
    25
100
AcDbLine
 10
0.8119988719174635
 20
1.644397473231881
 30
0.0
 11
0.8119988719174635
 21
1.654515454586215
 31
0.0
  0
LINE
  5
2B6D
330
1F
100
AcDbEntity
  8
0
370
    25
100
AcDbLine
 10
0.8119988719174635
 20
1.634279491877547
 30
0.0
 11
0.8119988719174635
 21
1.644397473231881
 31
0.0
  0
LINE
  5
2B6E
330
1F
100
AcDbEntity
  8
0
370
    25
100
AcDbLine
 10
0.8119988719174635
 20
1.701705719622832
 30
0.0
 11
0.8119988719174635
 21
1.711823700977166
 31
0.0
  0
LINE
  5
2B6F
330
1F
100
AcDbEntity
  8
0
370
    25
100
AcDbLine
 10
0.8119988719174635
 20
1.691587738268497
 30
0.0
 11
0.8119988719174635
 21
1.701705719622832
 31
0.0
  0
LINE
  5
2B70
330
1F
100
AcDbEntity
  8
0
370
    25
100
AcDbLine
 10
0.909131492919073
 20
0.7653472531673007
 30
0.0
 11
0.9099409314274211
 21
0.7653472531673007
 31
0.0
  0
LINE
  5
2B71
330
1F
100
AcDbEntity
  8
0
370
    25
100
AcDbLine
 10
1.578537139321841
 20
2.089748157570651
 30
0.0
 11
1.578537139321841
 21
0.4187480668468347
 31
0.0
  0
LINE
  5
2B72
330
1F
100
AcDbEntity
  8
0
370
    25
100
AcDbLine
 10
1.740424840991188
 20
1.254248112208744
 30
0.0
 11
1.740424840991192
 21
0.4792753982980101
 31
0.0
  0
LINE
  5
2B73
330
1F
100
AcDbEntity
  8
0
370
    25
100
AcDbLine
 10
1.740424840991192
 20
2.029220826119477
 30
0.0
 11
1.740424840991188
 21
1.254248112208744
 31
0.0
  0
LINE
  5
2B74
330
1F
100
AcDbEntity
  8
0
370
    25
100
AcDbLine
 10
0.9285010830660702
 20
1.029430109110527
 30
0.0
 11
0.9285010830660738
 21
0.5043269371747679
 31
0.0
  0
LINE
  5
2B75
330
1F
100
AcDbEntity
  8
0
370
    25
100
AcDbLine
 10
0.909940931427414
 20
1.038628167907812
 30
0.0
 11
0.9099409314274176
 21
0.5459894174053286
 31
0.0
  0
LINE
  5
2B76
330
1F
100
AcDbEntity
  8
0
370
    25
100
AcDbLine
 10
1.05223639963383
 20
1.324040383869352
 30
0.0
 11
1.05223639963383
 21
1.324044235899867
 31
0.0
  0
LINE
  5
2B77
330
1F
100
AcDbEntity
  8
0
370
    25
100
AcDbLine
 10
1.056205020693099
 20
1.327293967969975
 30
0.0
 11
1.056201243445222
 21
1.327294723309362
 31
0.0
  0
LINE
  5
2B78
330
1F
100
AcDbEntity
  8
0
370
    25
100
AcDbLine
 10
1.056205020693099
 20
1.725144934056524
 30
0.0
 11
1.056201243445226
 21
1.725144178717139
 31
0.0
  0
LINE
  5
2B79
330
1F
100
AcDbEntity
  8
0
370
    25
100
AcDbLine
 10
1.05223639963383
 20
1.728394666126632
 30
0.0
 11
1.05223639963383
 21
1.728398518157147
 31
0.0
  0
LINE
  5
2B7A
330
1F
100
AcDbEntity
  8
0
370
    25
100
AcDbLine
 10
0.988330778136671
 20
1.324040383869352
 30
0.0
 11
0.988330778136671
 21
1.324044235899867
 31
0.0
  0
LINE
  5
2B7B
330
1F
100
AcDbEntity
  8
0
370
    25
100
AcDbLine
 10
0.9843659343252788
 20
1.327294723309362
 30
0.0
 11
0.9843621570774025
 21
1.327293967969975
 31
0.0
  0
LINE
  5
2B7C
330
1F
100
AcDbEntity
  8
0
370
    25
100
AcDbLine
 10
0.9843659343252788
 20
1.725144178717139
 30
0.0
 11
0.9843621570774061
 21
1.725144934056524
 31
0.0
  0
LINE
  5
2B7D
330
1F
100
AcDbEntity
  8
0
370
    25
100
AcDbLine
 10
0.988330778136671
 20
1.728394666126632
 30
0.0
 11
0.988330778136671
 21
1.728398518157147
 31
0.0
  0
LINE
  5
2B7E
330
1F
100
AcDbEntity
  8
0
370
    25
100
AcDbLine
 10
0.452851005764007
 20
0.8345542456309482
 30
0.0
 11
0.4543403726193631
 21
0.8345542456309482
 31
0.0
  0
LINE
  5
2B7F
330
1F
100
AcDbEntity
  8
0
370
    25
100
AcDbLine
 10
0.452851005764007
 20
1.279745425221666
 30
0.0
 11
0.4543403726193631
 21
1.279745425221666
 31
0.0
  0
LINE
  5
2B80
330
1F
100
AcDbEntity
  8
0
370
    25
100
AcDbLine
 10
0.8653208517423109
 20
0.9036802942437622
 30
0.0
 11
0.8653208517423109
 21
0.9112890162222218
 31
0.0
  0
LINE
  5
2B81
330
1F
100
AcDbEntity
  8
0
370
    25
100
AcDbLine
 10
0.8653208517423109
 20
0.9315249789308905
 30
0.0
 11
0.8653208517423109
 21
0.9391337008180444
 31
0.0
  0
LINE
  5
2B82
330
1F
100
AcDbEntity
  8
0
370
    25
100
AcDbLine
 10
0.8683519808685602
 20
0.9036802942437622
 30
0.0
 11
0.8683519808685602
 21
0.9112890162222218
 31
0.0
  0
LINE
  5
2B83
330
1F
100
AcDbEntity
  8
0
370
    25
100
AcDbLine
 10
0.8683519808685602
 20
0.9315249789308905
 30
0.0
 11
0.8683519808685602
 21
0.9391337008180444
 31
0.0
  0
LINE
  5
2B84
330
1F
100
AcDbEntity
  8
0
370
    25
100
AcDbLine
 10
0.8634766074688258
 20
0.904585582063369
 30
0.0
 11
0.8634766074688258
 21
0.9112890162222218
 31
0.0
  0
LINE
  5
2B85
330
1F
100
AcDbEntity
  8
0
370
    25
100
AcDbLine
 10
0.8634766074688258
 20
0.9315249789308905
 30
0.0
 11
0.8634766074688258
 21
0.9382284130030988
 31
0.0
  0
LINE
  5
2B86
330
1F
100
AcDbEntity
  8
0
370
    25
100
AcDbLine
 10
0.909131492919073
 20
0.7702038842173815
 30
0.0
 11
0.9099409314274211
 21
0.7702038842173815
 31
0.0
  0
LINE
  5
2B87
330
1F
100
AcDbEntity
  8
0
100
AcDbLine
 10
0.6155037085560693
 20
1.993691170344909
 30
0.0
 11
0.6155037085560693
 21
0.5148050540725784
 31
0.0
  0
TEXT
  5
2B88
330
1F
100
AcDbEntity
  8
0
100
AcDbText
 10
2.02728878755914
 20
1.191745683900141
 30
0.0
 40
0.125
  1
UV94
 41
0.7500000000000002
 51
15.0
  7
P125
 72
     2
 11
2.37103878755914
 21
1.254245683900141
 31
0.0
100
AcDbText
 73
     2
  0
ENDSEC
  0
SECTION
  2
OBJECTS
  0
DICTIONARY
  5
C
330
0
100
AcDbDictionary
281
     1
  3
ACAD_CIP_PREVIOUS_PRODUCT_INFO
350
262F
  3
ACAD_COLOR
350
2621
  3
ACAD_DETAILVIEWSTYLE
350
2628
  3
ACAD_GROUP
350
D
  3
ACAD_LAYOUT
350
1A
  3
ACAD_MATERIAL
350
25EF
  3
ACAD_MLEADERSTYLE
350
2624
  3
ACAD_MLINESTYLE
350
17
  3
ACAD_PLOTSETTINGS
350
19
  3
ACAD_PLOTSTYLENAME
350
E
  3
ACAD_SCALELIST
350
47
  3
ACAD_SECTIONVIEWSTYLE
350
2626
  3
ACAD_TABLESTYLE
350
2622
  3
ACAD_VISUALSTYLE
350
2608
  3
ACDB_RECOMPOSE_DATA
350
2BAE
  3
AcDbVariableDictionary
350
2943
  0
DICTIONARY
  5
264D
330
2
100
AcDbDictionary
280
     1
281
     1
  3
ACAD_LAYERSTATES
360
264E
  0
DICTIONARY
  5
2630
330
10
100
AcDbDictionary
280
     1
281
     1
  3
ADSK_XREC_LAYER_RECONCILED
360
2631
  0
DICTIONARY
  5
2648
330
1F
100
AcDbDictionary
280
     1
281
     1
  3
ACAD_SORTENTS
360
2649
  0
XRECORD
  5
262F
102
{ACAD_REACTORS
330
C
102
}
330
C
100
AcDbXrecord
280
     1
300
ACDLT
300
2022
300

  0
DICTIONARY
  5
2621
102
{ACAD_REACTORS
330
C
102
}
330
C
100
AcDbDictionary
281
     1
  0
DICTIONARY
  5
2628
102
{ACAD_REACTORS
330
C
102
}
330
C
100
AcDbDictionary
281
     1
  3
Imperial24
350
2629
  0
DICTIONARY
  5
D
102
{ACAD_REACTORS
330
C
102
}
330
C
100
AcDbDictionary
281
     1
  0
DICTIONARY
  5
1A
102
{ACAD_REACTORS
330
C
102
}
330
C
100
AcDbDictionary
281
     1
  3
Layout1
350
1E
  3
Layout2
350
26
  3
Model
350
22
  0
DICTIONARY
  5
25EF
102
{ACAD_REACTORS
330
C
102
}
330
C
100
AcDbDictionary
281
     1
  3
ByBlock
350
25F8
  3
ByLayer
350
25F0
  3
Global
350
2600
  0
DICTIONARY
  5
2624
102
{ACAD_REACTORS
330
C
102
}
330
C
100
AcDbDictionary
281
     1
  3
Standard
350
2625
  0
DICTIONARY
  5
17
102
{ACAD_REACTORS
330
C
102
}
330
C
100
AcDbDictionary
281
     1
  3
Standard
350
18
  0
DICTIONARY
  5
19
102
{ACAD_REACTORS
330
C
102
}
330
C
100
AcDbDictionary
281
     1
  0
ACDBDICTIONARYWDFLT
  5
E
102
{ACAD_REACTORS
330
C
102
}
330
C
100
AcDbDictionary
281
     1
  3
Normal
350
F
100
AcDbDictionaryWithDefault
340
F
  0
DICTIONARY
  5
47
102
{ACAD_REACTORS
330
C
102
}
330
C
100
AcDbDictionary
281
     1
  3
A0
350
48
  3
A1
350
49
  3
A2
350
4A
  3
A3
350
4B
  3
A4
350
4C
  3
A5
350
4D
  3
A6
350
4E
  3
A7
350
4F
  3
A8
350
50
  3
A9
350
51
  3
B0
350
52
  3
B1
350
53
  3
B2
350
54
  3
B3
350
55
  3
B4
350
56
  3
B5
350
57
  3
B6
350
58
  3
B7
350
59
  3
B8
350
5A
  3
B9
350
5B
  3
C0
350
5C
  3
C1
350
5D
  3
C2
350
5E
  3
C3
350
5F
  3
C4
350
60
  3
C5
350
61
  3
C6
350
62
  3
C7
350
63
  3
C8
350
64
  3
C9
350
65
  3
D0
350
66
  3
D1
350
67
  3
D2
350
68
  0
DICTIONARY
  5
2626
102
{ACAD_REACTORS
330
C
102
}
330
C
100
AcDbDictionary
281
     1
  3
Imperial24
350
2627
  0
DICTIONARY
  5
2622
102
{ACAD_REACTORS
330
C
102
}
330
C
100
AcDbDictionary
281
     1
  3
Standard
350
2623
  0
DICTIONARY
  5
2608
102
{ACAD_REACTORS
330
C
102
}
330
C
100
AcDbDictionary
281
     1
  3
2dWireframe
350
260E
  3
Basic
350
260D
  3
Brighten
350
2614
  3
ColorChange
350
2618
  3
Conceptual
350
2611
  3
Dim
350
2613
  3
EdgeColorOff
350
2620
  3
Facepattern
350
2617
  3
Flat
350
2609
  3
FlatWithEdges
350
260A
  3
Gouraud
350
260B
  3
GouraudWithEdges
350
260C
  3
Hidden
350
2610
  3
JitterOff
350
261E
  3
Linepattern
350
2616
  3
OverhangOff
350
261F
  3
Realistic
350
2612
  3
Shaded
350
261D
  3
Shaded with edges
350
261C
  3
Shades of Gray
350
2619
  3
Sketchy
350
261A
  3
Thicken
350
2615
  3
Wireframe
350
260F
  3
X-Ray
350
261B
  0
XRECORD
  5
2BAE
102
{ACAD_REACTORS
330
C
102
}
330
C
100
AcDbXrecord
280
     1
 90
        1
330
2623
  0
DICTIONARY
  5
2943
102
{ACAD_REACTORS
330
C
102
}
330
C
100
AcDbDictionary
281
     1
  3
CANNOSCALE
350
2949
  3
CMLEADERSTYLE
350
2945
  3
CTABLESTYLE
350
2944
  3
CVIEWDETAILSTYLE
350
2946
  3
CVIEWSECTIONSTYLE
350
2947
  3
LAYEREVAL
350
294B
  3
LAYERNOTIFY
350
294C
  3
LIGHTINGUNITS
350
294A
  3
MSLTSCALE
350
2948
  0
DICTIONARY
  5
264E
102
{ACAD_REACTORS
330
264D
102
}
330
264D
100
AcDbDictionary
281
     1
  0
XRECORD
  5
2631
102
{ACAD_REACTORS
330
2630
102
}
330
2630
100
AcDbXrecord
280
     1
290
     1
  0
SORTENTSTABLE
  5
2649
102
{ACAD_REACTORS
330
2648
102
}
330
2648
100
AcDbSortentsTable
330
1F
  0
ACDBDETAILVIEWSTYLE
  5
2629
102
{ACAD_REACTORS
330
2628
102
}
330
2628
100
AcDbModelDocViewStyle
 70
     0
  3
Imperial24
290
     1
300
Imperial24
 90
        0
100
AcDbDetailViewStyle
 70
     0
 71
     0
 90
        3
 71
     1
340
11
 62
   256
 40
0.24
340
0
 62
   256
 40
0.24
300

 40
0.36
280
     3
 71
     2
340
16
 90
       25
 62
   256
 71
     3
340
11
 62
   256
 40
0.24
 90
        1
 40
0.75
 90
        1
300
%<\AcVar ViewType \f "%tc1">% %<\AcVar ViewDetailId>%\PSCALE %<\AcVar ViewScale \f "%sn">%
 71
     4
340
16
 90
       25
 62
   256
340
16
 90
       25
 62
   256
280
     0
  0
LAYOUT
  5
1E
102
{ACAD_REACTORS
330
1A
102
}
330
1A
100
AcDbPlotSettings
  1

  2
none_device
  4

  6

 40
0.0
 41
0.0
 42
0.0
 43
0.0
 44
0.0
 45
0.0
 46
0.0
 47
0.0
 48
0.0
 49
0.0
140
0.0
141
0.0
142
1.0
143
1.0
 70
   688
 72
     0
 73
     0
 74
     5
  7

 75
    16
147
1.0
 76
     0
 77
     2
 78
   300
148
0.0
149
0.0
100
AcDbLayout
  1
Layout1
 70
     1
 71
     1
 10
0.0
 20
0.0
 11
12.0
 21
9.0
 12
0.0
 22
0.0
 32
0.0
 14
1.000000000000000E+20
 24
1.000000000000000E+20
 34
1.000000000000000E+20
 15
-1.000000000000000E+20
 25
-1.000000000000000E+20
 35
-1.000000000000000E+20
146
0.0
 13
0.0
 23
0.0
 33
0.0
 16
1.0
 26
0.0
 36
0.0
 17
0.0
 27
1.0
 37
0.0
 76
     0
330
1B
  0
LAYOUT
  5
26
102
{ACAD_REACTORS
330
1A
102
}
330
1A
100
AcDbPlotSettings
  1

  2
none_device
  4

  6

 40
0.0
 41
0.0
 42
0.0
 43
0.0
 44
0.0
 45
0.0
 46
0.0
 47
0.0
 48
0.0
 49
0.0
140
0.0
141
0.0
142
1.0
143
1.0
 70
   688
 72
     0
 73
     0
 74
     5
  7

 75
    16
147
1.0
 76
     0
 77
     2
 78
   300
148
0.0
149
0.0
100
AcDbLayout
  1
Layout2
 70
     1
 71
     2
 10
0.0
 20
0.0
 11
0.0
 21
0.0
 12
0.0
 22
0.0
 32
0.0
 14
0.0
 24
0.0
 34
0.0
 15
0.0
 25
0.0
 35
0.0
146
0.0
 13
0.0
 23
0.0
 33
0.0
 16
1.0
 26
0.0
 36
0.0
 17
0.0
 27
1.0
 37
0.0
 76
     0
330
23
  0
LAYOUT
  5
22
102
{ACAD_REACTORS
330
1A
102
}
330
1A
100
AcDbPlotSettings
  1

  2
none_device
  4
Letter_(8.50_x_11.00_Inches)
  6

 40
6.349999999999999
 41
6.349999999999999
 42
6.350005079999999
 43
6.350005079999999
 44
215.9
 45
279.4
 46
0.0
 47
0.0
 48
0.0
 49
0.0
140
0.0
141
0.0
142
1.0
143
1.0
 70
  1712
 72
     0
 73
     0
 74
     0
  7

 75
     0
147
1.0
 76
     0
 77
     2
 78
   300
148
0.0
149
0.0
100
AcDbLayout
  1
Model
 70
     1
 71
     0
 10
0.0
 20
0.0
 11
34.0
 21
22.0
 12
0.0
 22
0.0
 32
0.0
 14
0.0
 24
0.0
 34
0.0
 15
34.0
 25
22.0
 35
0.0
146
0.0
 13
0.0
 23
0.0
 33
0.0
 16
1.0
 26
0.0
 36
0.0
 17
0.0
 27
1.0
 37
0.0
 76
     0
330
1F
331
29
  0
MATERIAL
  5
25F8
102
{ACAD_XDICTIONARY
360
25F9
102
}
102
{ACAD_REACTORS
330
25EF
102
}
330
25EF
100
AcDbMaterial
  1
ByBlock
 72
     0
 43
0.0208333333333333
 43
0.0
 43
0.0
 43
0.0
 43
0.0
 43
0.0208333333333333
 43
0.0
 43
0.0
 43
0.0
 43
0.0
 43
1.0
 43
0.0
 43
0.0
 43
0.0
 43
0.0
 43
1.0
 77
     0
 47
0.0208333333333333
 47
0.0
 47
0.0
 47
0.0
 47
0.0
 47
0.0208333333333333
 47
0.0
 47
0.0
 47
0.0
 47
0.0
 47
1.0
 47
0.0
 47
0.0
 47
0.0
 47
0.0
 47
1.0
171
     0
 49
0.0208333333333333
 49
0.0
 49
0.0
 49
0.0
 49
0.0
 49
0.0208333333333333
 49
0.0
 49
0.0
 49
0.0
 49
0.0
 49
1.0
 49
0.0
 49
0.0
 49
0.0
 49
0.0
 49
1.0
175
     0
142
0.0208333333333333
142
0.0
142
0.0
142
0.0
142
0.0
142
0.0208333333333333
142
0.0
142
0.0
142
0.0
142
0.0
142
1.0
142
0.0
142
0.0
142
0.0
142
0.0
142
1.0
179
     0
144
0.0208333333333333
144
0.0
144
0.0
144
0.0
144
0.0
144
0.0208333333333333
144
0.0
144
0.0
144
0.0
144
0.0
144
1.0
144
0.0
144
0.0
144
0.0
144
0.0
144
1.0
147
0.0208333333333333
147
0.0
147
0.0
147
0.0
147
0.0
147
0.0208333333333333
147
0.0
147
0.0
147
0.0
147
0.0
147
1.0
147
0.0
147
0.0
147
0.0
147
0.0
147
1.0
  0
MATERIAL
  5
25F0
102
{ACAD_XDICTIONARY
360
25F1
102
}
102
{ACAD_REACTORS
330
25EF
102
}
330
25EF
100
AcDbMaterial
  1
ByLayer
 72
     0
 43
0.0208333333333333
 43
0.0
 43
0.0
 43
0.0
 43
0.0
 43
0.0208333333333333
 43
0.0
 43
0.0
 43
0.0
 43
0.0
 43
1.0
 43
0.0
 43
0.0
 43
0.0
 43
0.0
 43
1.0
 77
     0
 47
0.0208333333333333
 47
0.0
 47
0.0
 47
0.0
 47
0.0
 47
0.0208333333333333
 47
0.0
 47
0.0
 47
0.0
 47
0.0
 47
1.0
 47
0.0
 47
0.0
 47
0.0
 47
0.0
 47
1.0
171
     0
 49
0.0208333333333333
 49
0.0
 49
0.0
 49
0.0
 49
0.0
 49
0.0208333333333333
 49
0.0
 49
0.0
 49
0.0
 49
0.0
 49
1.0
 49
0.0
 49
0.0
 49
0.0
 49
0.0
 49
1.0
175
     0
142
0.0208333333333333
142
0.0
142
0.0
142
0.0
142
0.0
142
0.0208333333333333
142
0.0
142
0.0
142
0.0
142
0.0
142
1.0
142
0.0
142
0.0
142
0.0
142
0.0
142
1.0
179
     0
144
0.0208333333333333
144
0.0
144
0.0
144
0.0
144
0.0
144
0.0208333333333333
144
0.0
144
0.0
144
0.0
144
0.0
144
1.0
144
0.0
144
0.0
144
0.0
144
0.0
144
1.0
147
0.0208333333333333
147
0.0
147
0.0
147
0.0
147
0.0
147
0.0208333333333333
147
0.0
147
0.0
147
0.0
147
0.0
147
1.0
147
0.0
147
0.0
147
0.0
147
0.0
147
1.0
  0
MATERIAL
  5
2600
102
{ACAD_XDICTIONARY
360
2601
102
}
102
{ACAD_REACTORS
330
25EF
102
}
330
25EF
100
AcDbMaterial
  1
Global
 72
     0
 43
0.0208333333333333
 43
0.0
 43
0.0
 43
0.0
 43
0.0
 43
0.0208333333333333
 43
0.0
 43
0.0
 43
0.0
 43
0.0
 43
1.0
 43
0.0
 43
0.0
 43
0.0
 43
0.0
 43
1.0
 77
     0
 47
0.0208333333333333
 47
0.0
 47
0.0
 47
0.0
 47
0.0
 47
0.0208333333333333
 47
0.0
 47
0.0
 47
0.0
 47
0.0
 47
1.0
 47
0.0
 47
0.0
 47
0.0
 47
0.0
 47
1.0
171
     0
 49
0.0208333333333333
 49
0.0
 49
0.0
 49
0.0
 49
0.0
 49
0.0208333333333333
 49
0.0
 49
0.0
 49
0.0
 49
0.0
 49
1.0
 49
0.0
 49
0.0
 49
0.0
 49
0.0
 49
1.0
175
     0
142
0.0208333333333333
142
0.0
142
0.0
142
0.0
142
0.0
142
0.0208333333333333
142
0.0
142
0.0
142
0.0
142
0.0
142
1.0
142
0.0
142
0.0
142
0.0
142
0.0
142
1.0
179
     0
144
0.0208333333333333
144
0.0
144
0.0
144
0.0
144
0.0
144
0.0208333333333333
144
0.0
144
0.0
144
0.0
144
0.0
144
1.0
144
0.0
144
0.0
144
0.0
144
0.0
144
1.0
147
0.0208333333333333
147
0.0
147
0.0
147
0.0
147
0.0
147
0.0208333333333333
147
0.0
147
0.0
147
0.0
147
0.0
147
1.0
147
0.0
147
0.0
147
0.0
147
0.0
147
1.0
  0
MLEADERSTYLE
  5
2625
102
{ACAD_REACTORS
330
2624
102
}
330
2624
100
AcDbMLeaderStyle
179
     2
170
     2
171
     1
172
     0
 90
        2
 40
0.0
 41
0.0
173
     1
 91
-1056964608
340
14
 92
       -2
290
     1
 42
0.09
291
     1
 43
0.36
  3
Standard
 44
0.18
300

342
11
174
     1
178
     6
175
     1
176
     0
 93
-1056964608
 45
0.18
292
     0
297
     0
 46
0.18
 94
-1056964608
 47
1.0
 49
1.0
140
1.0
293
     1
141
0.0
294
     1
177
     0
142
1.0
295
     1
296
     0
143
0.125
271
     0
272
     9
273
     9
298
     1
  0
MLINESTYLE
  5
18
102
{ACAD_REACTORS
330
17
102
}
330
17
100
AcDbMlineStyle
  2
STANDARD
 70
     0
  3

 62
   256
 51
90.0
 52
90.0
 71
     2
 49
0.5
 62
   256
  6
BYLAYER
 49
-0.5
 62
   256
  6
BYLAYER
  0
ACDBPLACEHOLDER
  5
F
102
{ACAD_REACTORS
330
E
102
}
330
E
  0
SCALE
  5
48
102
{ACAD_REACTORS
330
47
102
}
330
47
100
AcDbScale
 70
     0
300
1:1
140
1.0
141
1.0
290
     1
  0
SCALE
  5
49
102
{ACAD_REACTORS
330
47
102
}
330
47
100
AcDbScale
 70
     0
300
1:2
140
1.0
141
2.0
290
     0
  0
SCALE
  5
4A
102
{ACAD_REACTORS
330
47
102
}
330
47
100
AcDbScale
 70
     0
300
1:4
140
1.0
141
4.0
290
     0
  0
SCALE
  5
4B
102
{ACAD_REACTORS
330
47
102
}
330
47
100
AcDbScale
 70
     0
300
1:5
140
1.0
141
5.0
290
     0
  0
SCALE
  5
4C
102
{ACAD_REACTORS
330
47
102
}
330
47
100
AcDbScale
 70
     0
300
1:8
140
1.0
141
8.0
290
     0
  0
SCALE
  5
4D
102
{ACAD_REACTORS
330
47
102
}
330
47
100
AcDbScale
 70
     0
300
1:10
140
1.0
141
10.0
290
     0
  0
SCALE
  5
4E
102
{ACAD_REACTORS
330
47
102
}
330
47
100
AcDbScale
 70
     0
300
1:16
140
1.0
141
16.0
290
     0
  0
SCALE
  5
4F
102
{ACAD_REACTORS
330
47
102
}
330
47
100
AcDbScale
 70
     0
300
1:20
140
1.0
141
20.0
290
     0
  0
SCALE
  5
50
102
{ACAD_REACTORS
330
47
102
}
330
47
100
AcDbScale
 70
     0
300
1:30
140
1.0
141
30.0
290
     0
  0
SCALE
  5
51
102
{ACAD_REACTORS
330
47
102
}
330
47
100
AcDbScale
 70
     0
300
1:40
140
1.0
141
40.0
290
     0
  0
SCALE
  5
52
102
{ACAD_REACTORS
330
47
102
}
330
47
100
AcDbScale
 70
     0
300
1:50
140
1.0
141
50.0
290
     0
  0
SCALE
  5
53
102
{ACAD_REACTORS
330
47
102
}
330
47
100
AcDbScale
 70
     0
300
1:100
140
1.0
141
100.0
290
     0
  0
SCALE
  5
54
102
{ACAD_REACTORS
330
47
102
}
330
47
100
AcDbScale
 70
     0
300
2:1
140
2.0
141
1.0
290
     0
  0
SCALE
  5
55
102
{ACAD_REACTORS
330
47
102
}
330
47
100
AcDbScale
 70
     0
300
4:1
140
4.0
141
1.0
290
     0
  0
SCALE
  5
56
102
{ACAD_REACTORS
330
47
102
}
330
47
100
AcDbScale
 70
     0
300
8:1
140
8.0
141
1.0
290
     0
  0
SCALE
  5
57
102
{ACAD_REACTORS
330
47
102
}
330
47
100
AcDbScale
 70
     0
300
10:1
140
10.0
141
1.0
290
     0
  0
SCALE
  5
58
102
{ACAD_REACTORS
330
47
102
}
330
47
100
AcDbScale
 70
     0
300
100:1
140
100.0
141
1.0
290
     0
  0
SCALE
  5
59
102
{ACAD_REACTORS
330
47
102
}
330
47
100
AcDbScale
 70
     0
300
1/128" = 1'-0"
140
0.0078125
141
12.0
290
     0
  0
SCALE
  5
5A
102
{ACAD_REACTORS
330
47
102
}
330
47
100
AcDbScale
 70
     0
300
1/64" = 1'-0"
140
0.015625
141
12.0
290
     0
  0
SCALE
  5
5B
102
{ACAD_REACTORS
330
47
102
}
330
47
100
AcDbScale
 70
     0
300
1/32" = 1'-0"
140
0.03125
141
12.0
290
     0
  0
SCALE
  5
5C
102
{ACAD_REACTORS
330
47
102
}
330
47
100
AcDbScale
 70
     0
300
1/16" = 1'-0"
140
0.0625
141
12.0
290
     0
  0
SCALE
  5
5D
102
{ACAD_REACTORS
330
47
102
}
330
47
100
AcDbScale
 70
     0
300
3/32" = 1'-0"
140
0.09375
141
12.0
290
     0
  0
SCALE
  5
5E
102
{ACAD_REACTORS
330
47
102
}
330
47
100
AcDbScale
 70
     0
300
1/8" = 1'-0"
140
0.125
141
12.0
290
     0
  0
SCALE
  5
5F
102
{ACAD_REACTORS
330
47
102
}
330
47
100
AcDbScale
 70
     0
300
3/16" = 1'-0"
140
0.1875
141
12.0
290
     0
  0
SCALE
  5
60
102
{ACAD_REACTORS
330
47
102
}
330
47
100
AcDbScale
 70
     0
300
1/4" = 1'-0"
140
0.25
141
12.0
290
     0
  0
SCALE
  5
61
102
{ACAD_REACTORS
330
47
102
}
330
47
100
AcDbScale
 70
     0
300
3/8" = 1'-0"
140
0.375
141
12.0
290
     0
  0
SCALE
  5
62
102
{ACAD_REACTORS
330
47
102
}
330
47
100
AcDbScale
 70
     0
300
1/2" = 1'-0"
140
0.5
141
12.0
290
     0
  0
SCALE
  5
63
102
{ACAD_REACTORS
330
47
102
}
330
47
100
AcDbScale
 70
     0
300
3/4" = 1'-0"
140
0.75
141
12.0
290
     0
  0
SCALE
  5
64
102
{ACAD_REACTORS
330
47
102
}
330
47
100
AcDbScale
 70
     0
300
1" = 1'-0"
140
1.0
141
12.0
290
     0
  0
SCALE
  5
65
102
{ACAD_REACTORS
330
47
102
}
330
47
100
AcDbScale
 70
     0
300
1-1/2" = 1'-0"
140
1.5
141
12.0
290
     0
  0
SCALE
  5
66
102
{ACAD_REACTORS
330
47
102
}
330
47
100
AcDbScale
 70
     0
300
3" = 1'-0"
140
3.0
141
12.0
290
     0
  0
SCALE
  5
67
102
{ACAD_REACTORS
330
47
102
}
330
47
100
AcDbScale
 70
     0
300
6" = 1'-0"
140
6.0
141
12.0
290
     0
  0
SCALE
  5
68
102
{ACAD_REACTORS
330
47
102
}
330
47
100
AcDbScale
 70
     0
300
1'-0" = 1'-0"
140
12.0
141
12.0
290
     0
  0
ACDBSECTIONVIEWSTYLE
  5
2627
102
{ACAD_REACTORS
330
2626
102
}
330
2626
100
AcDbModelDocViewStyle
 70
     0
  3
Imperial24
290
     1
300
Imperial24
 90
        0
100
AcDbSectionViewStyle
 70
     0
 71
     0
 90
       78
 71
     1
340
11
 62
   256
 40
0.24
340
0
340
0
 62
   256
 40
0.24
300
I, O, Q, S, X, Z
 40
0.48
 90
        3
 40
0.18
 90
        1
 71
     2
340
16
 90
       25
 62
   256
340
16
 90
       50
 62
   256
 40
0.24
 40
0.0
 40
0.24
 71
     3
340
11
 62
   256
 40
0.24
 90
        1
 40
0.75
 90
        1
300
%<\AcVar ViewType \f "%tc1">% %<\AcVar ViewSectionStartId>%-%<\AcVar ViewSectionEndId>%\PSCALE %<\AcVar ViewScale \f "%sn">%
 71
     4
 62
   256
 62
   257
300
ANSI31
 40
1.0
 90
        0
290
     0
290
     0
 90
        6
 40
0.0
 40
1.570796326794896
 40
0.2617993877991494
 40
1.308996938995747
 40
-0.2617993877991494
 40
1.832595714594046
  0
TABLESTYLE
  5
2623
102
{ACAD_XDICTIONARY
360
2BAC
102
}
102
{ACAD_REACTORS
330
2622
102
}
330
2622
100
AcDbTableStyle
280
     0
  3
Standard
 70
     0
 71
     0
 40
0.06
 41
0.06
280
     0
281
     0
  7
STANDARD
140
0.18
170
     2
 62
     0
 63
     7
283
     0
 90
      512
 91
        0
  1

274
    -2
284
     1
 64
     0
275
    -2
285
     1
 65
     0
276
    -2
286
     1
 66
     0
277
    -2
287
     1
 67
     0
278
    -2
288
     1
 68
     0
279
    -2
289
     1
 69
     0
  7
STANDARD
140
0.25
170
     5
 62
     0
 63
     7
283
     0
 90
      512
 91
        0
  1

274
    -2
284
     1
 64
     0
275
    -2
285
     1
 65
     0
276
    -2
286
     1
 66
     0
277
    -2
287
     1
 67
     0
278
    -2
288
     1
 68
     0
279
    -2
289
     1
 69
     0
  7
STANDARD
140
0.18
170
     5
 62
     0
 63
     7
283
     0
 90
      512
 91
        0
  1

274
    -2
284
     1
 64
     0
275
    -2
285
     1
 65
     0
276
    -2
286
     1
 66
     0
277
    -2
287
     1
 67
     0
278
    -2
288
     1
 68
     0
279
    -2
289
     1
 69
     0
  0
VISUALSTYLE
  5
260E
102
{ACAD_REACTORS
330
2608
102
}
330
2608
100
AcDbVisualStyle
  2
2dWireframe
 70
     4
177
     3
291
     0
 70
    58
 90
        0
176
     1
 90
        2
176
     1
 90
        0
176
     1
 90
        0
176
     1
 40
0.6
176
     1
 40
30.0
176
     1
 62
     7
420
 16777215
176
     1
 90
        1
176
     1
 90
        4
176
     1
 62
     7
176
     1
 62
   257
176
     1
 90
        1
176
     1
 90
        1
176
     1
 40
1.0
176
     1
 90
        0
176
     1
 62
   257
176
     1
 40
1.0
176
     1
 90
        1
176
     1
 90
        6
176
     1
 90
        2
176
     1
 62
     7
176
     1
 90
        5
176
     1
 90
        0
176
     1
 90
        0
176
     1
290
     0
176
     1
 90
        1
176
     1
 40
0.0
176
     1
 90
        0
176
     1
290
     1
176
     1
290
     1
176
     1
290
     0
176
     1
290
     0
176
     1
290
     0
176
     1
290
     0
176
     1
290
     0
176
     1
290
     0
176
     1
290
     0
176
     1
 90
       50
176
     1
 40
0.0
176
     1
 40
1.0
176
     1
 90
        0
176
     1
 62
    18
420
        0
176
     1
 90
       50
176
     1
 90
        3
176
     1
 62
     5
420
      255
176
     1
290
     0
176
     1
 90
       50
176
     1
 90
       50
176
     1
 90
       50
176
     1
290
     0
176
     1
 90
       50
176
     1
 62
   256
176
     0
 40
1.0
176
     0
 90
        2
176
     1
  1
strokes_ogs.tif
176
     1
290
     0
176
     1
 40
1.0
176
     1
 40
1.0
176
     1
  0
VISUALSTYLE
  5
260D
102
{ACAD_REACTORS
330
2608
102
}
330
2608
100
AcDbVisualStyle
  2
Basic
 70
     7
177
     3
291
     1
 70
    58
 90
        1
176
     1
 90
        0
176
     1
 90
        1
176
     1
 90
        0
176
     1
 40
0.6
176
     1
 40
30.0
176
     1
 62
     7
420
 16777215
176
     1
 90
        0
176
     1
 90
        4
176
     1
 62
     7
176
     1
 62
   257
176
     1
 90
        1
176
     1
 90
        1
176
     1
 40
1.0
176
     1
 90
        8
176
     1
 62
     7
176
     1
 40
1.0
176
     1
 90
        1
176
     1
 90
        6
176
     1
 90
        2
176
     1
 62
     7
176
     1
 90
        5
176
     1
 90
        0
176
     1
 90
        0
176
     1
290
     0
176
     1
 90
        1
176
     1
 40
0.0
176
     1
 90
        0
176
     1
290
     0
176
     1
290
     1
176
     1
290
     1
176
     1
290
     0
176
     1
290
     0
176
     1
290
     0
176
     1
290
     0
176
     1
290
     0
176
     1
290
     0
176
     1
 90
       50
176
     1
 40
0.0
176
     1
 40
1.0
176
     1
 90
        0
176
     1
 62
    18
420
        0
176
     1
 90
       50
176
     1
 90
        3
176
     1
 62
     5
420
      255
176
     1
290
     0
176
     1
 90
       50
176
     1
 90
       50
176
     1
 90
       50
176
     1
290
     0
176
     1
 90
       50
176
     1
 62
   256
176
     0
 40
1.0
176
     0
 90
        2
176
     1
  1
strokes_ogs.tif
176
     1
290
     0
176
     1
 40
1.0
176
     1
 40
1.0
176
     1
  0
VISUALSTYLE
  5
2614
102
{ACAD_REACTORS
330
2608
102
}
330
2608
100
AcDbVisualStyle
  2
Brighten
 70
    12
177
     3
291
     1
 70
    58
 90
        2
176
     1
 90
        2
176
     1
 90
        0
176
     1
 90
        0
176
     1
 40
0.6
176
     1
 40
30.0
176
     1
 62
     7
420
 16777215
176
     1
 90
        1
176
     1
 90
        4
176
     1
 62
     7
176
     1
 62
   257
176
     1
 90
        1
176
     1
 90
        1
176
     1
 40
1.0
176
     1
 90
        8
176
     1
 62
     7
176
     1
 40
1.0
176
     1
 90
        1
176
     1
 90
        6
176
     1
 90
        2
176
     1
 62
     7
176
     1
 90
        5
176
     1
 90
        0
176
     1
 90
        0
176
     1
290
     0
176
     1
 90
        1
176
     1
 40
50.0
176
     1
 90
        0
176
     1
290
     0
176
     1
290
     1
176
     1
290
     1
176
     1
290
     0
176
     1
290
     0
176
     1
290
     0
176
     1
290
     0
176
     1
290
     0
176
     1
290
     0
176
     1
 90
       50
176
     1
 40
0.0
176
     1
 40
1.0
176
     1
 90
        0
176
     1
 62
    18
420
        0
176
     1
 90
       50
176
     1
 90
        3
176
     1
 62
     5
420
      255
176
     1
290
     0
176
     1
 90
       50
176
     1
 90
       50
176
     1
 90
       50
176
     1
290
     0
176
     1
 90
       50
176
     1
 62
   256
176
     0
 40
1.0
176
     0
 90
        2
176
     1
  1
strokes_ogs.tif
176
     1
290
     0
176
     1
 40
1.0
176
     1
 40
1.0
176
     1
  0
VISUALSTYLE
  5
2618
102
{ACAD_REACTORS
330
2608
102
}
330
2608
100
AcDbVisualStyle
  2
ColorChange
 70
    16
177
     3
291
     1
 70
    58
 90
        2
176
     1
 90
        2
176
     1
 90
        3
176
     1
 90
        0
176
     1
 40
0.6
176
     1
 40
30.0
176
     1
 62
     8
420
  8421504
176
     1
 90
        1
176
     1
 90
        4
176
     1
 62
     7
176
     1
 62
   257
176
     1
 90
        1
176
     1
 90
        1
176
     1
 40
1.0
176
     1
 90
        8
176
     1
 62
     8
420
  8421504
176
     1
 40
1.0
176
     1
 90
        1
176
     1
 90
        6
176
     1
 90
        2
176
     1
 62
     7
176
     1
 90
        5
176
     1
 90
        0
176
     1
 90
        0
176
     1
290
     0
176
     1
 90
        1
176
     1
 40
0.0
176
     1
 90
        0
176
     1
290
     0
176
     1
290
     1
176
     1
290
     1
176
     1
290
     0
176
     1
290
     0
176
     1
290
     0
176
     1
290
     0
176
     1
290
     0
176
     1
290
     0
176
     1
 90
       50
176
     1
 40
0.0
176
     1
 40
1.0
176
     1
 90
        0
176
     1
 62
    18
420
        0
176
     1
 90
       50
176
     1
 90
        3
176
     1
 62
     5
420
      255
176
     1
290
     0
176
     1
 90
       50
176
     1
 90
       50
176
     1
 90
       50
176
     1
290
     0
176
     1
 90
       50
176
     1
 62
   256
176
     0
 40
1.0
176
     0
 90
        2
176
     1
  1
strokes_ogs.tif
176
     1
290
     0
176
     1
 40
1.0
176
     1
 40
1.0
176
     1
  0
VISUALSTYLE
  5
2611
102
{ACAD_REACTORS
330
2608
102
}
330
2608
100
AcDbVisualStyle
  2
Conceptual
 70
     9
177
     3
291
     0
 70
    58
 90
        3
176
     1
 90
        2
176
     1
 90
        0
176
     1
 90
        0
176
     1
 40
0.6
176
     1
 40
30.0
176
     1
 62
     7
420
 16777215
176
     1
 90
        2
176
     1
 90
        2
176
     1
 62
     7
176
     1
 62
   257
176
     1
 90
        1
176
     1
 90
        1
176
     1
 40
179.0
176
     1
 90
        8
176
     1
 62
     7
176
     1
 40
1.0
176
     1
 90
        1
176
     1
 90
        6
176
     1
 90
        2
176
     1
 62
     7
176
     1
 90
        3
176
     1
 90
        0
176
     1
 90
        0
176
     1
290
     0
176
     1
 90
        1
176
     1
 40
0.0
176
     1
 90
        0
176
     1
290
     0
176
     1
290
     1
176
     1
290
     1
176
     1
290
     0
176
     1
290
     0
176
     1
290
     0
176
     1
290
     0
176
     1
290
     0
176
     1
290
     0
176
     1
 90
       50
176
     1
 40
0.0
176
     1
 40
1.0
176
     1
 90
        0
176
     1
 62
    18
420
        0
176
     1
 90
       50
176
     1
 90
        3
176
     1
 62
     5
420
      255
176
     1
290
     0
176
     1
 90
       50
176
     1
 90
       50
176
     1
 90
       50
176
     1
290
     0
176
     1
 90
       50
176
     1
 62
   256
176
     0
 40
1.0
176
     0
 90
        2
176
     1
  1
strokes_ogs.tif
176
     1
290
     0
176
     1
 40
1.0
176
     1
 40
1.0
176
     1
  0
VISUALSTYLE
  5
2613
102
{ACAD_REACTORS
330
2608
102
}
330
2608
100
AcDbVisualStyle
  2
Dim
 70
    11
177
     3
291
     1
 70
    58
 90
        2
176
     1
 90
        2
176
     1
 90
        0
176
     1
 90
        0
176
     1
 40
0.6
176
     1
 40
30.0
176
     1
 62
     7
420
 16777215
176
     1
 90
        1
176
     1
 90
        4
176
     1
 62
     7
176
     1
 62
   257
176
     1
 90
        1
176
     1
 90
        1
176
     1
 40
1.0
176
     1
 90
        8
176
     1
 62
     7
176
     1
 40
1.0
176
     1
 90
        1
176
     1
 90
        6
176
     1
 90
        2
176
     1
 62
     7
176
     1
 90
        5
176
     1
 90
        0
176
     1
 90
        0
176
     1
290
     0
176
     1
 90
        1
176
     1
 40
-50.0
176
     1
 90
        0
176
     1
290
     0
176
     1
290
     1
176
     1
290
     1
176
     1
290
     0
176
     1
290
     0
176
     1
290
     0
176
     1
290
     0
176
     1
290
     0
176
     1
290
     0
176
     1
 90
       50
176
     1
 40
0.0
176
     1
 40
1.0
176
     1
 90
        0
176
     1
 62
    18
420
        0
176
     1
 90
       50
176
     1
 90
        3
176
     1
 62
     5
420
      255
176
     1
290
     0
176
     1
 90
       50
176
     1
 90
       50
176
     1
 90
       50
176
     1
290
     0
176
     1
 90
       50
176
     1
 62
   256
176
     0
 40
1.0
176
     0
 90
        2
176
     1
  1
strokes_ogs.tif
176
     1
290
     0
176
     1
 40
1.0
176
     1
 40
1.0
176
     1
  0
VISUALSTYLE
  5
2620
102
{ACAD_REACTORS
330
2608
102
}
330
2608
100
AcDbVisualStyle
  2
EdgeColorOff
 70
    22
177
     3
291
     1
 70
    58
 90
        2
176
     0
 90
        2
176
     0
 90
        0
176
     0
 90
        0
176
     0
 40
0.6
176
     0
 40
30.0
176
     0
 62
     7
420
 16777215
176
     0
 90
        1
176
     0
 90
        4
176
     0
 62
     7
176
     0
 62
   257
176
     0
 90
        1
176
     0
 90
        1
176
     0
 40
1.0
176
     0
 90
        8
176
     2
 62
     7
176
     0
 40
1.0
176
     0
 90
        1
176
     0
 90
        6
176
     0
 90
        2
176
     0
 62
     7
176
     0
 90
        5
176
     0
 90
        0
176
     0
 90
        0
176
     0
290
     0
176
     0
 90
        1
176
     0
 40
0.0
176
     0
 90
        0
176
     0
290
     0
176
     0
290
     1
176
     0
290
     1
176
     0
290
     0
176
     0
290
     0
176
     0
290
     0
176
     0
290
     0
176
     0
290
     0
176
     0
290
     0
176
     0
 90
       50
176
     0
 40
0.0
176
     0
 40
1.0
176
     0
 90
        0
176
     0
 62
    18
420
        0
176
     0
 90
       50
176
     0
 90
        3
176
     0
 62
     5
420
      255
176
     0
290
     0
176
     0
 90
       50
176
     0
 90
       50
176
     0
 90
       50
176
     0
290
     0
176
     0
 90
       50
176
     0
 62
   256
176
     0
 40
1.0
176
     0
 90
        2
176
     0
  1
strokes_ogs.tif
176
     0
290
     0
176
     0
 40
1.0
176
     0
 40
1.0
176
     0
  0
VISUALSTYLE
  5
2617
102
{ACAD_REACTORS
330
2608
102
}
330
2608
100
AcDbVisualStyle
  2
Facepattern
 70
    15
177
     3
291
     1
 70
    58
 90
        2
176
     1
 90
        2
176
     1
 90
        0
176
     1
 90
        0
176
     1
 40
0.6
176
     1
 40
30.0
176
     1
 62
     7
420
 16777215
176
     1
 90
        1
176
     1
 90
        4
176
     1
 62
     7
176
     1
 62
   257
176
     1
 90
        1
176
     1
 90
        1
176
     1
 40
1.0
176
     1
 90
        8
176
     1
 62
     7
176
     1
 40
1.0
176
     1
 90
        1
176
     1
 90
        6
176
     1
 90
        2
176
     1
 62
     7
176
     1
 90
        5
176
     1
 90
        0
176
     1
 90
        0
176
     1
290
     0
176
     1
 90
        1
176
     1
 40
0.0
176
     1
 90
        0
176
     1
290
     0
176
     1
290
     1
176
     1
290
     1
176
     1
290
     0
176
     1
290
     0
176
     1
290
     0
176
     1
290
     0
176
     1
290
     0
176
     1
290
     0
176
     1
 90
       50
176
     1
 40
0.0
176
     1
 40
1.0
176
     1
 90
        0
176
     1
 62
    18
420
        0
176
     1
 90
       50
176
     1
 90
        3
176
     1
 62
     5
420
      255
176
     1
290
     0
176
     1
 90
       50
176
     1
 90
       50
176
     1
 90
       50
176
     1
290
     0
176
     1
 90
       50
176
     1
 62
   256
176
     0
 40
1.0
176
     0
 90
        2
176
     1
  1
strokes_ogs.tif
176
     1
290
     0
176
     1
 40
1.0
176
     1
 40
1.0
176
     1
  0
VISUALSTYLE
  5
2609
102
{ACAD_REACTORS
330
2608
102
}
330
2608
100
AcDbVisualStyle
  2
Flat
 70
     0
177
     3
291
     1
 70
    58
 90
        2
176
     1
 90
        1
176
     1
 90
        1
176
     1
 90
        2
176
     1
 40
0.6
176
     1
 40
30.0
176
     1
 62
     7
420
 16777215
176
     1
 90
        0
176
     1
 90
        0
176
     1
 62
     7
176
     1
 62
   257
176
     1
 90
        1
176
     1
 90
        1
176
     1
 40
1.0
176
     1
 90
        8
176
     1
 62
     7
176
     1
 40
1.0
176
     1
 90
        1
176
     1
 90
        6
176
     1
 90
        2
176
     1
 62
     7
176
     1
 90
        5
176
     1
 90
        0
176
     1
 90
        0
176
     1
290
     0
176
     1
 90
       13
176
     1
 40
0.0
176
     1
 90
        0
176
     1
290
     0
176
     1
290
     1
176
     1
290
     1
176
     1
290
     0
176
     1
290
     0
176
     1
290
     0
176
     1
290
     0
176
     1
290
     0
176
     1
290
     0
176
     1
 90
       50
176
     1
 40
0.0
176
     1
 40
1.0
176
     1
 90
        0
176
     1
 62
    18
420
        0
176
     1
 90
       50
176
     1
 90
        3
176
     1
 62
     5
420
      255
176
     1
290
     0
176
     1
 90
       50
176
     1
 90
       50
176
     1
 90
       50
176
     1
290
     0
176
     1
 90
       50
176
     1
 62
   256
176
     0
 40
1.0
176
     0
 90
        2
176
     1
  1
strokes_ogs.tif
176
     1
290
     0
176
     1
 40
1.0
176
     1
 40
1.0
176
     1
  0
VISUALSTYLE
  5
260A
102
{ACAD_REACTORS
330
2608
102
}
330
2608
100
AcDbVisualStyle
  2
FlatWithEdges
 70
     1
177
     3
291
     1
 70
    58
 90
        2
176
     1
 90
        1
176
     1
 90
        1
176
     1
 90
        2
176
     1
 40
0.6
176
     1
 40
30.0
176
     1
 62
     7
420
 16777215
176
     1
 90
        1
176
     1
 90
        0
176
     1
 62
     7
176
     1
 62
   257
176
     1
 90
        1
176
     1
 90
        1
176
     1
 40
1.0
176
     1
 90
        0
176
     1
 62
   257
176
     1
 40
1.0
176
     1
 90
        1
176
     1
 90
        6
176
     1
 90
        2
176
     1
 62
     7
176
     1
 90
        5
176
     1
 90
        0
176
     1
 90
        0
176
     1
290
     0
176
     1
 90
       13
176
     1
 40
0.0
176
     1
 90
        0
176
     1
290
     0
176
     1
290
     1
176
     1
290
     1
176
     1
290
     0
176
     1
290
     0
176
     1
290
     0
176
     1
290
     0
176
     1
290
     0
176
     1
290
     0
176
     1
 90
       50
176
     1
 40
0.0
176
     1
 40
1.0
176
     1
 90
        0
176
     1
 62
    18
420
        0
176
     1
 90
       50
176
     1
 90
        3
176
     1
 62
     5
420
      255
176
     1
290
     0
176
     1
 90
       50
176
     1
 90
       50
176
     1
 90
       50
176
     1
290
     0
176
     1
 90
       50
176
     1
 62
   256
176
     0
 40
1.0
176
     0
 90
        2
176
     1
  1
strokes_ogs.tif
176
     1
290
     0
176
     1
 40
1.0
176
     1
 40
1.0
176
     1
  0
VISUALSTYLE
  5
260B
102
{ACAD_REACTORS
330
2608
102
}
330
2608
100
AcDbVisualStyle
  2
Gouraud
 70
     2
177
     3
291
     1
 70
    58
 90
        2
176
     1
 90
        2
176
     1
 90
        1
176
     1
 90
        2
176
     1
 40
0.6
176
     1
 40
30.0
176
     1
 62
     7
420
 16777215
176
     1
 90
        0
176
     1
 90
        0
176
     1
 62
     7
176
     1
 62
   257
176
     1
 90
        1
176
     1
 90
        1
176
     1
 40
1.0
176
     1
 90
        0
176
     1
 62
     7
176
     1
 40
1.0
176
     1
 90
        1
176
     1
 90
        6
176
     1
 90
        2
176
     1
 62
     7
176
     1
 90
        5
176
     1
 90
        0
176
     1
 90
        0
176
     1
290
     0
176
     1
 90
       13
176
     1
 40
0.0
176
     1
 90
        0
176
     1
290
     0
176
     1
290
     1
176
     1
290
     1
176
     1
290
     0
176
     1
290
     0
176
     1
290
     0
176
     1
290
     0
176
     1
290
     0
176
     1
290
     0
176
     1
 90
       50
176
     1
 40
0.0
176
     1
 40
1.0
176
     1
 90
        0
176
     1
 62
    18
420
        0
176
     1
 90
       50
176
     1
 90
        3
176
     1
 62
     5
420
      255
176
     1
290
     0
176
     1
 90
       50
176
     1
 90
       50
176
     1
 90
       50
176
     1
290
     0
176
     1
 90
       50
176
     1
 62
   256
176
     0
 40
1.0
176
     0
 90
        2
176
     1
  1
strokes_ogs.tif
176
     1
290
     0
176
     1
 40
1.0
176
     1
 40
1.0
176
     1
  0
VISUALSTYLE
  5
260C
102
{ACAD_REACTORS
330
2608
102
}
330
2608
100
AcDbVisualStyle
  2
GouraudWithEdges
 70
     3
177
     3
291
     1
 70
    58
 90
        2
176
     1
 90
        2
176
     1
 90
        1
176
     1
 90
        2
176
     1
 40
0.6
176
     1
 40
30.0
176
     1
 62
     7
420
 16777215
176
     1
 90
        1
176
     1
 90
        0
176
     1
 62
     7
176
     1
 62
   257
176
     1
 90
        1
176
     1
 90
        1
176
     1
 40
1.0
176
     1
 90
        0
176
     1
 62
   257
176
     1
 40
1.0
176
     1
 90
        1
176
     1
 90
        6
176
     1
 90
        2
176
     1
 62
     7
176
     1
 90
        5
176
     1
 90
        0
176
     1
 90
        0
176
     1
290
     0
176
     1
 90
       13
176
     1
 40
0.0
176
     1
 90
        0
176
     1
290
     0
176
     1
290
     1
176
     1
290
     1
176
     1
290
     0
176
     1
290
     0
176
     1
290
     0
176
     1
290
     0
176
     1
290
     0
176
     1
290
     0
176
     1
 90
       50
176
     1
 40
0.0
176
     1
 40
1.0
176
     1
 90
        0
176
     1
 62
    18
420
        0
176
     1
 90
       50
176
     1
 90
        3
176
     1
 62
     5
420
      255
176
     1
290
     0
176
     1
 90
       50
176
     1
 90
       50
176
     1
 90
       50
176
     1
290
     0
176
     1
 90
       50
176
     1
 62
   256
176
     0
 40
1.0
176
     0
 90
        2
176
     1
  1
strokes_ogs.tif
176
     1
290
     0
176
     1
 40
1.0
176
     1
 40
1.0
176
     1
  0
VISUALSTYLE
  5
2610
102
{ACAD_REACTORS
330
2608
102
}
330
2608
100
AcDbVisualStyle
  2
Hidden
 70
     6
177
     3
291
     0
 70
    58
 90
        1
176
     1
 90
        2
176
     1
 90
        2
176
     1
 90
        0
176
     1
 40
0.6
176
     1
 40
30.0
176
     1
 62
     7
420
 16777215
176
     1
 90
        2
176
     1
 90
        2
176
     1
 62
     7
176
     1
 62
   257
176
     1
 90
        2
176
     1
 90
        1
176
     1
 40
40.0
176
     1
 90
        0
176
     1
 62
   257
176
     1
 40
1.0
176
     1
 90
        1
176
     1
 90
        6
176
     1
 90
        2
176
     1
 62
     7
176
     1
 90
        3
176
     1
 90
        0
176
     1
 90
        0
176
     1
290
     0
176
     1
 90
        1
176
     1
 40
0.0
176
     1
 90
        0
176
     1
290
     0
176
     1
290
     1
176
     1
290
     1
176
     1
290
     0
176
     1
290
     0
176
     1
290
     0
176
     1
290
     0
176
     1
290
     0
176
     1
290
     0
176
     1
 90
       50
176
     1
 40
0.0
176
     1
 40
1.0
176
     1
 90
        0
176
     1
 62
    18
420
        0
176
     1
 90
       50
176
     1
 90
        3
176
     1
 62
     5
420
      255
176
     1
290
     0
176
     1
 90
       50
176
     1
 90
       50
176
     1
 90
       50
176
     1
290
     0
176
     1
 90
       50
176
     1
 62
   256
176
     0
 40
1.0
176
     0
 90
        2
176
     1
  1
strokes_ogs.tif
176
     1
290
     0
176
     1
 40
1.0
176
     1
 40
1.0
176
     1
  0
VISUALSTYLE
  5
261E
102
{ACAD_REACTORS
330
2608
102
}
330
2608
100
AcDbVisualStyle
  2
JitterOff
 70
    20
177
     3
291
     1
 70
    58
 90
        2
176
     0
 90
        2
176
     0
 90
        0
176
     0
 90
        0
176
     0
 40
0.6
176
     0
 40
30.0
176
     0
 62
     7
420
 16777215
176
     0
 90
        1
176
     0
 90
        4
176
     0
 62
     7
176
     0
 62
   257
176
     0
 90
        1
176
     0
 90
        1
176
     0
 40
1.0
176
     0
 90
       10
176
     2
 62
     7
176
     0
 40
1.0
176
     0
 90
        1
176
     0
 90
        6
176
     0
 90
        2
176
     0
 62
     7
176
     0
 90
        5
176
     0
 90
        0
176
     0
 90
        0
176
     0
290
     0
176
     0
 90
        1
176
     0
 40
0.0
176
     0
 90
        0
176
     0
290
     0
176
     0
290
     1
176
     0
290
     1
176
     0
290
     0
176
     0
290
     0
176
     0
290
     0
176
     0
290
     0
176
     0
290
     0
176
     0
290
     0
176
     0
 90
       50
176
     0
 40
0.0
176
     0
 40
1.0
176
     0
 90
        0
176
     0
 62
    18
420
        0
176
     0
 90
       50
176
     0
 90
        3
176
     0
 62
     5
420
      255
176
     0
290
     0
176
     0
 90
       50
176
     0
 90
       50
176
     0
 90
       50
176
     0
290
     0
176
     0
 90
       50
176
     0
 62
   256
176
     0
 40
1.0
176
     0
 90
        2
176
     0
  1
strokes_ogs.tif
176
     0
290
     0
176
     0
 40
1.0
176
     0
 40
1.0
176
     0
  0
VISUALSTYLE
  5
2616
102
{ACAD_REACTORS
330
2608
102
}
330
2608
100
AcDbVisualStyle
  2
Linepattern
 70
    14
177
     3
291
     1
 70
    58
 90
        2
176
     1
 90
        2
176
     1
 90
        0
176
     1
 90
        0
176
     1
 40
0.6
176
     1
 40
30.0
176
     1
 62
     7
420
 16777215
176
     1
 90
        1
176
     1
 90
        4
176
     1
 62
     7
176
     1
 62
   257
176
     1
 90
        7
176
     1
 90
        7
176
     1
 40
1.0
176
     1
 90
        8
176
     1
 62
     7
176
     1
 40
1.0
176
     1
 90
        1
176
     1
 90
        6
176
     1
 90
        2
176
     1
 62
     7
176
     1
 90
        5
176
     1
 90
        0
176
     1
 90
        0
176
     1
290
     0
176
     1
 90
        1
176
     1
 40
0.0
176
     1
 90
        0
176
     1
290
     0
176
     1
290
     1
176
     1
290
     1
176
     1
290
     0
176
     1
290
     0
176
     1
290
     0
176
     1
290
     0
176
     1
290
     0
176
     1
290
     0
176
     1
 90
       50
176
     1
 40
0.0
176
     1
 40
1.0
176
     1
 90
        0
176
     1
 62
    18
420
        0
176
     1
 90
       50
176
     1
 90
        3
176
     1
 62
     5
420
      255
176
     1
290
     0
176
     1
 90
       50
176
     1
 90
       50
176
     1
 90
       50
176
     1
290
     0
176
     1
 90
       50
176
     1
 62
   256
176
     0
 40
1.0
176
     0
 90
        2
176
     1
  1
strokes_ogs.tif
176
     1
290
     0
176
     1
 40
1.0
176
     1
 40
1.0
176
     1
  0
VISUALSTYLE
  5
261F
102
{ACAD_REACTORS
330
2608
102
}
330
2608
100
AcDbVisualStyle
  2
OverhangOff
 70
    21
177
     3
291
     1
 70
    58
 90
        2
176
     0
 90
        2
176
     0
 90
        0
176
     0
 90
        0
176
     0
 40
0.6
176
     0
 40
30.0
176
     0
 62
     7
420
 16777215
176
     0
 90
        1
176
     0
 90
        4
176
     0
 62
     7
176
     0
 62
   257
176
     0
 90
        1
176
     0
 90
        1
176
     0
 40
1.0
176
     0
 90
        9
176
     2
 62
     7
176
     0
 40
1.0
176
     0
 90
        1
176
     0
 90
        6
176
     0
 90
        2
176
     0
 62
     7
176
     0
 90
        5
176
     0
 90
        0
176
     0
 90
        0
176
     0
290
     0
176
     0
 90
        1
176
     0
 40
0.0
176
     0
 90
        0
176
     0
290
     0
176
     0
290
     1
176
     0
290
     1
176
     0
290
     0
176
     0
290
     0
176
     0
290
     0
176
     0
290
     0
176
     0
290
     0
176
     0
290
     0
176
     0
 90
       50
176
     0
 40
0.0
176
     0
 40
1.0
176
     0
 90
        0
176
     0
 62
    18
420
        0
176
     0
 90
       50
176
     0
 90
        3
176
     0
 62
     5
420
      255
176
     0
290
     0
176
     0
 90
       50
176
     0
 90
       50
176
     0
 90
       50
176
     0
290
     0
176
     0
 90
       50
176
     0
 62
   256
176
     0
 40
1.0
176
     0
 90
        2
176
     0
  1
strokes_ogs.tif
176
     0
290
     0
176
     0
 40
1.0
176
     0
 40
1.0
176
     0
  0
VISUALSTYLE
  5
2612
102
{ACAD_REACTORS
330
2608
102
}
330
2608
100
AcDbVisualStyle
  2
Realistic
 70
     8
177
     3
291
     0
 70
    58
 90
        2
176
     1
 90
        3
176
     1
 90
        0
176
     1
 90
        2
176
     1
 40
0.6
176
     1
 40
30.0
176
     1
 62
     7
420
 16777215
176
     1
 90
        0
176
     1
 90
        0
176
     1
 62
     7
176
     1
 62
   257
176
     1
 90
        1
176
     1
 90
        1
176
     1
 40
1.0
176
     1
 90
        8
176
     1
 62
   257
176
     1
 40
1.0
176
     1
 90
        1
176
     1
 90
        6
176
     1
 90
        2
176
     1
 62
     7
176
     1
 90
        3
176
     1
 90
        0
176
     1
 90
        0
176
     1
290
     0
176
     1
 90
       13
176
     1
 40
0.0
176
     1
 90
        0
176
     1
290
     0
176
     1
290
     1
176
     1
290
     1
176
     1
290
     0
176
     1
290
     0
176
     1
290
     0
176
     1
290
     0
176
     1
290
     0
176
     1
290
     0
176
     1
 90
       50
176
     1
 40
0.0
176
     1
 40
1.0
176
     1
 90
        0
176
     1
 62
    18
420
        0
176
     1
 90
       50
176
     1
 90
        3
176
     1
 62
     5
420
      255
176
     1
290
     0
176
     1
 90
       50
176
     1
 90
       50
176
     1
 90
       50
176
     1
290
     0
176
     1
 90
       50
176
     1
 62
   256
176
     0
 40
1.0
176
     0
 90
        2
176
     1
  1
strokes_ogs.tif
176
     1
290
     0
176
     1
 40
1.0
176
     1
 40
1.0
176
     1
  0
VISUALSTYLE
  5
261D
102
{ACAD_REACTORS
330
2608
102
}
330
2608
100
AcDbVisualStyle
  2
Shaded
 70
    27
177
     3
291
     0
 70
    58
 90
        2
176
     1
 90
        2
176
     1
 90
        1
176
     1
 90
        2
176
     1
 40
0.6
176
     1
 40
30.0
176
     1
 62
     7
420
 16777215
176
     1
 90
        0
176
     1
 90
        4
176
     1
 62
     7
176
     1
 62
   257
176
     1
 90
        1
176
     1
 90
        1
176
     1
 40
1.0
176
     1
 90
        8
176
     1
 62
   257
176
     1
 40
1.0
176
     1
 90
        1
176
     1
 90
        6
176
     1
 90
        2
176
     1
 62
     8
420
  7895160
176
     1
 90
        3
176
     1
 90
        0
176
     1
 90
        0
176
     1
290
     0
176
     1
 90
        5
176
     1
 40
0.0
176
     1
 90
        0
176
     1
290
     0
176
     1
290
     1
176
     1
290
     1
176
     1
290
     0
176
     1
290
     0
176
     1
290
     0
176
     1
290
     0
176
     1
290
     0
176
     1
290
     0
176
     1
 90
       50
176
     1
 40
0.0
176
     1
 40
1.0
176
     1
 90
        0
176
     1
 62
    18
420
        0
176
     1
 90
       50
176
     1
 90
        3
176
     1
 62
     5
420
      255
176
     1
290
     0
176
     1
 90
       50
176
     1
 90
       50
176
     1
 90
       50
176
     1
290
     0
176
     1
 90
       50
176
     1
 62
   256
176
     0
 40
1.0
176
     0
 90
        2
176
     1
  1
strokes_ogs.tif
176
     1
290
     0
176
     1
 40
1.0
176
     1
 40
1.0
176
     1
  0
VISUALSTYLE
  5
261C
102
{ACAD_REACTORS
330
2608
102
}
330
2608
100
AcDbVisualStyle
  2
Shaded with edges
 70
    26
177
     3
291
     0
 70
    58
 90
        2
176
     1
 90
        2
176
     1
 90
        1
176
     1
 90
        2
176
     1
 40
0.6
176
     1
 40
30.0
176
     1
 62
     7
420
 16777215
176
     1
 90
        1
176
     1
 90
        2
176
     1
 62
     7
176
     1
 62
   257
176
     1
 90
        2
176
     1
 90
        1
176
     1
 40
1.0
176
     1
 90
        8
176
     1
 62
   257
176
     1
 40
1.0
176
     1
 90
        1
176
     1
 90
        6
176
     1
 90
        2
176
     1
 62
     7
176
     1
 90
        3
176
     1
 90
        0
176
     1
 90
        0
176
     1
290
     0
176
     1
 90
        5
176
     1
 40
0.0
176
     1
 90
        0
176
     1
290
     0
176
     1
290
     1
176
     1
290
     1
176
     1
290
     0
176
     1
290
     0
176
     1
290
     0
176
     1
290
     0
176
     1
290
     0
176
     1
290
     0
176
     1
 90
       50
176
     1
 40
0.0
176
     1
 40
1.0
176
     1
 90
        0
176
     1
 62
    18
420
        0
176
     1
 90
       50
176
     1
 90
        3
176
     1
 62
     5
420
      255
176
     1
290
     0
176
     1
 90
       50
176
     1
 90
       50
176
     1
 90
       50
176
     1
290
     0
176
     1
 90
       50
176
     1
 62
   256
176
     0
 40
1.0
176
     0
 90
        2
176
     1
  1
strokes_ogs.tif
176
     1
290
     0
176
     1
 40
1.0
176
     1
 40
1.0
176
     1
  0
VISUALSTYLE
  5
2619
102
{ACAD_REACTORS
330
2608
102
}
330
2608
100
AcDbVisualStyle
  2
Shades of Gray
 70
    23
177
     3
291
     0
 70
    58
 90
        2
176
     1
 90
        2
176
     1
 90
        3
176
     1
 90
        0
176
     1
 40
0.6
176
     1
 40
30.0
176
     1
 62
     7
420
 16777215
176
     1
 90
        2
176
     1
 90
        2
176
     1
 62
     7
176
     1
 62
     7
176
     1
 90
        1
176
     1
 90
        1
176
     1
 40
40.0
176
     1
 90
        8
176
     1
 62
     7
176
     1
 40
1.0
176
     1
 90
        1
176
     1
 90
        6
176
     1
 90
        2
176
     1
 62
     7
176
     1
 90
        3
176
     1
 90
        0
176
     1
 90
        0
176
     1
290
     0
176
     1
 90
        1
176
     1
 40
0.0
176
     1
 90
        0
176
     1
290
     0
176
     1
290
     1
176
     1
290
     1
176
     1
290
     0
176
     1
290
     0
176
     1
290
     0
176
     1
290
     0
176
     1
290
     0
176
     1
290
     0
176
     1
 90
       50
176
     1
 40
0.0
176
     1
 40
1.0
176
     1
 90
        0
176
     1
 62
    18
420
        0
176
     1
 90
       50
176
     1
 90
        3
176
     1
 62
     5
420
      255
176
     1
290
     0
176
     1
 90
       50
176
     1
 90
       50
176
     1
 90
       50
176
     1
290
     0
176
     1
 90
       50
176
     1
 62
   256
176
     0
 40
1.0
176
     0
 90
        2
176
     1
  1
strokes_ogs.tif
176
     1
290
     0
176
     1
 40
1.0
176
     1
 40
1.0
176
     1
  0
VISUALSTYLE
  5
261A
102
{ACAD_REACTORS
330
2608
102
}
330
2608
100
AcDbVisualStyle
  2
Sketchy
 70
    24
177
     3
291
     0
 70
    58
 90
        1
176
     1
 90
        2
176
     1
 90
        2
176
     1
 90
        0
176
     1
 40
0.6
176
     1
 40
30.0
176
     1
 62
     7
420
 16777215
176
     1
 90
        2
176
     1
 90
        2
176
     1
 62
     7
176
     1
 62
     7
176
     1
 90
        1
176
     1
 90
        1
176
     1
 40
40.0
176
     1
 90
       11
176
     1
 62
     7
176
     1
 40
1.0
176
     1
 90
        1
176
     1
 90
        6
176
     1
 90
        2
176
     1
 62
     7
176
     1
 90
        6
176
     1
 90
        0
176
     1
 90
        0
176
     1
290
     0
176
     1
 90
        1
176
     1
 40
0.0
176
     1
 90
        0
176
     1
290
     0
176
     1
290
     1
176
     1
290
     1
176
     1
290
     0
176
     1
290
     0
176
     1
290
     0
176
     1
290
     0
176
     1
290
     0
176
     1
290
     0
176
     1
 90
       50
176
     1
 40
0.0
176
     1
 40
1.0
176
     1
 90
        0
176
     1
 62
    18
420
        0
176
     1
 90
       50
176
     1
 90
        3
176
     1
 62
     5
420
      255
176
     1
290
     0
176
     1
 90
       50
176
     1
 90
       50
176
     1
 90
       50
176
     1
290
     0
176
     1
 90
       50
176
     1
 62
   256
176
     0
 40
1.0
176
     0
 90
        2
176
     1
  1
strokes_ogs.tif
176
     1
290
     0
176
     1
 40
1.0
176
     1
 40
1.0
176
     1
  0
VISUALSTYLE
  5
2615
102
{ACAD_REACTORS
330
2608
102
}
330
2608
100
AcDbVisualStyle
  2
Thicken
 70
    13
177
     3
291
     1
 70
    58
 90
        2
176
     1
 90
        2
176
     1
 90
        0
176
     1
 90
        0
176
     1
 40
0.6
176
     1
 40
30.0
176
     1
 62
     7
420
 16777215
176
     1
 90
        1
176
     1
 90
        4
176
     1
 62
     7
176
     1
 62
   257
176
     1
 90
        1
176
     1
 90
        1
176
     1
 40
1.0
176
     1
 90
       12
176
     1
 62
     7
176
     1
 40
1.0
176
     1
 90
        1
176
     1
 90
        6
176
     1
 90
        2
176
     1
 62
     7
176
     1
 90
        5
176
     1
 90
        0
176
     1
 90
        0
176
     1
290
     0
176
     1
 90
        1
176
     1
 40
0.0
176
     1
 90
        0
176
     1
290
     0
176
     1
290
     1
176
     1
290
     1
176
     1
290
     0
176
     1
290
     0
176
     1
290
     0
176
     1
290
     0
176
     1
290
     0
176
     1
290
     0
176
     1
 90
       50
176
     1
 40
0.0
176
     1
 40
1.0
176
     1
 90
        0
176
     1
 62
    18
420
        0
176
     1
 90
       50
176
     1
 90
        3
176
     1
 62
     5
420
      255
176
     1
290
     0
176
     1
 90
       50
176
     1
 90
       50
176
     1
 90
       50
176
     1
290
     0
176
     1
 90
       50
176
     1
 62
   256
176
     0
 40
1.0
176
     0
 90
        2
176
     1
  1
strokes_ogs.tif
176
     1
290
     0
176
     1
 40
1.0
176
     1
 40
1.0
176
     1
  0
VISUALSTYLE
  5
260F
102
{ACAD_REACTORS
330
2608
102
}
330
2608
100
AcDbVisualStyle
  2
Wireframe
 70
     5
177
     3
291
     0
 70
    58
 90
        0
176
     1
 90
        2
176
     1
 90
        0
176
     1
 90
        0
176
     1
 40
0.6
176
     1
 40
30.0
176
     1
 62
     7
420
 16777215
176
     1
 90
        1
176
     1
 90
        4
176
     1
 62
     7
176
     1
 62
   257
176
     1
 90
        1
176
     1
 90
        1
176
     1
 40
1.0
176
     1
 90
        0
176
     1
 62
   257
176
     1
 40
1.0
176
     1
 90
        1
176
     1
 90
        6
176
     1
 90
        2
176
     1
 62
     7
176
     1
 90
        3
176
     1
 90
        0
176
     1
 90
        0
176
     1
290
     0
176
     1
 90
        1
176
     1
 40
0.0
176
     1
 90
        0
176
     1
290
     0
176
     1
290
     1
176
     1
290
     1
176
     1
290
     0
176
     1
290
     0
176
     1
290
     0
176
     1
290
     0
176
     1
290
     0
176
     1
290
     0
176
     1
 90
       50
176
     1
 40
0.0
176
     1
 40
1.0
176
     1
 90
        0
176
     1
 62
    18
420
        0
176
     1
 90
       50
176
     1
 90
        3
176
     1
 62
     5
420
      255
176
     1
290
     0
176
     1
 90
       50
176
     1
 90
       50
176
     1
 90
       50
176
     1
290
     0
176
     1
 90
       50
176
     1
 62
   256
176
     0
 40
1.0
176
     0
 90
        2
176
     1
  1
strokes_ogs.tif
176
     1
290
     0
176
     1
 40
1.0
176
     1
 40
1.0
176
     1
  0
VISUALSTYLE
  5
261B
102
{ACAD_REACTORS
330
2608
102
}
330
2608
100
AcDbVisualStyle
  2
X-Ray
 70
    25
177
     3
291
     0
 70
    58
 90
        2
176
     1
 90
        2
176
     1
 90
        1
176
     1
 90
        1
176
     1
 40
0.5
176
     1
 40
30.0
176
     1
 62
     7
420
 16777215
176
     1
 90
        1
176
     1
 90
        0
176
     1
 62
     7
176
     1
 62
   257
176
     1
 90
        1
176
     1
 90
        1
176
     1
 40
1.0
176
     1
 90
        8
176
     1
 62
     7
176
     1
 40
1.0
176
     1
 90
        1
176
     1
 90
        6
176
     1
 90
        2
176
     1
 62
     7
176
     1
 90
        3
176
     1
 90
        0
176
     1
 90
        0
176
     1
290
     0
176
     1
 90
       13
176
     1
 40
0.0
176
     1
 90
        0
176
     1
290
     0
176
     1
290
     1
176
     1
290
     1
176
     1
290
     0
176
     1
290
     0
176
     1
290
     0
176
     1
290
     0
176
     1
290
     0
176
     1
290
     0
176
     1
 90
       50
176
     1
 40
0.0
176
     1
 40
1.0
176
     1
 90
        0
176
     1
 62
    18
420
        0
176
     1
 90
       50
176
     1
 90
        3
176
     1
 62
     5
420
      255
176
     1
290
     0
176
     1
 90
       50
176
     1
 90
       50
176
     1
 90
       50
176
     1
290
     0
176
     1
 90
       50
176
     1
 62
   256
176
     0
 40
1.0
176
     0
 90
        2
176
     1
  1
strokes_ogs.tif
176
     1
290
     0
176
     1
 40
1.0
176
     1
 40
1.0
176
     1
  0
DICTIONARYVAR
  5
2949
102
{ACAD_REACTORS
330
2943
102
}
330
2943
100
DictionaryVariables
280
     0
  1
1:1
  0
DICTIONARYVAR
  5
2945
102
{ACAD_REACTORS
330
2943
102
}
330
2943
100
DictionaryVariables
280
     0
  1
STANDARD
  0
DICTIONARYVAR
  5
2944
102
{ACAD_REACTORS
330
2943
102
}
330
2943
100
DictionaryVariables
280
     0
  1
STANDARD
  0
DICTIONARYVAR
  5
2946
102
{ACAD_REACTORS
330
2943
102
}
330
2943
100
DictionaryVariables
280
     0
  1
Imperial24
  0
DICTIONARYVAR
  5
2947
102
{ACAD_REACTORS
330
2943
102
}
330
2943
100
DictionaryVariables
280
     0
  1
Imperial24
  0
DICTIONARYVAR
  5
294B
102
{ACAD_REACTORS
330
2943
102
}
330
2943
100
DictionaryVariables
280
     0
  1
1
  0
DICTIONARYVAR
  5
294C
102
{ACAD_REACTORS
330
2943
102
}
330
2943
100
DictionaryVariables
280
     0
  1
15
  0
DICTIONARYVAR
  5
294A
102
{ACAD_REACTORS
330
2943
102
}
330
2943
100
DictionaryVariables
280
     0
  1
0
  0
DICTIONARYVAR
  5
2948
102
{ACAD_REACTORS
330
2943
102
}
330
2943
100
DictionaryVariables
280
     0
  1
0
  0
DICTIONARY
  5
25F9
330
25F8
100
AcDbDictionary
280
     1
281
     1
  3
BUMPTILE
360
25FB
  3
DIFFUSETILE
360
25FA
  3
OPACITYTILE
360
25FE
  3
REFLECTIONTILE
360
25FD
  3
REFRACTIONTILE
360
25FF
  3
SPECULARTILE
360
25FC
  0
DICTIONARY
  5
25F1
330
25F0
100
AcDbDictionary
280
     1
281
     1
  3
BUMPTILE
360
25F3
  3
DIFFUSETILE
360
25F2
  3
OPACITYTILE
360
25F6
  3
REFLECTIONTILE
360
25F5
  3
REFRACTIONTILE
360
25F7
  3
SPECULARTILE
360
25F4
  0
DICTIONARY
  5
2601
330
2600
100
AcDbDictionary
280
     1
281
     1
  3
BUMPTILE
360
2603
  3
DIFFUSETILE
360
2602
  3
OPACITYTILE
360
2606
  3
REFLECTIONTILE
360
2605
  3
REFRACTIONTILE
360
2607
  3
SPECULARTILE
360
2604
  0
DICTIONARY
  5
2BAC
330
2623
100
AcDbDictionary
280
     1
281
     1
  3
ACAD_ROUNDTRIP_2008_TABLESTYLE_CELLSTYLEMAP
360
2BAD
  0
XRECORD
  5
25FB
102
{ACAD_REACTORS
330
25F9
102
}
330
25F9
100
AcDbXrecord
280
     1
270
     1
271
     1
  0
XRECORD
  5
25FA
102
{ACAD_REACTORS
330
25F9
102
}
330
25F9
100
AcDbXrecord
280
     1
270
     1
271
     1
  0
XRECORD
  5
25FE
102
{ACAD_REACTORS
330
25F9
102
}
330
25F9
100
AcDbXrecord
280
     1
270
     1
271
     1
  0
XRECORD
  5
25FD
102
{ACAD_REACTORS
330
25F9
102
}
330
25F9
100
AcDbXrecord
280
     1
270
     1
271
     1
  0
XRECORD
  5
25FF
102
{ACAD_REACTORS
330
25F9
102
}
330
25F9
100
AcDbXrecord
280
     1
270
     1
271
     1
  0
XRECORD
  5
25FC
102
{ACAD_REACTORS
330
25F9
102
}
330
25F9
100
AcDbXrecord
280
     1
270
     1
271
     1
  0
XRECORD
  5
25F3
102
{ACAD_REACTORS
330
25F1
102
}
330
25F1
100
AcDbXrecord
280
     1
270
     1
271
     1
  0
XRECORD
  5
25F2
102
{ACAD_REACTORS
330
25F1
102
}
330
25F1
100
AcDbXrecord
280
     1
270
     1
271
     1
  0
XRECORD
  5
25F6
102
{ACAD_REACTORS
330
25F1
102
}
330
25F1
100
AcDbXrecord
280
     1
270
     1
271
     1
  0
XRECORD
  5
25F5
102
{ACAD_REACTORS
330
25F1
102
}
330
25F1
100
AcDbXrecord
280
     1
270
     1
271
     1
  0
XRECORD
  5
25F7
102
{ACAD_REACTORS
330
25F1
102
}
330
25F1
100
AcDbXrecord
280
     1
270
     1
271
     1
  0
XRECORD
  5
25F4
102
{ACAD_REACTORS
330
25F1
102
}
330
25F1
100
AcDbXrecord
280
     1
270
     1
271
     1
  0
XRECORD
  5
2603
102
{ACAD_REACTORS
330
2601
102
}
330
2601
100
AcDbXrecord
280
     1
270
     1
271
     1
  0
XRECORD
  5
2602
102
{ACAD_REACTORS
330
2601
102
}
330
2601
100
AcDbXrecord
280
     1
270
     1
271
     1
  0
XRECORD
  5
2606
102
{ACAD_REACTORS
330
2601
102
}
330
2601
100
AcDbXrecord
280
     1
270
     1
271
     1
  0
XRECORD
  5
2605
102
{ACAD_REACTORS
330
2601
102
}
330
2601
100
AcDbXrecord
280
     1
270
     1
271
     1
  0
XRECORD
  5
2607
102
{ACAD_REACTORS
330
2601
102
}
330
2601
100
AcDbXrecord
280
     1
270
     1
271
     1
  0
XRECORD
  5
2604
102
{ACAD_REACTORS
330
2601
102
}
330
2601
100
AcDbXrecord
280
     1
270
     1
271
     1
  0
CELLSTYLEMAP
  5
2BAD
102
{ACAD_REACTORS
330
2BAC
102
}
330
2BAC
100
AcDbCellStyleMap
 90
        3
300
CELLSTYLE
  1
TABLEFORMAT_BEGIN
 90
        5
170
     1
 91
        0
 92
    32768
 62
   257
 93
        1
300
CONTENTFORMAT
  1
CONTENTFORMAT_BEGIN
 90
        0
 91
        0
 92
      512
 93
        0
300

 40
0.0
140
1.0
 94
        5
 62
     0
340
11
144
0.25
309
CONTENTFORMAT_END
171
     0
 94
        0
309
TABLEFORMAT_END
  1
CELLSTYLE_BEGIN
 90
        1
 91
        1
300
_TITLE
309
CELLSTYLE_END
300
CELLSTYLE
  1
TABLEFORMAT_BEGIN
 90
        5
170
     1
 91
        0
 92
        0
 62
   257
 93
        1
300
CONTENTFORMAT
  1
CONTENTFORMAT_BEGIN
 90
        0
 91
        0
 92
      512
 93
        0
300

 40
0.0
140
1.0
 94
        5
 62
     0
340
11
144
0.18
309
CONTENTFORMAT_END
171
     0
 94
        0
309
TABLEFORMAT_END
  1
CELLSTYLE_BEGIN
 90
        2
 91
        1
300
_HEADER
309
CELLSTYLE_END
300
CELLSTYLE
  1
TABLEFORMAT_BEGIN
 90
        5
170
     1
 91
        0
 92
        0
 62
   257
 93
        1
300
CONTENTFORMAT
  1
CONTENTFORMAT_BEGIN
 90
        0
 91
        0
 92
      512
 93
        0
300

 40
0.0
140
1.0
 94
        2
 62
     0
340
11
144
0.18
309
CONTENTFORMAT_END
171
     0
 94
        0
309
TABLEFORMAT_END
  1
CELLSTYLE_BEGIN
 90
        3
 91
        2
300
_DATA
309
CELLSTYLE_END
  0
ENDSEC
  0
SECTION
  2
ACDSDATA
 70
     2
 71
     8
  0
ACDSSCHEMA
 90
        0
  1
AcDb_Thumbnail_Schema
  2
AcDbDs::ID
280
    10
 91
        8
  2
Thumbnail_Data
280
    15
 91
        0
101
ACDSRECORD
 95
        0
 90
        1
  2
AcDbDs::TreatedAsObjectData
280
     1
291
     1
101
ACDSRECORD
 95
        0
 90
        2
  2
AcDbDs::Legacy
280
     1
291
     1
101
ACDSRECORD
  1
AcDbDs::ID
 90
        3
  2
AcDs:Indexable
280
     1
291
     1
101
ACDSRECORD
  1
AcDbDs::ID
 90
        4
  2
AcDbDs::HandleAttribute
280
     7
282
     1
  0
ACDSSCHEMA
 90
        1
  1
AcDbDs::TreatedAsObjectDataSchema
  2
AcDbDs::TreatedAsObjectData
280
     1
 91
        0
  0
ACDSSCHEMA
 90
        2
  1
AcDbDs::LegacySchema
  2
AcDbDs::Legacy
280
     1
 91
        0
  0
ACDSSCHEMA
 90
        3
  1
AcDbDs::IndexedPropertySchema
  2
AcDs:Indexable
280
     1
 91
        0
  0
ACDSSCHEMA
 90
        4
  1
AcDbDs::HandleAttributeSchema
  2
AcDbDs::HandleAttribute
280
     7
 91
        1
284
     1
  0
ACDSRECORD
 90
        0
  2
AcDbDs::ID
280
    10
320
22
  2
Thumbnail_Data
280
    15
 94
     1315
310
89504E470D0A1A0A0000000D49484452000001000000008608030000000532A42500000300504C5445000000FFFFFF0000000000000000000000000000000000000000000000000000000000330000660000990000CC0000FF0033000033330033660033990033CC0033FF0066000066330066660066990066CC0066FF0099
310
000099330099660099990099CC0099FF00CC0000CC3300CC6600CC9900CCCC00CCFF00FF0000FF3300FF6600FF9900FFCC00FFFF3300003300333300663300993300CC3300FF3333003333333333663333993333CC3333FF3366003366333366663366993366CC3366FF3399003399333399663399993399CC3399FF33CC00
310
33CC3333CC6633CC9933CCCC33CCFF33FF0033FF3333FF6633FF9933FFCC33FFFF6600006600336600666600996600CC6600FF6633006633336633666633996633CC6633FF6666006666336666666666996666CC6666FF6699006699336699666699996699CC6699FF66CC0066CC3366CC6666CC9966CCCC66CCFF66FF0066
310
FF3366FF6666FF9966FFCC66FFFF9900009900339900669900999900CC9900FF9933009933339933669933999933CC9933FF9966009966339966669966999966CC9966FF9999009999339999669999999999CC9999FF99CC0099CC3399CC6699CC9999CCCC99CCFF99FF0099FF3399FF6699FF9999FFCC99FFFFCC0000CC00
310
33CC0066CC0099CC00CCCC00FFCC3300CC3333CC3366CC3399CC33CCCC33FFCC6600CC6633CC6666CC6699CC66CCCC66FFCC9900CC9933CC9966CC9999CC99CCCC99FFCCCC00CCCC33CCCC66CCCC99CCCCCCCCCCFFCCFF00CCFF33CCFF66CCFF99CCFFCCCCFFFFFF0000FF0033FF0066FF0099FF00CCFF00FFFF3300FF3333
310
FF3366FF3399FF33CCFF33FFFF6600FF6633FF6666FF6699FF66CCFF66FFFF9900FF9933FF9966FF9999FF99CCFF99FFFFCC00FFCC33FFCC66FFCC99FFCCCCFFCCFFFFFF00FFFF33FFFF66FFFF99FFFFCCFFFFFF0000000D0D0D1A1A1A2828283535354343435050505D5D5D6B6B6B787878868686939393A1A1A1AEAEAEBB
310
BBBBC9C9C9D6D6D6E4E4E4F1F1F1FFFFFF0000000000000000000000000000000000000000000000000000000000003AE5ACE9000001DE4944415478DAEDDD6D6EC3201045D1D9C1EC7FB75512830D7629584EA59977DF1FA7892C95133E6CA0AE19218410420821841042C817E27DE400FEF8190000000000000000000000
310
000000000000001006C83A59320BE09B81EB02B8A59C339B067895FF73D402A85F7A3DCA00D40AFFAEFBF5330580AEAD6F154005E0DCCD79FD240D802F7582DEB4890C00C765204180D780B6176D0920C13058FAF5DB00B1FB80F2F5A902B83AC0B1E0B7010C000000000000009200EC5706E5952C4079130000240186537E
310
000000407680C334010000000000A300004A004E0D980708BF36F84413480660CBB7C3002405989E136CB6CEB8EFE77A4480CBB7D601EACBB800A785E379806D9F496C80B20D7205C03FDB47378018C3E3A99EEFE5AEC73580AD0E44B940B800B0B6EA2F01D40E204A1F78350AB4BFB9AF34817276A0E1F1518014D7017DE5
310
950368B7FE5D6D9C540068B6408ADE0D2E0C83F926449A4ED04D10E0500DC667A5DC2253AE8307AD5BA0064C9E95755214000000000000000000000000F4006CE6D9200A778300000000000000901EE0EACFE71701C22F8CB4CB3F7200B5187701723C45C6BBA6300F90E6616AA715A161B112020C4C7E0788B31BF06908B7
310
149DDF7D0837BDFF3CD24118218410420821841042C8FFE407B2493FD0652C97BE0000000049454E44AE426082
  0
ENDSEC
  0
EOF
