  0
SECTION
  2
HEADER
  9
$ACADVER
  1
AC1009
  9
$INSBASE
 10
0.0
 20
0.0
 30
0.0
  9
$EXTMIN
 10
18.920913933605402
 20
0.7825012425688344
 30
-0.0015258207003583
  9
$EXTMAX
 10
23.940681242937028
 20
1.4931793335047301
 30
0.0000000349246037
  9
$LIMMIN
 10
0.0
 20
0.0
  9
$LIMMAX
 10
12.0
 20
9.0
  9
$ORTHOMODE
 70
     1
  9
$REGENMODE
 70
     1
  9
$FILLMODE
 70
     1
  9
$QTEXTMODE
 70
     0
  9
$MIRRTEXT
 70
     1
  9
$DRAGMODE
 70
     2
  9
$LTSCALE
 40
1.0
  9
$OSMODE
 70
    39
  9
$ATTMODE
 70
     1
  9
$TEXTSIZE
 40
0.125
  9
$TRACEWID
 40
0.05
  9
$TEXTSTYLE
  7
STANDARD
  9
$CLAYER
  8
0
  9
$CELTYPE
  6
BYLAYER
  9
$CECOLOR
 62
   256
  9
$DIMSCALE
 40
1.0
  9
$DIMASZ
 40
0.18
  9
$DIMEXO
 40
0.0625
  9
$DIMDLI
 40
0.38
  9
$DIMRND
 40
0.0
  9
$DIMDLE
 40
0.0
  9
$DIMEXE
 40
0.18
  9
$DIMTP
 40
0.0
  9
$DIMTM
 40
0.0
  9
$DIMTXT
 40
0.18
  9
$DIMCEN
 40
0.09
  9
$DIMTSZ
 40
0.0
  9
$DIMTOL
 70
     0
  9
$DIMLIM
 70
     0
  9
$DIMTIH
 70
     1
  9
$DIMTOH
 70
     1
  9
$DIMSE1
 70
     0
  9
$DIMSE2
 70
     0
  9
$DIMTAD
 70
     0
  9
$DIMZIN
 70
     0
  9
$DIMBLK
  1

  9
$DIMASO
 70
     1
  9
$DIMSHO
 70
     1
  9
$DIMPOST
  1

  9
$DIMAPOST
  1

  9
$DIMALT
 70
     0
  9
$DIMALTD
 70
     2
  9
$DIMALTF
 40
25.399999999999999
  9
$DIMLFAC
 40
1.0
  9
$DIMTOFL
 70
     0
  9
$DIMTVP
 40
0.0
  9
$DIMTIX
 70
     0
  9
$DIMSOXD
 70
     0
  9
$DIMSAH
 70
     0
  9
$DIMBLK1
  1

  9
$DIMBLK2
  1

  9
$DIMSTYLE
  2
STANDARD
  9
$DIMCLRD
 70
     0
  9
$DIMCLRE
 70
     0
  9
$DIMCLRT
 70
     0
  9
$DIMTFAC
 40
1.0
  9
$DIMGAP
 40
0.09
  9
$LUNITS
 70
     2
  9
$LUPREC
 70
     4
  9
$SKETCHINC
 40
0.1
  9
$FILLETRAD
 40
0.0
  9
$AUNITS
 70
     0
  9
$AUPREC
 70
     0
  9
$MENU
  1
.
  9
$ELEVATION
 40
0.0
  9
$PELEVATION
 40
0.0
  9
$THICKNESS
 40
0.0
  9
$LIMCHECK
 70
     0
  9
$BLIPMODE
 70
     0
  9
$CHAMFERA
 40
0.5
  9
$CHAMFERB
 40
0.5
  9
$SKPOLY
 70
     0
  9
$TDCREATE
 40
2451269.39063993
  9
$TDUPDATE
 40
2458019.363983565
  9
$TDINDWG
 40
2.2495612153
  9
$TDUSRTIMER
 40
2456088.0798826162
  9
$USRTIMER
 70
     1
  9
$ANGBASE
 50
0.0
  9
$ANGDIR
 70
     0
  9
$PDMODE
 70
     0
  9
$PDSIZE
 40
0.0
  9
$PLINEWID
 40
0.0
  9
$COORDS
 70
     1
  9
$SPLFRAME
 70
     0
  9
$SPLINETYPE
 70
     6
  9
$SPLINESEGS
 70
     8
  9
$ATTDIA
 70
     0
  9
$ATTREQ
 70
     1
  9
$HANDLING
 70
     1
  9
$HANDSEED
  5
34974
  9
$SURFTAB1
 70
     6
  9
$SURFTAB2
 70
     6
  9
$SURFTYPE
 70
     6
  9
$SURFU
 70
     6
  9
$SURFV
 70
     6
  9
$UCSNAME
  2

  9
$UCSORG
 10
0.0
 20
0.0
 30
0.0
  9
$UCSXDIR
 10
1.0
 20
0.0
 30
0.0
  9
$UCSYDIR
 10
0.0
 20
1.0
 30
0.0
  9
$PUCSNAME
  2

  9
$PUCSORG
 10
0.0
 20
0.0
 30
0.0
  9
$PUCSXDIR
 10
1.0
 20
0.0
 30
0.0
  9
$PUCSYDIR
 10
0.0
 20
1.0
 30
0.0
  9
$USERI1
 70
     0
  9
$USERI2
 70
     0
  9
$USERI3
 70
     0
  9
$USERI4
 70
     0
  9
$USERI5
 70
     0
  9
$USERR1
 40
0.0
  9
$USERR2
 40
0.0
  9
$USERR3
 40
0.0
  9
$USERR4
 40
0.0
  9
$USERR5
 40
0.0
  9
$WORLDVIEW
 70
     1
  9
$SHADEDGE
 70
     3
  9
$SHADEDIF
 70
    70
  9
$TILEMODE
 70
     1
  9
$MAXACTVP
 70
    48
  9
$PLIMCHECK
 70
     0
  9
$PEXTMIN
 10
1.0750000242173181
 20
0.8249999641433474
 30
0.0
  9
$PEXTMAX
 10
9.6750002179558834
 20
7.4249996772901277
 30
0.0
  9
$PLIMMIN
 10
-0.1249995194082185
 20
-0.1249999981226883
  9
$PLIMMAX
 10
10.87500024029589
 20
8.3749997615814227
  9
$UNITMODE
 70
     0
  9
$VISRETAIN
 70
     1
  9
$PLINEGEN
 70
     0
  9
$PSLTSCALE
 70
     1
  0
ENDSEC
  0
SECTION
  2
TABLES
  0
TABLE
  2
VPORT
 70
     1
  0
VPORT
  2
*ACTIVE
 70
     0
 10
0.0
 20
0.0
 11
1.0
 21
1.0
 12
21.28067343403028
 22
1.0105844332844001
 13
0.0
 23
0.0
 14
0.5
 24
0.5
 15
0.5
 25
0.5
 16
0.0
 26
0.0
 36
1.0
 17
0.0
 27
0.0
 37
0.0
 40
4.1040627631410187
 41
1.963572267920094
 42
50.0
 43
0.0
 44
0.0
 50
0.0
 51
0.0
 71
    16
 72
   100
 73
     1
 74
     1
 75
     0
 76
     0
 77
     0
 78
     0
  0
ENDTAB
  0
TABLE
  2
LTYPE
 70
     3
  0
LTYPE
  2
CONTINUOUS
 70
     0
  3
Solid line
 72
    65
 73
     0
 40
0.0
  0
ENDTAB
  0
TABLE
  2
LAYER
 70
     2
  0
LAYER
  2
0
 70
     0
 62
     5
  6
CONTINUOUS
  0
ENDTAB
  0
TABLE
  2
STYLE
 70
     3
  0
STYLE
  2
STANDARD
 70
     0
 40
0.0
 41
1.0
 50
0.0
 71
     0
 42
0.125
  3
txt
  4

  0
STYLE
  2
P125
 70
     0
 40
0.125
 41
0.75
 50
15.0
 71
     0
 42
0.125
  3
print
  4

  0
ENDTAB
  0
TABLE
  2
VIEW
 70
     2
  0
ENDTAB
  0
TABLE
  2
UCS
 70
     0
  0
ENDTAB
  0
TABLE
  2
APPID
 70
    19
  0
APPID
  2
ACAD
 70
     0
  0
APPID
  2
ACADANNOTATIVE
 70
     0
  0
APPID
  2
ACAD_MLEADERVER
 70
     0
  0
APPID
  2
ACAD_PSEXT
 70
     0
  0
APPID
  2
ACAD_DSTYLE_DIMJAG
 70
     0
  0
APPID
  2
ACAD_DSTYLE_DIMTALN
 70
     0
  0
APPID
  2
ACAECLAYERSTANDARD
 70
     0
  0
APPID
  2
ACAD_EXEMPT_FROM_CAD_STAND
 70
     0
  0
APPID
  2
ACAD_DSTYLE_DIMBREAK
 70
     0
  0
APPID
  2
ACAUTHENVIRON
 70
     0
  0
APPID
  2
ACDBDYNAMICBLOCKTRUENAME
 70
     0
  0
APPID
  2
ACDBDYNAMICBLOCKGUID
 70
     0
  0
APPID
  2
ACDBBLOCKREPETAG
 70
     0
  0
APPID
  2
ACAD_DSTYLE_DIMRADIAL_EXTE
 70
     0
  0
APPID
  2
ACAD_NAV_VCDISPLAY
 70
     0
  0
APPID
  2
GRADIENTCOLOR1ACI
 70
     0
  0
APPID
  2
GRADIENTCOLOR2ACI
 70
     0
  0
APPID
  2
ACAD_EXEMPT_FROM_CAD_STANDARDS
 70
     0
  0
APPID
  2
ACCMTRANSPARENCY
 70
     0
  0
ENDTAB
  0
TABLE
  2
DIMSTYLE
 70
     2
  0
DIMSTYLE
  2
STANDARD
 70
     0
  3

  4

  5

  6

  7

 40
1.0
 41
0.18
 42
0.0625
 43
0.38
 44
0.18
 45
0.0
 46
0.0
 47
0.0
 48
0.0
140
0.18
141
0.09
142
0.0
143
25.399999999999999
144
1.0
145
0.0
146
1.0
147
0.09
 71
     0
 72
     0
 73
     1
 74
     1
 75
     0
 76
     0
 77
     0
 78
     0
170
     0
171
     2
172
     0
173
     0
174
     0
175
     0
176
     0
177
     0
178
     0
  0
ENDTAB
  0
ENDSEC
  0
SECTION
  2
BLOCKS
  0
BLOCK
  8
0
  2
$MODEL_SPACE
 70
     0
 10
0.0
 20
0.0
 30
0.0
  3
$MODEL_SPACE
  1

  0
ENDBLK
  5
8272
  8
0
  0
BLOCK
 67
     1
  8
0
  2
$PAPER_SPACE
 70
     0
 10
0.0
 20
0.0
 30
0.0
  3
$PAPER_SPACE
  1

  0
ENDBLK
  5
826E
 67
     1
  8
0
  0
BLOCK
  8
0
  2
*X6
 70
     1
 10
0.0
 20
0.0
 30
0.0
  3
*X6
  1

  0
LINE
  5
34595
  8
0
 62
     0
 10
19.76566859937801
 20
0.8346048915335284
 30
0.0
 11
19.77172038407917
 21
0.8406566762346825
 31
0.0
  0
LINE
  5
34596
  8
0
 62
     0
 10
19.763340135485489
 20
0.8344861363322131
 30
0.0
 11
19.77183914618195
 21
0.8429851470286751
 31
0.0
  0
LINE
  5
34597
  8
0
 62
     0
 10
19.761130426794281
 20
0.8344861363322131
 30
0.0
 11
19.77183914618195
 21
0.8451948557198827
 31
0.0
  0
LINE
  5
34598
  8
0
 62
     0
 10
19.75892071810307
 20
0.834486136332214
 30
0.0
 11
19.77183914618195
 21
0.8474045644110904
 31
0.0
  0
LINE
  5
34599
  8
0
 62
     0
 10
19.756711009411859
 20
0.8344861363322131
 30
0.0
 11
19.771839146181939
 21
0.8496142731022979
 31
0.0
  0
LINE
  5
3459A
  8
0
 62
     0
 10
19.754501300720658
 20
0.8344861363322131
 30
0.0
 11
19.77183914618195
 21
0.8518239817935056
 31
0.0
  0
LINE
  5
3459B
  8
0
 62
     0
 10
19.752291592029451
 20
0.834486136332214
 30
0.0
 11
19.771839146181939
 21
0.8540336904847141
 31
0.0
  0
LINE
  5
3459C
  8
0
 62
     0
 10
19.75008188333824
 20
0.8344861363322131
 30
0.0
 11
19.77183914618195
 21
0.8562433991759209
 31
0.0
  0
LINE
  5
3459D
  8
0
 62
     0
 10
19.747872174647028
 20
0.8344861363322131
 30
0.0
 11
19.77183914618195
 21
0.8584531078671293
 31
0.0
  0
LINE
  5
3459E
  8
0
 62
     0
 10
19.74569055055084
 20
0.8345142209272352
 30
0.0
 11
19.77183914618195
 21
0.8606628165583387
 31
0.0
  0
LINE
  5
3459F
  8
0
 62
     0
 10
19.743870626759989
 20
0.8349040058275871
 30
0.0
 11
19.77183914618195
 21
0.8628725252495463
 31
0.0
  0
LINE
  5
345A0
  8
0
 62
     0
 10
19.742375792580791
 20
0.8356188803395988
 30
0.0
 11
19.77183914618195
 21
0.865082233940754
 31
0.0
  0
LINE
  5
345A1
  8
0
 62
     0
 10
19.74113382747035
 20
0.8365866239203629
 30
0.0
 11
19.77183914618195
 21
0.8672919426319616
 31
0.0
  0
LINE
  5
345A2
  8
0
 62
     0
 10
19.74012471603719
 20
0.8377872211784174
 30
0.0
 11
19.77183914618195
 21
0.8695016513231701
 31
0.0
  0
LINE
  5
345A3
  8
0
 62
     0
 10
19.739362188402058
 20
0.8392344022344904
 30
0.0
 11
19.77183914618195
 21
0.8717113600143768
 31
0.0
  0
LINE
  5
345A4
  8
0
 62
     0
 10
19.738905891292699
 20
0.8409878138163415
 30
0.0
 11
19.771839146181939
 21
0.8739210687055853
 31
0.0
  0
LINE
  5
345A5
  8
0
 62
     0
 10
19.738839160340241
 20
0.8431307915550796
 30
0.0
 11
19.77183914618195
 21
0.876130777396793
 31
0.0
  0
LINE
  5
345A6
  8
0
 62
     0
 10
19.738839159580209
 20
0.8453404994862694
 30
0.0
 11
19.771839146181939
 21
0.8783404860880006
 31
0.0
  0
LINE
  5
345A7
  8
0
 62
     0
 10
19.738839158820198
 20
0.8475502074174592
 30
0.0
 11
19.77183914618195
 21
0.8805501947792092
 31
0.0
  0
LINE
  5
345A8
  8
0
 62
     0
 10
19.738839158060181
 20
0.8497599153486516
 30
0.0
 11
19.771839146181939
 21
0.8827599034704176
 31
0.0
  0
LINE
  5
345A9
  8
0
 62
     0
 10
19.738839157300159
 20
0.8519696232798414
 30
0.0
 11
19.77183914618195
 21
0.8849696121616261
 31
0.0
  0
LINE
  5
345AA
  8
0
 62
     0
 10
19.738839156540148
 20
0.854179331211033
 30
0.0
 11
19.77183914618195
 21
0.8871793208528337
 31
0.0
  0
LINE
  5
345AB
  8
0
 62
     0
 10
19.738839155780131
 20
0.8563890391422238
 30
0.0
 11
19.77183914618195
 21
0.8893890295440414
 31
0.0
  0
LINE
  5
345AC
  8
0
 62
     0
 10
19.738839155020109
 20
0.8585987470734136
 30
0.0
 11
19.77183914618195
 21
0.891598738235249
 31
0.0
  0
LINE
  5
345AD
  8
0
 62
     0
 10
19.738839154260091
 20
0.8608084550046042
 30
0.0
 11
19.771839146181939
 21
0.8938084469264566
 31
0.0
  0
LINE
  5
345AE
  8
0
 62
     0
 10
19.738839153500081
 20
0.8630181629357931
 30
0.0
 11
19.77183914618195
 21
0.8960181556176642
 31
0.0
  0
LINE
  5
345AF
  8
0
 62
     0
 10
19.73880563842625
 20
0.8651943565531743
 30
0.0
 11
19.771805638426251
 21
0.8981943565531746
 31
0.0
  0
LINE
  5
345B0
  8
0
 62
     0
 10
19.73840432093025
 20
0.867002747748379
 30
0.0
 11
19.771404320930241
 21
0.9000027477483794
 31
0.0
  0
LINE
  5
345B1
  8
0
 62
     0
 10
19.737681331765501
 20
0.8684894672748377
 30
0.0
 11
19.770681331765498
 21
0.9014894672748381
 31
0.0
  0
LINE
  5
345B2
  8
0
 62
     0
 10
19.7367066235552
 20
0.8697244677557502
 30
0.0
 11
19.769706623555201
 21
0.9027244677557506
 31
0.0
  0
LINE
  5
345B3
  8
0
 62
     0
 10
19.735499129941491
 20
0.8707266828332462
 30
0.0
 11
19.768499129941489
 21
0.9037266828332466
 31
0.0
  0
LINE
  5
345B4
  8
0
 62
     0
 10
19.734044094511301
 20
0.8714813560942706
 30
0.0
 11
19.767044094511299
 21
0.9044813560942711
 31
0.0
  0
LINE
  5
345B5
  8
0
 62
     0
 10
19.732279916070059
 20
0.8719268863442373
 30
0.0
 11
19.765279916070071
 21
0.9049268863442385
 31
0.0
  0
LINE
  5
345B6
  8
0
 62
     0
 10
19.73012941820712
 20
0.8719860971725061
 30
0.0
 11
19.76312943968848
 21
0.9049861186538593
 31
0.0
  0
LINE
  5
345B7
  8
0
 62
     0
 10
19.727919710812252
 20
0.8719860984688425
 30
0.0
 11
19.760919731138451
 21
0.9049861187950334
 31
0.0
  0
LINE
  5
345B8
  8
0
 62
     0
 10
19.72571000341738
 20
0.8719860997651807
 30
0.0
 11
19.75871002258841
 21
0.9049861189362085
 31
0.0
  0
LINE
  5
345B9
  8
0
 62
     0
 10
19.723500296022511
 20
0.8719861010615198
 30
0.0
 11
19.75650031403838
 21
0.9049861190773826
 31
0.0
  0
LINE
  5
345BA
  8
0
 62
     0
 10
19.721290588627639
 20
0.8719861023578561
 30
0.0
 11
19.75429060548834
 21
0.9049861192185559
 31
0.0
  0
LINE
  5
345BB
  8
0
 62
     0
 10
19.719080881232781
 20
0.8719861036541942
 30
0.0
 11
19.75208089693831
 21
0.9049861193597309
 31
0.0
  0
LINE
  5
345BC
  8
0
 62
     0
 10
19.716871173837902
 20
0.8719861049505306
 30
0.0
 11
19.74987118838828
 21
0.9049861195009061
 31
0.0
  0
LINE
  5
345BD
  8
0
 62
     0
 10
19.71466146644303
 20
0.8719861062468696
 30
0.0
 11
19.747661479838239
 21
0.9049861196420803
 31
0.0
  0
LINE
  5
345BE
  8
0
 62
     0
 10
19.712451759048161
 20
0.8719861075432095
 30
0.0
 11
19.745451771288209
 21
0.9049861197832562
 31
0.0
  0
LINE
  5
345BF
  8
0
 62
     0
 10
19.710242051653289
 20
0.8719861088395468
 30
0.0
 11
19.743242062738179
 21
0.9049861199244313
 31
0.0
  0
LINE
  5
345C0
  8
0
 62
     0
 10
19.708032344258431
 20
0.871986110135885
 30
0.0
 11
19.741032354188139
 21
0.9049861200656064
 31
0.0
  0
LINE
  5
345C1
  8
0
 62
     0
 10
19.705822636863552
 20
0.8719861114322222
 30
0.0
 11
19.738822645638109
 21
0.9049861202067814
 31
0.0
  0
LINE
  5
345C2
  8
0
 62
     0
 10
19.70361292946869
 20
0.8719861127285604
 30
0.0
 11
19.736612937088079
 21
0.9049861203479565
 31
0.0
  0
LINE
  5
345C3
  8
0
 62
     0
 10
19.701403222073811
 20
0.8719861140248985
 30
0.0
 11
19.734403228538039
 21
0.9049861204891307
 31
0.0
  0
LINE
  5
345C4
  8
0
 62
     0
 10
19.699193514678939
 20
0.8719861153212358
 30
0.0
 11
19.732193519988009
 21
0.9049861206303049
 31
0.0
  0
LINE
  5
345C5
  8
0
 62
     0
 10
19.696983807284081
 20
0.8719861166175748
 30
0.0
 11
19.729983811437979
 21
0.9049861207714799
 31
0.0
  0
LINE
  5
345C6
  8
0
 62
     0
 10
19.694774099889202
 20
0.8719861179139112
 30
0.0
 11
19.727774102887949
 21
0.9049861209126541
 31
0.0
  0
LINE
  5
345C7
  8
0
 62
     0
 10
19.692564392494329
 20
0.8719861192102493
 30
0.0
 11
19.725564394337908
 21
0.9049861210538283
 31
0.0
  0
LINE
  5
345C8
  8
0
 62
     0
 10
19.690354685099461
 20
0.8719861205065901
 30
0.0
 11
19.723354685787879
 21
0.9049861211950052
 31
0.0
  0
LINE
  5
345C9
  8
0
 62
     0
 10
19.688144977704589
 20
0.8719861218029265
 30
0.0
 11
19.721144977237849
 21
0.9049861213361793
 31
0.0
  0
LINE
  5
345CA
  8
0
 62
     0
 10
19.68597598824994
 20
0.8720268410394789
 30
0.0
 11
19.718935268687812
 21
0.9049861214773535
 31
0.0
  0
LINE
  5
345CB
  8
0
 62
     0
 10
19.684181456208279
 20
0.8724420176890328
 30
0.0
 11
19.716725560137782
 21
0.9049861216185287
 31
0.0
  0
LINE
  5
345CC
  8
0
 62
     0
 10
19.68269847227603
 20
0.873168742447981
 30
0.0
 11
19.714515851587748
 21
0.9049861217597028
 31
0.0
  0
LINE
  5
345CD
  8
0
 62
     0
 10
19.681297573539432
 20
0.8739775524025983
 30
0.0
 11
19.712306143037711
 21
0.9049861219008779
 31
0.0
  0
LINE
  5
345CE
  8
0
 62
     0
 10
19.679896674802841
 20
0.8747863623572156
 30
0.0
 11
19.710096434487681
 21
0.904986122042052
 31
0.0
  0
LINE
  5
345CF
  8
0
 62
     0
 10
19.678495776066249
 20
0.8755951723118347
 30
0.0
 11
19.707886725937652
 21
0.9049861221832262
 31
0.0
  0
LINE
  5
345D0
  8
0
 62
     0
 10
19.677094877329662
 20
0.8764039822664519
 30
0.0
 11
19.705677017387611
 21
0.9049861223244031
 31
0.0
  0
LINE
  5
345D1
  8
0
 62
     0
 10
19.675693978593081
 20
0.877212792221071
 30
0.0
 11
19.703467308837581
 21
0.9049861224655764
 31
0.0
  0
LINE
  5
345D2
  8
0
 62
     0
 10
19.674293079856479
 20
0.8780216021756883
 30
0.0
 11
19.701257600287551
 21
0.9049861226067514
 31
0.0
  0
LINE
  5
345D3
  8
0
 62
     0
 10
19.672892181119892
 20
0.8788304121303074
 30
0.0
 11
19.6992714855527
 21
0.9052097165631112
 31
0.0
  0
LINE
  5
345D4
  8
0
 62
     0
 10
19.671491282383311
 20
0.8796392220849256
 30
0.0
 11
19.697665306722069
 21
0.9058132464236897
 31
0.0
  0
LINE
  5
345D5
  8
0
 62
     0
 10
19.670090383646709
 20
0.8804480320395438
 30
0.0
 11
19.696331034451472
 21
0.9066886828443002
 31
0.0
  0
LINE
  5
345D6
  8
0
 62
     0
 10
19.668689484910129
 20
0.8812568419941628
 30
0.0
 11
19.695233043945581
 21
0.9078004010296192
 31
0.0
  0
LINE
  5
345D7
  8
0
 62
     0
 10
19.66728858617353
 20
0.8820656519487792
 30
0.0
 11
19.69437230300306
 21
0.9091493687783085
 31
0.0
  0
LINE
  5
345D8
  8
0
 62
     0
 10
19.665887687436939
 20
0.8828744619033965
 30
0.0
 11
19.69378719827132
 21
0.9107739727377701
 31
0.0
  0
LINE
  5
345D9
  8
0
 62
     0
 10
19.664486788700358
 20
0.8836832718580165
 30
0.0
 11
19.69358916679905
 21
0.912785649956711
 31
0.0
  0
LINE
  5
345DA
  8
0
 62
     0
 10
19.66308588996376
 20
0.8844920818126338
 30
0.0
 11
19.69358916679905
 21
0.9149953586479186
 31
0.0
  0
LINE
  5
345DB
  8
0
 62
     0
 10
19.661684991227169
 20
0.8853008917672511
 30
0.0
 11
19.69358916679905
 21
0.9172050673391263
 31
0.0
  0
LINE
  5
345DC
  8
0
 62
     0
 10
19.660284092490588
 20
0.8861097017218702
 30
0.0
 11
19.69358916679905
 21
0.919414776030334
 31
0.0
  0
LINE
  5
345DD
  8
0
 62
     0
 10
19.658883193754001
 20
0.8869185116764892
 30
0.0
 11
19.69358916679905
 21
0.9216244847215434
 31
0.0
  0
LINE
  5
345DE
  8
0
 62
     0
 10
19.65748229501741
 20
0.8877273216311084
 30
0.0
 11
19.69358916679905
 21
0.9238341934127518
 31
0.0
  0
LINE
  5
345DF
  8
0
 62
     0
 10
19.656081396280818
 20
0.8885361315857256
 30
0.0
 11
19.69358916679905
 21
0.9260439021039585
 31
0.0
  0
LINE
  5
345E0
  8
0
 62
     0
 10
19.65467794732298
 20
0.889342391319098
 30
0.0
 11
19.69358916679905
 21
0.9282536107951671
 31
0.0
  0
LINE
  5
345E1
  8
0
 62
     0
 10
19.65309833371936
 20
0.8899724864066831
 30
0.0
 11
19.69358916679905
 21
0.9304633194863747
 31
0.0
  0
LINE
  5
345E2
  8
0
 62
     0
 10
19.651152219784191
 20
0.8902360811627261
 30
0.0
 11
19.69358916679905
 21
0.9326730281775824
 31
0.0
  0
LINE
  5
345E3
  8
0
 62
     0
 10
19.648942553043089
 20
0.890236123112829
 30
0.0
 11
19.69358916679905
 21
0.9348827368687908
 31
0.0
  0
LINE
  5
345E4
  8
0
 62
     0
 10
19.64673284485286
 20
0.8902361236138069
 30
0.0
 11
19.69358916679905
 21
0.9370924455599975
 31
0.0
  0
LINE
  5
345E5
  8
0
 62
     0
 10
19.644523136662631
 20
0.8902361241147831
 30
0.0
 11
19.69358916679905
 21
0.9393021542512061
 31
0.0
  0
LINE
  5
345E6
  8
0
 62
     0
 10
19.642313428472399
 20
0.8902361246157619
 30
0.0
 11
19.69358916679905
 21
0.9415118629424137
 31
0.0
  0
LINE
  5
345E7
  8
0
 62
     0
 10
19.64010372028217
 20
0.8902361251167381
 30
0.0
 11
19.69358916679905
 21
0.9437215716336213
 31
0.0
  0
LINE
  5
345E8
  8
0
 62
     0
 10
19.637894012091941
 20
0.8902361256177178
 30
0.0
 11
19.69358916679905
 21
0.9459312803248317
 31
0.0
  0
LINE
  5
345E9
  8
0
 62
     0
 10
19.635684303901709
 20
0.8902361261186939
 30
0.0
 11
19.69358916679905
 21
0.9481409890160392
 31
0.0
  0
LINE
  5
345EA
  8
0
 62
     0
 10
19.63347459571148
 20
0.8902361266196727
 30
0.0
 11
19.69358916679905
 21
0.9503506977072468
 31
0.0
  0
LINE
  5
345EB
  8
0
 62
     0
 10
19.631264887521251
 20
0.890236127120648
 30
0.0
 11
19.69358916679905
 21
0.9525604063984545
 31
0.0
  0
LINE
  5
345EC
  8
0
 62
     0
 10
19.629055179331019
 20
0.8902361276216259
 30
0.0
 11
19.69358916679905
 21
0.9547701150896621
 31
0.0
  0
LINE
  5
345ED
  8
0
 62
     0
 10
19.626845471140779
 20
0.8902361281226029
 30
0.0
 11
19.69358916679905
 21
0.9569798237808707
 31
0.0
  0
LINE
  5
345EE
  8
0
 62
     0
 10
19.659406297096499
 20
0.9250066627695288
 30
0.0
 11
19.69358916679905
 21
0.9591895324720782
 31
0.0
  0
LINE
  5
345EF
  8
0
 62
     0
 10
19.62463576295055
 20
0.8902361286235809
 30
0.0
 11
19.65881861284317
 21
0.9244189785161909
 31
0.0
  0
LINE
  5
345F0
  8
0
 62
     0
 10
19.660589144684788
 20
0.9283992190490257
 30
0.0
 11
19.69358916679905
 21
0.9613992411632859
 31
0.0
  0
LINE
  5
345F1
  8
0
 62
     0
 10
19.622426054760322
 20
0.8902361291245579
 30
0.0
 11
19.655426048253279
 21
0.9232361226175136
 31
0.0
  0
LINE
  5
345F2
  8
0
 62
     0
 10
19.660589144684788
 20
0.9306089277402334
 30
0.0
 11
19.69358916679905
 21
0.9636089498544935
 31
0.0
  0
LINE
  5
345F3
  8
0
 62
     0
 10
19.620216346570089
 20
0.8902361296255349
 30
0.0
 11
19.653216339562071
 21
0.9232361226175145
 31
0.0
  0
LINE
  5
345F4
  8
0
 62
     0
 10
19.660589144684788
 20
0.9328186364314419
 30
0.0
 11
19.69358916679905
 21
0.9658186585457012
 31
0.0
  0
LINE
  5
345F5
  8
0
 62
     0
 10
19.61800663837986
 20
0.890236130126512
 30
0.0
 11
19.651006630870871
 21
0.9232361226175154
 31
0.0
  0
LINE
  5
345F6
  8
0
 62
     0
 10
19.660589144684788
 20
0.9350283451226504
 30
0.0
 11
19.69358916679905
 21
0.9680283672369114
 31
0.0
  0
LINE
  5
345F7
  8
0
 62
     0
 10
19.615796930189632
 20
0.8902361306274917
 30
0.0
 11
19.649042235433239
 21
0.9234814358710972
 31
0.0
  0
LINE
  5
345F8
  8
0
 62
     0
 10
19.660589144684788
 20
0.9372380538138589
 30
0.0
 11
19.69358916679905
 21
0.970238075928119
 31
0.0
  0
LINE
  5
345F9
  8
0
 62
     0
 10
19.7619846532141
 20
1.0386335623431651
 30
0.0
 11
19.77044171326953
 21
1.047090622398593
 31
0.0
  0
LINE
  5
345FA
  8
0
 62
     0
 10
19.613587221999399
 20
0.8902361311284687
 30
0.0
 11
19.647588044842699
 21
0.9242369539717669
 31
0.0
  0
LINE
  5
345FB
  8
0
 62
     0
 10
19.660589144684788
 20
0.9394477625050665
 30
0.0
 11
19.69358916679905
 21
0.9724477846193266
 31
0.0
  0
LINE
  5
345FC
  8
0
 62
     0
 10
19.75872959844143
 20
1.0375882162617041
 30
0.0
 11
19.771487059350989
 21
1.050345677171262
 31
0.0
  0
LINE
  5
345FD
  8
0
 62
     0
 10
19.61137751380917
 20
0.8902361316294449
 30
0.0
 11
19.646500086561669
 21
0.9253587043819475
 31
0.0
  0
LINE
  5
345FE
  8
0
 62
     0
 10
19.660589144684788
 20
0.9416574711962741
 30
0.0
 11
19.69358916679905
 21
0.9746574933105343
 31
0.0
  0
LINE
  5
345FF
  8
0
 62
     0
 10
19.756189734602021
 20
1.0372580611134981
 30
0.0
 11
19.77181721449919
 21
1.0528855410106761
 31
0.0
  0
LINE
  5
34600
  8
0
 62
     0
 10
19.609167805618942
 20
0.8902361321304229
 30
0.0
 11
19.645784354439929
 21
0.9268526809514154
 31
0.0
  0
LINE
  5
34601
  8
0
 62
     0
 10
19.660589144684788
 20
0.9438671798874818
 30
0.0
 11
19.69358916679905
 21
0.9768672020017419
 31
0.0
  0
LINE
  5
34602
  8
0
 62
     0
 10
19.753958088944358
 20
1.037236124147052
 30
0.0
 11
19.77178565882895
 21
1.055063694031644
 31
0.0
  0
LINE
  5
34603
  8
0
 62
     0
 10
19.607011964645721
 20
0.890289999848414
 30
0.0
 11
19.645589149632681
 21
0.9288671848353695
 31
0.0
  0
LINE
  5
34604
  8
0
 62
     0
 10
19.660589144684788
 20
0.9460768885786894
 30
0.0
 11
19.69358916679905
 21
0.9790769106929496
 31
0.0
  0
LINE
  5
34605
  8
0
 62
     0
 10
19.751748380253151
 20
1.0372361241470509
 30
0.0
 11
19.771512972245372
 21
1.0570007161392649
 31
0.0
  0
LINE
  5
34606
  8
0
 62
     0
 10
19.605065428104488
 20
0.890553171998393
 30
0.0
 11
19.645186385835359
 21
0.9306741297292565
 31
0.0
  0
LINE
  5
34607
  8
0
 62
     0
 10
19.660589144684788
 20
0.948286597269898
 30
0.0
 11
19.69358916679905
 21
0.981286619384158
 31
0.0
  0
LINE
  5
34608
  8
0
 62
     0
 10
19.74953867156195
 20
1.0372361241470509
 30
0.0
 11
19.771057377349798
 21
1.0587548299349101
 31
0.0
  0
LINE
  5
34609
  8
0
 62
     0
 10
19.603293800271871
 20
0.890991252856975
 30
0.0
 11
19.642615340126401
 21
0.9303127927115131
 31
0.0
  0
LINE
  5
3460A
  8
0
 62
     0
 10
19.660589144684788
 20
0.9504963059611055
 30
0.0
 11
19.69358916679905
 21
0.9834963280753656
 31
0.0
  0
LINE
  5
3460B
  8
0
 62
     0
 10
19.747328962870739
 20
1.03723612414705
 30
0.0
 11
19.770451705881779
 21
1.0603588671580919
 31
0.0
  0
LINE
  5
3460C
  8
0
 62
     0
 10
19.601666521991739
 20
0.8915736832680485
 30
0.0
 11
19.640044294417461
 21
0.9299514556937671
 31
0.0
  0
LINE
  5
3460D
  8
0
 62
     0
 10
19.660589144684788
 20
0.9527060146523131
 30
0.0
 11
19.69358916679905
 21
0.9857060367665733
 31
0.0
  0
LINE
  5
3460E
  8
0
 62
     0
 10
19.745119254179532
 20
1.0372361241470509
 30
0.0
 11
19.769715976695959
 21
1.0618328466634841
 31
0.0
  0
LINE
  5
3460F
  8
0
 62
     0
 10
19.60016450485104
 20
0.8922813748185678
 30
0.0
 11
19.637473248708499
 21
0.9295901186760229
 31
0.0
  0
LINE
  5
34610
  8
0
 62
     0
 10
19.660589144684788
 20
0.9549157233435208
 30
0.0
 11
19.69358916679905
 21
0.9879157454577818
 31
0.0
  0
LINE
  5
34611
  8
0
 62
     0
 10
19.74290954548832
 20
1.0372361241470509
 30
0.0
 11
19.7688627330175
 21
1.0631893116762301
 31
0.0
  0
LINE
  5
34612
  8
0
 62
     0
 10
19.59877545455258
 20
0.8931020332113037
 30
0.0
 11
19.634902202999552
 21
0.9292287816582778
 31
0.0
  0
LINE
  5
34613
  8
0
 62
     0
 10
19.660589144684788
 20
0.9571254320347284
 30
0.0
 11
19.69358916679905
 21
0.9901254541489885
 31
0.0
  0
LINE
  5
34614
  8
0
 62
     0
 10
19.740699836797109
 20
1.03723612414705
 30
0.0
 11
19.767899604421931
 21
1.064435891771863
 31
0.0
  0
LINE
  5
34615
  8
0
 62
     0
 10
19.597491553916178
 20
0.8940278412661148
 30
0.0
 11
19.632331157290601
 21
0.9288674446405336
 31
0.0
  0
LINE
  5
34616
  8
0
 62
     0
 10
19.660589144684788
 20
0.9593351407259378
 30
0.0
 11
19.69358916679905
 21
0.9923351628401989
 31
0.0
  0
LINE
  5
34617
  8
0
 62
     0
 10
19.738490128105909
 20
1.0372361241470529
 30
0.0
 11
19.766830596460629
 21
1.0655765925017819
 31
0.0
  0
LINE
  5
34618
  8
0
 62
     0
 10
19.59630824844113
 20
0.8950542444822779
 30
0.0
 11
19.629760111581639
 21
0.9285061076227885
 31
0.0
  0
LINE
  5
34619
  8
0
 62
     0
 10
19.660589144684788
 20
0.9615448494171464
 30
0.0
 11
19.69358916679905
 21
0.9945448715314064
 31
0.0
  0
LINE
  5
3461A
  8
0
 62
     0
 10
19.736280419414701
 20
1.0372361241470529
 30
0.0
 11
19.765656691004121
 21
1.066612395736475
 31
0.0
  0
LINE
  5
3461B
  8
0
 62
     0
 10
19.595223626044881
 20
0.8961793307772358
 30
0.0
 11
19.627189065872692
 21
0.9281447706050451
 31
0.0
  0
LINE
  5
3461C
  8
0
 62
     0
 10
19.660589144684788
 20
0.963754558108353
 30
0.0
 11
19.69358916679905
 21
0.996754580222614
 31
0.0
  0
LINE
  5
3461D
  8
0
 62
     0
 10
19.73407071072349
 20
1.037236124147052
 30
0.0
 11
19.764375985596171
 21
1.0675413990197331
 31
0.0
  0
LINE
  5
3461E
  8
0
 62
     0
 10
19.59423817512851
 20
0.8974035885520734
 30
0.0
 11
19.624618020163741
 21
0.9277834335872991
 31
0.0
  0
LINE
  5
3461F
  8
0
 62
     0
 10
19.660589144684788
 20
0.9659642667995615
 30
0.0
 11
19.69358916679905
 21
0.9989642889138226
 31
0.0
  0
LINE
  5
34620
  8
0
 62
     0
 10
19.731861002032279
 20
1.0372361241470529
 30
0.0
 11
19.76298342067377
 21
1.068358542788542
 31
0.0
  0
LINE
  5
34621
  8
0
 62
     0
 10
19.59335484535174
 20
0.8987299674665081
 30
0.0
 11
19.622046974454779
 21
0.9274220965695558
 31
0.0
  0
LINE
  5
34622
  8
0
 62
     0
 10
19.660589144684788
 20
0.9681739754907692
 30
0.0
 11
19.69358916679905
 21
1.0011739976050289
 31
0.0
  0
LINE
  5
34623
  8
0
 62
     0
 10
19.729651293341082
 20
1.0372361241470529
 30
0.0
 11
19.761469997539351
 21
1.0690548283453261
 31
0.0
  0
LINE
  5
34624
  8
0
 62
     0
 10
19.592579429646008
 20
0.9001642604519837
 30
0.0
 11
19.619475928745828
 21
0.9270607595518089
 31
0.0
  0
LINE
  5
34625
  8
0
 62
     0
 10
19.660589144684788
 20
0.9703836841819769
 30
0.0
 11
19.69358916679905
 21
1.003383706296237
 31
0.0
  0
LINE
  5
34626
  8
0
 62
     0
 10
19.727441584649871
 20
1.037236124147052
 30
0.0
 11
19.759821175994109
 21
1.0696157154912971
 31
0.0
  0
LINE
  5
34627
  8
0
 62
     0
 10
19.591921391044568
 20
0.9017159305417576
 30
0.0
 11
19.616904883036881
 21
0.9266994225340656
 31
0.0
  0
LINE
  5
34628
  8
0
 62
     0
 10
19.660589144684788
 20
0.9725933928731844
 30
0.0
 11
19.69358916679905
 21
1.005593414987445
 31
0.0
  0
LINE
  5
34629
  8
0
 62
     0
 10
19.725231875958659
 20
1.037236124147052
 30
0.0
 11
19.758013672420802
 21
1.0700179206091971
 31
0.0
  0
LINE
  5
3462A
  8
0
 62
     0
 10
19.59139544195299
 20
0.9033996901413798
 30
0.0
 11
19.614333837327919
 21
0.9263380855163214
 31
0.0
  0
LINE
  5
3462B
  8
0
 62
     0
 10
19.660396550156769
 20
0.9746105070363677
 30
0.0
 11
19.69358916679905
 21
1.0078031236786531
 31
0.0
  0
LINE
  5
3462C
  8
0
 62
     0
 10
19.723022167267452
 20
1.0372361241470529
 30
0.0
 11
19.756008580357431
 21
1.0702225372370331
 31
0.0
  0
LINE
  5
3462D
  8
0
 62
     0
 10
19.591024604602971
 20
0.9052385614825748
 30
0.0
 11
19.611762791618968
 21
0.9259767484985754
 31
0.0
  0
LINE
  5
3462E
  8
0
 62
     0
 10
19.659683028706951
 20
0.9761066942777585
 30
0.0
 11
19.69358916679905
 21
1.0100128323698609
 31
0.0
  0
LINE
  5
3462F
  8
0
 62
     0
 10
19.720812458576241
 20
1.0372361241470509
 30
0.0
 11
19.7538124443859
 21
1.0702361099567099
 31
0.0
  0
LINE
  5
34630
  8
0
 62
     0
 10
19.590846642383461
 20
0.9072703079542758
 30
0.0
 11
19.609191745910021
 21
0.9256154114808312
 31
0.0
  0
LINE
  5
34631
  8
0
 62
     0
 10
19.658596915038441
 20
0.977230289300456
 30
0.0
 11
19.69358916679905
 21
1.0122225410610679
 31
0.0
  0
LINE
  5
34632
  8
0
 62
     0
 10
19.71860274988504
 20
1.03723612414705
 30
0.0
 11
19.75160273622533
 21
1.0702361104873439
 31
0.0
  0
LINE
  5
34633
  8
0
 62
     0
 10
19.59092968466879
 20
0.9095630589307993
 30
0.0
 11
19.60662070020107
 21
0.9252540744630861
 31
0.0
  0
LINE
  5
34634
  8
0
 62
     0
 10
19.657144858352151
 20
0.9779879413053746
 30
0.0
 11
19.69358916679905
 21
1.014432249752278
 31
0.0
  0
LINE
  5
34635
  8
0
 62
     0
 10
19.716393041193829
 20
1.0372361241470529
 30
0.0
 11
19.749393028064748
 21
1.0702361110179761
 31
0.0
  0
LINE
  5
34636
  8
0
 62
     0
 10
19.591421009641309
 20
0.912264092594536
 30
0.0
 11
19.603904782449899
 21
0.9247478654031295
 31
0.0
  0
LINE
  5
34637
  8
0
 62
     0
 10
19.65518331407587
 20
0.9782361057203
 30
0.0
 11
19.69358916679905
 21
1.016641958443486
 31
0.0
  0
LINE
  5
34638
  8
0
 62
     0
 10
19.714183332502621
 20
1.0372361241470529
 30
0.0
 11
19.74718331990417
 21
1.0702361115486081
 31
0.0
  0
LINE
  5
34639
  8
0
 62
     0
 10
19.592810294209951
 20
0.9158630858543839
 30
0.0
 11
19.600305789190049
 21
0.9233585808344901
 31
0.0
  0
LINE
  5
3463A
  8
0
 62
     0
 10
19.652973605384659
 20
0.9782361057203
 30
0.0
 11
19.69358916679905
 21
1.018851667134693
 31
0.0
  0
LINE
  5
3463B
  8
0
 62
     0
 10
19.71197362381141
 20
1.037236124147052
 30
0.0
 11
19.7449736117436
 21
1.0702361120792401
 31
0.0
  0
LINE
  5
3463C
  8
0
 62
     0
 10
19.64549259512777
 20
0.9707550954634118
 30
0.0
 11
19.64558914978112
 21
0.9708516501167601
 31
0.0
  0
LINE
  5
3463D
  8
0
 62
     0
 10
19.650763896693451
 20
0.978236105720299
 30
0.0
 11
19.69358916679905
 21
1.0210613758259011
 31
0.0
  0
LINE
  5
3463E
  8
0
 62
     0
 10
19.709763915120199
 20
1.0372361241470529
 30
0.0
 11
19.742763903583018
 21
1.0702361126098721
 31
0.0
  0
LINE
  5
3463F
  8
0
 62
     0
 10
19.643555172981639
 20
0.9710273820084909
 30
0.0
 11
19.645589152759619
 21
0.9730613617864669
 31
0.0
  0
LINE
  5
34640
  8
0
 62
     0
 10
19.64742857714376
 20
0.9771104948618196
 30
0.0
 11
19.69358916679905
 21
1.0232710845171089
 31
0.0
  0
LINE
  5
34641
  8
0
 62
     0
 10
19.707554206428998
 20
1.0372361241470529
 30
0.0
 11
19.740554195422451
 21
1.070236113140504
 31
0.0
  0
LINE
  5
34642
  8
0
 62
     0
 10
19.641617750835511
 20
0.9712996685535718
 30
0.0
 11
19.64671478075088
 21
0.9763966984689327
 31
0.0
  0
LINE
  5
34643
  8
0
 62
     0
 10
19.705344497737791
 20
1.037236124147052
 30
0.0
 11
19.73834448726187
 21
1.0702361136711369
 31
0.0
  0
LINE
  5
34644
  8
0
 62
     0
 10
19.639680328689391
 20
0.9715719550986507
 30
0.0
 11
19.69358916679905
 21
1.025480793208317
 31
0.0
  0
LINE
  5
34645
  8
0
 62
     0
 10
19.70313478904658
 20
1.0372361241470529
 30
0.0
 11
19.736134779101299
 21
1.0702361142017689
 31
0.0
  0
LINE
  5
34646
  8
0
 62
     0
 10
19.637742906543259
 20
0.9718442416437289
 30
0.0
 11
19.69358916679905
 21
1.027690501899525
 31
0.0
  0
LINE
  5
34647
  8
0
 62
     0
 10
19.700923243538082
 20
1.0372342873297651
 30
0.0
 11
19.733925070940721
 21
1.0702361147324
 31
0.0
  0
LINE
  5
34648
  8
0
 62
     0
 10
19.635805484397132
 20
0.9721165281888088
 30
0.0
 11
19.693590988282931
 21
1.0299020320746071
 31
0.0
  0
LINE
  5
34649
  8
0
 62
     0
 10
19.698089296155629
 20
1.036610048638515
 30
0.0
 11
19.73171536278014
 21
1.0702361152630331
 31
0.0
  0
LINE
  5
3464A
  8
0
 62
     0
 10
19.633868062251
 20
0.9723888147338888
 30
0.0
 11
19.69421522697418
 21
1.032735979457065
 31
0.0
  0
LINE
  5
3464B
  8
0
 62
     0
 10
19.631930640104869
 20
0.9726611012789687
 30
0.0
 11
19.729505654619569
 21
1.0702361157936631
 31
0.0
  0
LINE
  5
3464C
  8
0
 62
     0
 10
19.629993217958742
 20
0.9729333878240478
 30
0.0
 11
19.727295946458991
 21
1.070236116324297
 31
0.0
  0
LINE
  5
3464D
  8
0
 62
     0
 10
19.62805579581261
 20
0.9732056743691286
 30
0.0
 11
19.72508623829842
 21
1.070236116854929
 31
0.0
  0
LINE
  5
3464E
  8
0
 62
     0
 10
19.626118373666479
 20
0.9734779609142076
 30
0.0
 11
19.722876530137839
 21
1.070236117385563
 31
0.0
  0
LINE
  5
3464F
  8
0
 62
     0
 10
19.624180951520358
 20
0.9737502474592876
 30
0.0
 11
19.720666821977261
 21
1.070236117916193
 31
0.0
  0
LINE
  5
34650
  8
0
 62
     0
 10
19.622243529374231
 20
0.9740225340043666
 30
0.0
 11
19.71845711381669
 21
1.0702361184468261
 31
0.0
  0
LINE
  5
34651
  8
0
 62
     0
 10
19.6203061072281
 20
0.9742948205494466
 30
0.0
 11
19.716247405656109
 21
1.070236118977459
 31
0.0
  0
LINE
  5
34652
  8
0
 62
     0
 10
19.618368685081968
 20
0.9745671070945247
 30
0.0
 11
19.714037697495542
 21
1.0702361195080901
 31
0.0
  0
LINE
  5
34653
  8
0
 62
     0
 10
19.616431262935851
 20
0.9748393936396047
 30
0.0
 11
19.71182798933496
 21
1.070236120038722
 31
0.0
  0
LINE
  5
34654
  8
0
 62
     0
 10
19.61449384078972
 20
0.9751116801846846
 30
0.0
 11
19.709618281174379
 21
1.070236120569354
 31
0.0
  0
LINE
  5
34655
  8
0
 62
     0
 10
19.612556418643589
 20
0.9753839667297645
 30
0.0
 11
19.707408573013812
 21
1.070236121099986
 31
0.0
  0
LINE
  5
34656
  8
0
 62
     0
 10
19.61061899649745
 20
0.9756562532748418
 30
0.0
 11
19.70519886485323
 21
1.0702361216306171
 31
0.0
  0
LINE
  5
34657
  8
0
 62
     0
 10
19.60868157435133
 20
0.9759285398199235
 30
0.0
 11
19.702989156692659
 21
1.070236122161252
 31
0.0
  0
LINE
  5
34658
  8
0
 62
     0
 10
19.660393119184221
 20
1.0298497933440229
 30
0.0
 11
19.700785594172931
 21
1.0702422683327379
 31
0.0
  0
LINE
  5
34659
  8
0
 62
     0
 10
19.606744152205199
 20
0.9762008263650034
 30
0.0
 11
19.65697548226867
 21
1.02643215642847
 31
0.0
  0
LINE
  5
3465A
  8
0
 62
     0
 10
19.660589144684788
 20
1.0322555275358001
 30
0.0
 11
19.698897199179619
 21
1.0705635820306321
 31
0.0
  0
LINE
  5
3465B
  8
0
 62
     0
 10
19.604808233937838
 20
0.9764746167888471
 30
0.0
 11
19.654569739766512
 21
1.0262361226175201
 31
0.0
  0
LINE
  5
3465C
  8
0
 62
     0
 10
19.660589144684788
 20
1.034465236227007
 30
0.0
 11
19.697355455519549
 21
1.0712315470617639
 31
0.0
  0
LINE
  5
3465D
  8
0
 62
     0
 10
19.602987459831311
 20
0.9768635513735244
 30
0.0
 11
19.652360031075322
 21
1.0262361226175329
 31
0.0
  0
LINE
  5
3465E
  8
0
 62
     0
 10
19.660589144684788
 20
1.0366749449182151
 30
0.0
 11
19.696073864557729
 21
1.072159664791154
 31
0.0
  0
LINE
  5
3465F
  8
0
 62
     0
 10
19.601327630362849
 20
0.9774134305962762
 30
0.0
 11
19.650168083853291
 21
1.0262538840867159
 31
0.0
  0
LINE
  5
34660
  8
0
 62
     0
 10
19.660589144684788
 20
1.0388846536094221
 30
0.0
 11
19.695026030459839
 21
1.0733215393844731
 31
0.0
  0
LINE
  5
34661
  8
0
 62
     0
 10
19.59980459366831
 20
0.9781001025929416
 30
0.0
 11
19.648430568099968
 21
1.0267260770245989
 31
0.0
  0
LINE
  5
34662
  8
0
 62
     0
 10
19.660589144684788
 20
1.0410943623006299
 30
0.0
 11
19.694220041082939
 21
1.074725258698781
 31
0.0
  0
LINE
  5
34663
  8
0
 62
     0
 10
19.598403290462521
 20
0.9789085080783568
 30
0.0
 11
19.64712520558103
 21
1.0276304231968709
 31
0.0
  0
LINE
  5
34664
  8
0
 62
     0
 10
19.660589144684788
 20
1.0433040709918391
 30
0.0
 11
19.693705464844331
 21
1.0764203911513781
 31
0.0
  0
LINE
  5
34665
  8
0
 62
     0
 10
19.59711437380043
 20
0.9798293001074772
 30
0.0
 11
19.646174214909269
 21
1.0288891412163159
 31
0.0
  0
LINE
  5
34666
  8
0
 62
     0
 10
19.660589144684788
 20
1.045513779683046
 30
0.0
 11
19.69358916679905
 21
1.0785138017973059
 31
0.0
  0
LINE
  5
34667
  8
0
 62
     0
 10
19.595932522150811
 20
0.9808571571490691
 30
0.0
 11
19.645635112547051
 21
1.0305597475453061
 31
0.0
  0
LINE
  5
34668
  8
0
 62
     0
 10
19.660589144684788
 20
1.0477234883742541
 30
0.0
 11
19.69358916679905
 21
1.080723510488514
 31
0.0
  0
LINE
  5
34669
  8
0
 62
     0
 10
19.59485561000589
 20
0.981989953695348
 30
0.0
 11
19.645589150990329
 21
1.032723494679797
 31
0.0
  0
LINE
  5
3466A
  8
0
 62
     0
 10
19.660589144684788
 20
1.049933197065462
 30
0.0
 11
19.69358916679905
 21
1.0829332191797221
 31
0.0
  0
LINE
  5
3466B
  8
0
 62
     0
 10
19.593884402084711
 20
0.9832284544653822
 30
0.0
 11
19.644190036703652
 21
1.0335340890843261
 31
0.0
  0
LINE
  5
3466C
  8
0
 62
     0
 10
19.660589144684788
 20
1.0521429057566709
 30
0.0
 11
19.69358916679905
 21
1.0851429278709319
 31
0.0
  0
LINE
  5
3466D
  8
0
 62
     0
 10
19.593022661707039
 20
0.9845764227789253
 30
0.0
 11
19.641618991707588
 21
1.033172752779475
 31
0.0
  0
LINE
  5
3466E
  8
0
 62
     0
 10
19.660589144684788
 20
1.054352614447879
 30
0.0
 11
19.69358916679905
 21
1.0873526365621391
 31
0.0
  0
LINE
  5
3466F
  8
0
 62
     0
 10
19.592277711246211
 20
0.9860411810093019
 30
0.0
 11
19.639047946711528
 21
1.0328114164746229
 31
0.0
  0
LINE
  5
34670
  8
0
 62
     0
 10
19.660589144684788
 20
1.056562323139087
 30
0.0
 11
19.69358916679905
 21
1.0895623452533469
 31
0.0
  0
LINE
  5
34671
  8
0
 62
     0
 10
19.59166165578975
 20
0.9876348342440506
 30
0.0
 11
19.636476901715469
 21
1.0324500801697709
 31
0.0
  0
LINE
  5
34672
  8
0
 62
     0
 10
19.660589144684788
 20
1.0587720318302949
 30
0.0
 11
19.69358916679905
 21
1.091772053944555
 31
0.0
  0
LINE
  5
34673
  8
0
 62
     0
 10
19.591193814416879
 20
0.9893767015623859
 30
0.0
 11
19.633905856719409
 21
1.032088743864918
 31
0.0
  0
LINE
  5
34674
  8
0
 62
     0
 10
19.660589144684788
 20
1.0609817405215021
 30
0.0
 11
19.69358916679905
 21
1.093981762635762
 31
0.0
  0
LINE
  5
34675
  8
0
 62
     0
 10
19.59090575330918
 20
0.991298349145893
 30
0.0
 11
19.631334811723349
 21
1.0317274075600651
 31
0.0
  0
LINE
  5
34676
  8
0
 62
     0
 10
19.660589144684788
 20
1.0631914492127099
 30
0.0
 11
19.69358916679905
 21
1.0961914713269709
 31
0.0
  0
LINE
  5
34677
  8
0
 62
     0
 10
19.59083915299518
 20
0.9934414575230992
 30
0.0
 11
19.628763766727289
 21
1.031366071255212
 31
0.0
  0
LINE
  5
34678
  8
0
 62
     0
 10
19.660589144684788
 20
1.065401157903918
 30
0.0
 11
19.69358916679905
 21
1.0984011800181781
 31
0.0
  0
LINE
  5
34679
  8
0
 62
     0
 10
19.59083915299518
 20
0.9956511662143059
 30
0.0
 11
19.626192721731229
 21
1.031004734950359
 31
0.0
  0
LINE
  5
3467A
  8
0
 62
     0
 10
19.660589144684788
 20
1.0676108665951261
 30
0.0
 11
19.69358916679905
 21
1.1006108887093859
 31
0.0
  0
LINE
  5
3467B
  8
0
 62
     0
 10
19.59083915299518
 20
0.9978608749055135
 30
0.0
 11
19.623621676735169
 21
1.030643398645507
 31
0.0
  0
LINE
  5
3467C
  8
0
 62
     0
 10
19.660589144684788
 20
1.0698205752863339
 30
0.0
 11
19.69358916679905
 21
1.1028205974005949
 31
0.0
  0
LINE
  5
3467D
  8
0
 62
     0
 10
19.59083915299518
 20
1.0000705835967221
 30
0.0
 11
19.621050631739109
 21
1.030282062340655
 31
0.0
  0
LINE
  5
3467E
  8
0
 62
     0
 10
19.660589144684788
 20
1.0720302839775411
 30
0.0
 11
19.69358916679905
 21
1.105030306091801
 31
0.0
  0
LINE
  5
3467F
  8
0
 62
     0
 10
19.59083915299518
 20
1.0022802922879279
 30
0.0
 11
19.618479586743049
 21
1.0299207260358021
 31
0.0
  0
LINE
  5
34680
  8
0
 62
     0
 10
19.660589144684788
 20
1.074239992668752
 30
0.0
 11
19.69358916679905
 21
1.1072400147830119
 31
0.0
  0
LINE
  5
34681
  8
0
 62
     0
 10
19.59083915299518
 20
1.0044900009791391
 30
0.0
 11
19.61590854174699
 21
1.0295593897309521
 31
0.0
  0
LINE
  5
34682
  8
0
 62
     0
 10
19.660584774265601
 20
1.0764453309407651
 30
0.0
 11
19.69358916679905
 21
1.1094497234742191
 31
0.0
  0
LINE
  5
34683
  8
0
 62
     0
 10
19.59083915299518
 20
1.0066997096703461
 30
0.0
 11
19.61333749675093
 21
1.0291980534260969
 31
0.0
  0
LINE
  5
34684
  8
0
 62
     0
 10
19.660169943246238
 20
1.0782402086126159
 30
0.0
 11
19.69358916679905
 21
1.111659432165427
 31
0.0
  0
LINE
  5
34685
  8
0
 62
     0
 10
19.59083915299518
 20
1.0089094183615539
 30
0.0
 11
19.61076645175487
 21
1.028836717121246
 31
0.0
  0
LINE
  5
34686
  8
0
 62
     0
 10
19.659303419612218
 20
1.079583393669806
 30
0.0
 11
19.69358916679905
 21
1.113869140856635
 31
0.0
  0
LINE
  5
34687
  8
0
 62
     0
 10
19.59083915299518
 20
1.0111191270527611
 30
0.0
 11
19.60819540675881
 21
1.0284753808163929
 31
0.0
  0
LINE
  5
34688
  8
0
 62
     0
 10
19.658081167505159
 20
1.0805708502539471
 30
0.0
 11
19.69358916679905
 21
1.116078849547842
 31
0.0
  0
LINE
  5
34689
  8
0
 62
     0
 10
19.59092973132304
 20
1.0134194140718329
 30
0.0
 11
19.60562436176275
 21
1.02811404451154
 31
0.0
  0
LINE
  5
3468A
  8
0
 62
     0
 10
19.65646026315121
 20
1.0811596545912141
 30
0.0
 11
19.69358916679905
 21
1.1182885582390509
 31
0.0
  0
LINE
  5
3468B
  8
0
 62
     0
 10
19.591453306187301
 20
1.016152697627301
 30
0.0
 11
19.60287934681142
 21
1.027578738251423
 31
0.0
  0
LINE
  5
3468C
  8
0
 62
     0
 10
19.654327022486299
 20
1.0812361226175089
 30
0.0
 11
19.69358916679905
 21
1.1204982669302579
 31
0.0
  0
LINE
  5
3468D
  8
0
 62
     0
 10
19.593071670347769
 20
1.0199807704789829
 30
0.0
 11
19.599051273959741
 21
1.0259603740909491
 31
0.0
  0
LINE
  5
3468E
  8
0
 62
     0
 10
19.652117313795092
 20
1.081236122617512
 30
0.0
 11
19.69358916679905
 21
1.122707975621466
 31
0.0
  0
LINE
  5
3468F
  8
0
 62
     0
 10
19.644741791964361
 20
1.073860600786777
 30
0.0
 11
19.645589150935361
 21
1.074707959757774
 31
0.0
  0
LINE
  5
34690
  8
0
 62
     0
 10
19.64985313637278
 20
1.081181653886403
 30
0.0
 11
19.69358916679905
 21
1.124917684312674
 31
0.0
  0
LINE
  5
34691
  8
0
 62
     0
 10
19.642804370150031
 20
1.0741328876636529
 30
0.0
 11
19.64564362172629
 21
1.0769721392399161
 31
0.0
  0
LINE
  5
34692
  8
0
 62
     0
 10
19.640866948335699
 20
1.0744051745405281
 30
0.0
 11
19.69358916679905
 21
1.127127393003881
 31
0.0
  0
LINE
  5
34693
  8
0
 62
     0
 10
19.76738412897733
 20
1.2031320638733709
 30
0.0
 11
19.77119321173933
 21
1.206941146635363
 31
0.0
  0
LINE
  5
34694
  8
0
 62
     0
 10
19.638929526521359
 20
1.0746774614174031
 30
0.0
 11
19.69358916679905
 21
1.1293371016950899
 31
0.0
  0
LINE
  5
34695
  8
0
 62
     0
 10
19.764530931360621
 20
1.202488574947872
 30
0.0
 11
19.771836700664831
 21
1.209794344252074
 31
0.0
  0
LINE
  5
34696
  8
0
 62
     0
 10
19.63699210470703
 20
1.07494974829428
 30
0.0
 11
19.69358916679905
 21
1.1315468103862989
 31
0.0
  0
LINE
  5
34697
  8
0
 62
     0
 10
19.76231877010105
 20
1.2024861223795
 30
0.0
 11
19.771839146181939
 21
1.2120064984604031
 31
0.0
  0
LINE
  5
34698
  8
0
 62
     0
 10
19.635054682892701
 20
1.0752220351711539
 30
0.0
 11
19.69358916679905
 21
1.133756519077507
 31
0.0
  0
LINE
  5
34699
  8
0
 62
     0
 10
19.760109061149521
 20
1.2024861221191829
 30
0.0
 11
19.771839146181939
 21
1.21421620715161
 31
0.0
  0
LINE
  5
3469A
  8
0
 62
     0
 10
19.633117261078372
 20
1.07549432204803
 30
0.0
 11
19.69358916679905
 21
1.135966227768715
 31
0.0
  0
LINE
  5
3469B
  8
0
 62
     0
 10
19.757899352197999
 20
1.2024861218588681
 30
0.0
 11
19.77183914618195
 21
1.216425915842819
 31
0.0
  0
LINE
  5
3469C
  8
0
 62
     0
 10
19.631179839264028
 20
1.0757666089249049
 30
0.0
 11
19.69358916679905
 21
1.138175936459922
 31
0.0
  0
LINE
  5
3469D
  8
0
 62
     0
 10
19.75568964324647
 20
1.2024861215985509
 30
0.0
 11
19.77183914618195
 21
1.2186356245340271
 31
0.0
  0
LINE
  5
3469E
  8
0
 62
     0
 10
19.629242417449699
 20
1.0760388958017799
 30
0.0
 11
19.69358916679905
 21
1.1403856451511301
 31
0.0
  0
LINE
  5
3469F
  8
0
 62
     0
 10
19.753479934294951
 20
1.2024861213382341
 30
0.0
 11
19.771839146181939
 21
1.2208453332252349
 31
0.0
  0
LINE
  5
346A0
  8
0
 62
     0
 10
19.62730499563537
 20
1.0763111826786551
 30
0.0
 11
19.69358916679905
 21
1.1425953538423379
 31
0.0
  0
LINE
  5
346A1
  8
0
 62
     0
 10
19.751270225343418
 20
1.2024861210779181
 30
0.0
 11
19.77183914618195
 21
1.2230550419164421
 31
0.0
  0
LINE
  5
346A2
  8
0
 62
     0
 10
19.62536757382103
 20
1.0765834695555301
 30
0.0
 11
19.69358916679905
 21
1.144805062533546
 31
0.0
  0
LINE
  5
346A3
  8
0
 62
     0
 10
19.7490605163919
 20
1.202486120817601
 30
0.0
 11
19.771839146181939
 21
1.2252647506076499
 31
0.0
  0
LINE
  5
346A4
  8
0
 62
     0
 10
19.623430152006701
 20
1.0768557564324051
 30
0.0
 11
19.69358916679905
 21
1.1470147712247529
 31
0.0
  0
LINE
  5
346A5
  8
0
 62
     0
 10
19.746850807440371
 20
1.2024861205572841
 30
0.0
 11
19.77183914618195
 21
1.227474459298858
 31
0.0
  0
LINE
  5
346A6
  8
0
 62
     0
 10
19.621492730192369
 20
1.07712804330928
 30
0.0
 11
19.69358916679905
 21
1.149224479915961
 31
0.0
  0
LINE
  5
346A7
  8
0
 62
     0
 10
19.744641098488849
 20
1.202486120296969
 30
0.0
 11
19.771839146181939
 21
1.2296841679900661
 31
0.0
  0
LINE
  5
346A8
  8
0
 62
     0
 10
19.61955530837804
 20
1.0774003301861561
 30
0.0
 11
19.69358916679905
 21
1.1514341886071691
 31
0.0
  0
LINE
  5
346A9
  8
0
 62
     0
 10
19.74243138953733
 20
1.202486120036651
 30
0.0
 11
19.77183914618195
 21
1.2318938766812739
 31
0.0
  0
LINE
  5
346AA
  8
0
 62
     0
 10
19.617617886563711
 20
1.0776726170630311
 30
0.0
 11
19.69358916679905
 21
1.1536438972983769
 31
0.0
  0
LINE
  5
346AB
  8
0
 62
     0
 10
19.740221680585801
 20
1.2024861197763379
 30
0.0
 11
19.77183914618195
 21
1.2341035853724831
 31
0.0
  0
LINE
  5
346AC
  8
0
 62
     0
 10
19.615680464749371
 20
1.0779449039399081
 30
0.0
 11
19.69358916679905
 21
1.1558536059895861
 31
0.0
  0
LINE
  5
346AD
  8
0
 62
     0
 10
19.738011971634279
 20
1.202486119516021
 30
0.0
 11
19.77183914618195
 21
1.2363132940636909
 31
0.0
  0
LINE
  5
346AE
  8
0
 62
     0
 10
19.613743042935042
 20
1.078217190816783
 30
0.0
 11
19.69358916679905
 21
1.1580633146807939
 31
0.0
  0
LINE
  5
346AF
  8
0
 62
     0
 10
19.73580226268275
 20
1.202486119255703
 30
0.0
 11
19.77183914618195
 21
1.238523002754899
 31
0.0
  0
LINE
  5
346B0
  8
0
 62
     0
 10
19.611805621120709
 20
1.078489477693658
 30
0.0
 11
19.69358916679905
 21
1.160273023372002
 31
0.0
  0
LINE
  5
346B1
  8
0
 62
     0
 10
19.733592553731231
 20
1.2024861189953879
 30
0.0
 11
19.77183914618195
 21
1.2407327114461071
 31
0.0
  0
LINE
  5
346B2
  8
0
 62
     0
 10
19.609868199306369
 20
1.078761764570533
 30
0.0
 11
19.69358916679905
 21
1.1624827320632101
 31
0.0
  0
LINE
  5
346B3
  8
0
 62
     0
 10
19.731382844779699
 20
1.2024861187350711
 30
0.0
 11
19.77183914618195
 21
1.2429424201373149
 31
0.0
  0
LINE
  5
346B4
  8
0
 62
     0
 10
19.60793077749204
 20
1.079034051447409
 30
0.0
 11
19.69358916679905
 21
1.1646924407544179
 31
0.0
  0
LINE
  5
346B5
  8
0
 62
     0
 10
19.660577169045549
 20
1.13389015169213
 30
0.0
 11
19.69358916679905
 21
1.1669021494456251
 31
0.0
  0
LINE
  5
346B6
  8
0
 62
     0
 10
19.72917313582818
 20
1.2024861184747531
 30
0.0
 11
19.771839146181939
 21
1.2451521288285221
 31
0.0
  0
LINE
  5
346B7
  8
0
 62
     0
 10
19.605993355677711
 20
1.079306338324284
 30
0.0
 11
19.65593512392056
 21
1.129248106567136
 31
0.0
  0
LINE
  5
346B8
  8
0
 62
     0
 10
19.660589144684788
 20
1.136111836022573
 30
0.0
 11
19.69358916679905
 21
1.1691118581368329
 31
0.0
  0
LINE
  5
346B9
  8
0
 62
     0
 10
19.726963426876651
 20
1.202486118214438
 30
0.0
 11
19.77183914618195
 21
1.24736183751973
 31
0.0
  0
LINE
  5
346BA
  8
0
 62
     0
 10
19.60408145326063
 20
1.0796041445984119
 30
0.0
 11
19.65371343668404
 21
1.129236128021823
 31
0.0
  0
LINE
  5
346BB
  8
0
 62
     0
 10
19.660589144684788
 20
1.1383215447137811
 30
0.0
 11
19.69358916679905
 21
1.171321566828041
 31
0.0
  0
LINE
  5
346BC
  8
0
 62
     0
 10
19.724753717925129
 20
1.20248611795412
 30
0.0
 11
19.77183914618195
 21
1.2495715462109389
 31
0.0
  0
LINE
  5
346BD
  8
0
 62
     0
 10
19.60232672564516
 20
1.080059125674153
 30
0.0
 11
19.651503727992829
 21
1.129236128021823
 31
0.0
  0
LINE
  5
346BE
  8
0
 62
     0
 10
19.660589144684788
 20
1.140531253404989
 30
0.0
 11
19.69358916679905
 21
1.1735312755192491
 31
0.0
  0
LINE
  5
346BF
  8
0
 62
     0
 10
19.72254400897361
 20
1.202486117693806
 30
0.0
 11
19.77183914618195
 21
1.2517812549021461
 31
0.0
  0
LINE
  5
346C0
  8
0
 62
     0
 10
19.600722169042179
 20
1.0806642777623729
 30
0.0
 11
19.649430188184251
 21
1.1293722969044511
 31
0.0
  0
LINE
  5
346C1
  8
0
 62
     0
 10
19.660589144684788
 20
1.142740962096197
 30
0.0
 11
19.69358916679905
 21
1.1757409842104569
 31
0.0
  0
LINE
  5
346C2
  8
0
 62
     0
 10
19.720334300022081
 20
1.2024861174334891
 30
0.0
 11
19.77183914618195
 21
1.2539909635933539
 31
0.0
  0
LINE
  5
346C3
  8
0
 62
     0
 10
19.599247729056909
 20
1.0813995464683179
 30
0.0
 11
19.647881135089978
 21
1.1300329525013839
 31
0.0
  0
LINE
  5
346C4
  8
0
 62
     0
 10
19.660589144684788
 20
1.1449506707874071
 30
0.0
 11
19.69358916679905
 21
1.1779506929016661
 31
0.0
  0
LINE
  5
346C5
  8
0
 62
     0
 10
19.718124591070559
 20
1.202486117173172
 30
0.0
 11
19.77183914618195
 21
1.256200672284564
 31
0.0
  0
LINE
  5
346C6
  8
0
 62
     0
 10
19.597890840313148
 20
1.0822523664157699
 30
0.0
 11
19.646714439288811
 21
1.13107596539142
 31
0.0
  0
LINE
  5
346C7
  8
0
 62
     0
 10
19.660589144684788
 20
1.147160379478614
 30
0.0
 11
19.69358916679905
 21
1.1801604015928739
 31
0.0
  0
LINE
  5
346C8
  8
0
 62
     0
 10
19.715914882119041
 20
1.2024861169128569
 30
0.0
 11
19.77183914618195
 21
1.2584103809757721
 31
0.0
  0
LINE
  5
346C9
  8
0
 62
     0
 10
19.596643857773241
 20
1.0832150925670609
 30
0.0
 11
19.645907988209888
 21
1.132479223003714
 31
0.0
  0
LINE
  5
346CA
  8
0
 62
     0
 10
19.660589144684788
 20
1.1493700881698219
 30
0.0
 11
19.69358916679905
 21
1.182370110284082
 31
0.0
  0
LINE
  5
346CB
  8
0
 62
     0
 10
19.713705173167511
 20
1.2024861166525409
 30
0.0
 11
19.77183914618195
 21
1.260620089666979
 31
0.0
  0
LINE
  5
346CC
  8
0
 62
     0
 10
19.595502763752449
 20
1.08428370723748
 30
0.0
 11
19.645589152814591
 21
1.134370096299627
 31
0.0
  0
LINE
  5
346CD
  8
0
 62
     0
 10
19.660589144684788
 20
1.15157979686103
 30
0.0
 11
19.69358916679905
 21
1.1845798189752901
 31
0.0
  0
LINE
  5
346CE
  8
0
 62
     0
 10
19.711495464215979
 20
1.2024861163922229
 30
0.0
 11
19.77183914618195
 21
1.2628297983581871
 31
0.0
  0
LINE
  5
346CF
  8
0
 62
     0
 10
19.59446656556042
 20
1.0854572177366559
 30
0.0
 11
19.645589149836141
 21
1.1365798020123741
 31
0.0
  0
LINE
  5
346D0
  8
0
 62
     0
 10
19.660589144684788
 20
1.153789505552238
 30
0.0
 11
19.69358916679905
 21
1.1867895276664979
 31
0.0
  0
LINE
  5
346D1
  8
0
 62
     0
 10
19.70928575526446
 20
1.2024861161319069
 30
0.0
 11
19.77183914618195
 21
1.2650395070493961
 31
0.0
  0
LINE
  5
346D2
  8
0
 62
     0
 10
19.593537154599531
 20
1.0867375154669769
 30
0.0
 11
19.643193727601851
 21
1.136394088469296
 31
0.0
  0
LINE
  5
346D3
  8
0
 62
     0
 10
19.660589144684788
 20
1.155999214243445
 30
0.0
 11
19.69358916679905
 21
1.1889992363577051
 31
0.0
  0
LINE
  5
346D4
  8
0
 62
     0
 10
19.707076046312942
 20
1.20248611587159
 30
0.0
 11
19.771668207741051
 21
1.2670782772997069
 31
0.0
  0
LINE
  5
346D5
  8
0
 62
     0
 10
19.592719577517009
 20
1.088129647075663
 30
0.0
 11
19.640622679900591
 21
1.136032749459243
 31
0.0
  0
LINE
  5
346D6
  8
0
 62
     0
 10
19.660589144684788
 20
1.1582089229346531
 30
0.0
 11
19.69358916679905
 21
1.1912089450489129
 31
0.0
  0
LINE
  5
346D7
  8
0
 62
     0
 10
19.704866337361409
 20
1.2024861156112749
 30
0.0
 11
19.771104221490049
 21
1.2687239997399109
 31
0.0
  0
LINE
  5
346D8
  8
0
 62
     0
 10
19.592022815921261
 20
1.089642594171123
 30
0.0
 11
19.638051632199328
 21
1.135671410449189
 31
0.0
  0
LINE
  5
346D9
  8
0
 62
     0
 10
19.660589144684788
 20
1.1604186316258609
 30
0.0
 11
19.69358916679905
 21
1.193418653740121
 31
0.0
  0
LINE
  5
346DA
  8
0
 62
     0
 10
19.702656628409891
 20
1.202486115350957
 30
0.0
 11
19.77026012388669
 21
1.2700896108277611
 31
0.0
  0
LINE
  5
346DB
  8
0
 62
     0
 10
19.591461384652131
 20
1.0912908715931979
 30
0.0
 11
19.635480584498069
 21
1.135310071439138
 31
0.0
  0
LINE
  5
346DC
  8
0
 62
     0
 10
19.700416721926011
 20
1.202455917558287
 30
0.0
 11
19.73389633802088
 21
1.235935533653153
 31
0.0
  0
LINE
  5
346DD
  8
0
 62
     0
 10
19.660589144684788
 20
1.1626283403170681
 30
0.0
 11
19.693619358054399
 21
1.1956585536866819
 31
0.0
  0
LINE
  5
346DE
  8
0
 62
     0
 10
19.738389741959541
 20
1.2404289375918141
 30
0.0
 11
19.769177544052731
 21
1.2712167396850069
 31
0.0
  0
LINE
  5
346DF
  8
0
 62
     0
 10
19.591058525113858
 20
1.093097720746137
 30
0.0
 11
19.632909536796809
 21
1.134948732429085
 31
0.0
  0
LINE
  5
346E0
  8
0
 62
     0
 10
19.697068331516679
 20
1.2013172358401649
 30
0.0
 11
19.731237218285631
 21
1.2354861226091181
 31
0.0
  0
LINE
  5
346E1
  8
0
 62
     0
 10
19.660589144684788
 20
1.164838049008277
 30
0.0
 11
19.69475803977253
 21
1.1990069440960101
 31
0.0
  0
LINE
  5
346E2
  8
0
 62
     0
 10
19.738839153030248
 20
1.24308805735374
 30
0.0
 11
19.767859625309772
 21
1.272108529633259
 31
0.0
  0
LINE
  5
346E3
  8
0
 62
     0
 10
19.590853063459011
 20
1.095101967782492
 30
0.0
 11
19.63033848909555
 21
1.1345873934190329
 31
0.0
  0
LINE
  5
346E4
  8
0
 62
     0
 10
19.660589144684788
 20
1.167047757699484
 30
0.0
 11
19.729027509412461
 21
1.2354861224271509
 31
0.0
  0
LINE
  5
346E5
  8
0
 62
     0
 10
19.738839153790629
 20
1.245297766805328
 30
0.0
 11
19.766273713757801
 21
1.2727323267724979
 31
0.0
  0
LINE
  5
346E6
  8
0
 62
     0
 10
19.59083915299518
 20
1.0972977660098751
 30
0.0
 11
19.62776744139429
 21
1.1342260544089819
 31
0.0
  0
LINE
  5
346E7
  8
0
 62
     0
 10
19.660589144684788
 20
1.1692574663906941
 30
0.0
 11
19.72681780053928
 21
1.2354861222451869
 31
0.0
  0
LINE
  5
346E8
  8
0
 62
     0
 10
19.73883915455102
 20
1.24750747625692
 30
0.0
 11
19.76431779403713
 21
1.2729861157430311
 31
0.0
  0
LINE
  5
346E9
  8
0
 62
     0
 10
19.59083915299518
 20
1.099507474701084
 30
0.0
 11
19.62519639369302
 21
1.1338647153989301
 31
0.0
  0
LINE
  5
346EA
  8
0
 62
     0
 10
19.660589144684788
 20
1.171467175081901
 30
0.0
 11
19.724608091666109
 21
1.2354861220632209
 31
0.0
  0
LINE
  5
346EB
  8
0
 62
     0
 10
19.7388391553114
 20
1.2497171857085081
 30
0.0
 11
19.762108085345918
 21
1.2729861157430311
 31
0.0
  0
LINE
  5
346EC
  8
0
 62
     0
 10
19.59083915299518
 20
1.1017171833922921
 30
0.0
 11
19.622625345991771
 21
1.1335033763888791
 31
0.0
  0
LINE
  5
346ED
  8
0
 62
     0
 10
19.660589144684788
 20
1.1736768837731091
 30
0.0
 11
19.722398382792939
 21
1.2354861218812541
 31
0.0
  0
LINE
  5
346EE
  8
0
 62
     0
 10
19.73883915607178
 20
1.251926895160097
 30
0.0
 11
19.759898376654711
 21
1.2729861157430311
 31
0.0
  0
LINE
  5
346EF
  8
0
 62
     0
 10
19.59083915299518
 20
1.1039268920834999
 30
0.0
 11
19.620054298290508
 21
1.133142037378825
 31
0.0
  0
LINE
  5
346F0
  8
0
 62
     0
 10
19.660589144684788
 20
1.1758865924643169
 30
0.0
 11
19.720188673919761
 21
1.2354861216992881
 31
0.0
  0
LINE
  5
346F1
  8
0
 62
     0
 10
19.73883915683216
 20
1.2541366046116871
 30
0.0
 11
19.7576886679635
 21
1.2729861157430311
 31
0.0
  0
LINE
  5
346F2
  8
0
 62
     0
 10
19.59083915299518
 20
1.106136600774708
 30
0.0
 11
19.617483250589249
 21
1.132780698368772
 31
0.0
  0
LINE
  5
346F3
  8
0
 62
     0
 10
19.660589144684788
 20
1.178096301155525
 30
0.0
 11
19.717978965046591
 21
1.2354861215173221
 31
0.0
  0
LINE
  5
346F4
  8
0
 62
     0
 10
19.73883915759254
 20
1.256346314063276
 30
0.0
 11
19.755478959272299
 21
1.2729861157430311
 31
0.0
  0
LINE
  5
346F5
  8
0
 62
     0
 10
19.59083915299518
 20
1.1083463094659161
 30
0.0
 11
19.614912202887979
 21
1.1324193593587211
 31
0.0
  0
LINE
  5
346F6
  8
0
 62
     0
 10
19.660493349613219
 20
1.1802102147751641
 30
0.0
 11
19.715769256173409
 21
1.2354861213353541
 31
0.0
  0
LINE
  5
346F7
  8
0
 62
     0
 10
19.738839158352921
 20
1.258556023514865
 30
0.0
 11
19.753269250581091
 21
1.2729861157430311
 31
0.0
  0
LINE
  5
346F8
  8
0
 62
     0
 10
19.59083915299518
 20
1.110556018157123
 30
0.0
 11
19.61234115518673
 21
1.132058020348669
 31
0.0
  0
LINE
  5
346F9
  8
0
 62
     0
 10
19.659878645209421
 20
1.1818052190625681
 30
0.0
 11
19.713559547300239
 21
1.2354861211533881
 31
0.0
  0
LINE
  5
346FA
  8
0
 62
     0
 10
19.738839159113301
 20
1.2607657329664539
 30
0.0
 11
19.75105954188988
 21
1.2729861157430311
 31
0.0
  0
LINE
  5
346FB
  8
0
 62
     0
 10
19.59083915299518
 20
1.1127657268483311
 30
0.0
 11
19.60977010748546
 21
1.131696681338616
 31
0.0
  0
LINE
  5
346FC
  8
0
 62
     0
 10
19.658871555254422
 20
1.1830078377987749
 30
0.0
 11
19.711349838427061
 21
1.235486120971421
 31
0.0
  0
LINE
  5
346FD
  8
0
 62
     0
 10
19.738839159873692
 20
1.262975442418043
 30
0.0
 11
19.748849833198669
 21
1.2729861157430311
 31
0.0
  0
LINE
  5
346FE
  8
0
 62
     0
 10
19.59084161464164
 20
1.1149778971859929
 30
0.0
 11
19.607199059784211
 21
1.1313353423285639
 31
0.0
  0
LINE
  5
346FF
  8
0
 62
     0
 10
19.657507488663359
 20
1.183853479898924
 30
0.0
 11
19.709140129553891
 21
1.2354861207894541
 31
0.0
  0
LINE
  5
34700
  8
0
 62
     0
 10
19.738839160634068
 20
1.265185151869632
 30
0.0
 11
19.746640124507461
 21
1.2729861157430311
 31
0.0
  0
LINE
  5
34701
  8
0
 62
     0
 10
19.59106448815168
 20
1.117410479387249
 30
0.0
 11
19.604621565051481
 21
1.130967556287044
 31
0.0
  0
LINE
  5
34702
  8
0
 62
     0
 10
19.655679604476742
 20
1.1842353044035141
 30
0.0
 11
19.70693042068072
 21
1.235486120607489
 31
0.0
  0
LINE
  5
34703
  8
0
 62
     0
 10
19.739186533666089
 20
1.2677422335928601
 30
0.0
 11
19.744083042019831
 21
1.272638741946605
 31
0.0
  0
LINE
  5
34704
  8
0
 62
     0
 10
19.591865369431421
 20
1.1204210693581951
 30
0.0
 11
19.601610975080529
 21
1.1301666750073061
 31
0.0
  0
LINE
  5
34705
  8
0
 62
     0
 10
19.65347070737262
 20
1.184236115990605
 30
0.0
 11
19.704720711807539
 21
1.2354861204255241
 31
0.0
  0
LINE
  5
34706
  8
0
 62
     0
 10
19.651260998681408
 20
1.1842361159906041
 30
0.0
 11
19.702511002934369
 21
1.2354861202435581
 31
0.0
  0
LINE
  5
34707
  8
0
 62
     0
 10
19.6439909897117
 20
1.176966107020893
 30
0.0
 11
19.645589152089588
 21
1.1785642693987799
 31
0.0
  0
LINE
  5
34708
  8
0
 62
     0
 10
19.648667113255492
 20
1.1838519392558851
 30
0.0
 11
19.700301294061191
 21
1.235486120061591
 31
0.0
  0
LINE
  5
34709
  8
0
 62
     0
 10
19.642053569021499
 20
1.177238395021903
 30
0.0
 11
19.645973336356811
 21
1.1811581623572109
 31
0.0
  0
LINE
  5
3470A
  8
0
 62
     0
 10
19.640116148331298
 20
1.177510683022911
 30
0.0
 11
19.698091585188021
 21
1.2354861198796261
 31
0.0
  0
LINE
  5
3470B
  8
0
 62
     0
 10
19.638178727641112
 20
1.1777829710239209
 30
0.0
 11
19.695881876314839
 21
1.2354861196976581
 31
0.0
  0
LINE
  5
3470C
  8
0
 62
     0
 10
19.636241306950911
 20
1.1780552590249289
 30
0.0
 11
19.693672167441669
 21
1.2354861195156941
 31
0.0
  0
LINE
  5
3470D
  8
0
 62
     0
 10
19.63430388626071
 20
1.178327547025936
 30
0.0
 11
19.691462458568498
 21
1.2354861193337261
 31
0.0
  0
LINE
  5
3470E
  8
0
 62
     0
 10
19.632366465570509
 20
1.1785998350269451
 30
0.0
 11
19.689252749695321
 21
1.2354861191517601
 31
0.0
  0
LINE
  5
3470F
  8
0
 62
     0
 10
19.630429044880309
 20
1.178872123027954
 30
0.0
 11
19.68704304082215
 21
1.2354861189697941
 31
0.0
  0
LINE
  5
34710
  8
0
 62
     0
 10
19.628491624190112
 20
1.1791444110289631
 30
0.0
 11
19.684479278398619
 21
1.235132065237474
 31
0.0
  0
LINE
  5
34711
  8
0
 62
     0
 10
19.626554203499911
 20
1.179416699029971
 30
0.0
 11
19.679723281571459
 21
1.2325857771015241
 31
0.0
  0
LINE
  5
34712
  8
0
 62
     0
 10
19.62461678280971
 20
1.1796889870309819
 30
0.0
 11
19.674495059633429
 21
1.2295672638546971
 31
0.0
  0
LINE
  5
34713
  8
0
 62
     0
 10
19.622679362119509
 20
1.1799612750319901
 30
0.0
 11
19.669266837695389
 21
1.2265487506078721
 31
0.0
  0
LINE
  5
34714
  8
0
 62
     0
 10
19.620741941429308
 20
1.1802335630330001
 30
0.0
 11
19.664038615757359
 21
1.2235302373610459
 31
0.0
  0
LINE
  5
34715
  8
0
 62
     0
 10
19.618804520739111
 20
1.1805058510340061
 30
0.0
 11
19.658810393819319
 21
1.2205117241142169
 31
0.0
  0
LINE
  5
34716
  8
0
 62
     0
 10
19.616867100048911
 20
1.1807781390350149
 30
0.0
 11
19.65382835488203
 21
1.2177393938681249
 31
0.0
  0
LINE
  5
34717
  8
0
 62
     0
 10
19.61492967935871
 20
1.1810504270360249
 30
0.0
 11
19.651115372094431
 21
1.2172361197717421
 31
0.0
  0
LINE
  5
34718
  8
0
 62
     0
 10
19.61299225866852
 20
1.181322715037032
 30
0.0
 11
19.64890566340322
 21
1.2172361197717421
 31
0.0
  0
LINE
  5
34719
  8
0
 62
     0
 10
19.611054837978319
 20
1.181595003038042
 30
0.0
 11
19.646695954712019
 21
1.2172361197717421
 31
0.0
  0
LINE
  5
3471A
  8
0
 62
     0
 10
19.609117417288122
 20
1.18186729103905
 30
0.0
 11
19.644486246020811
 21
1.2172361197717421
 31
0.0
  0
LINE
  5
3471B
  8
0
 62
     0
 10
19.607179996597921
 20
1.1821395790400591
 30
0.0
 11
19.6422765373296
 21
1.2172361197717421
 31
0.0
  0
LINE
  5
3471C
  8
0
 62
     0
 10
19.605254853074339
 20
1.1824241442076919
 30
0.0
 11
19.640066828638389
 21
1.2172361197717441
 31
0.0
  0
LINE
  5
3471D
  8
0
 62
     0
 10
19.603467079214969
 20
1.182846079039529
 30
0.0
 11
19.637857119947189
 21
1.2172361197717441
 31
0.0
  0
LINE
  5
3471E
  8
0
 62
     0
 10
19.601826128593292
 20
1.1834148371090549
 30
0.0
 11
19.635647411255981
 21
1.2172361197717441
 31
0.0
  0
LINE
  5
3471F
  8
0
 62
     0
 10
19.600312017645969
 20
1.184110434852943
 30
0.0
 11
19.63343770256477
 21
1.2172361197717441
 31
0.0
  0
LINE
  5
34720
  8
0
 62
     0
 10
19.598911892337679
 20
1.184920018235859
 30
0.0
 11
19.631227993873559
 21
1.2172361197717441
 31
0.0
  0
LINE
  5
34721
  8
0
 62
     0
 10
19.597617548445282
 20
1.185835383034664
 30
0.0
 11
19.629018285182351
 21
1.2172361197717441
 31
0.0
  0
LINE
  5
34722
  8
0
 62
     0
 10
19.59642413544557
 20
1.186851678726164
 30
0.0
 11
19.62680857649115
 21
1.2172361197717421
 31
0.0
  0
LINE
  5
34723
  8
0
 62
     0
 10
19.59532948882789
 20
1.187966740799697
 30
0.0
 11
19.624598867799939
 21
1.2172361197717421
 31
0.0
  0
LINE
  5
34724
  8
0
 62
     0
 10
19.59433385488185
 20
1.18918081554486
 30
0.0
 11
19.622389159108732
 21
1.2172361197717421
 31
0.0
  0
LINE
  5
34725
  8
0
 62
     0
 10
19.593439921317479
 20
1.1904965906717
 30
0.0
 11
19.62017945041752
 21
1.2172361197717421
 31
0.0
  0
LINE
  5
34726
  8
0
 62
     0
 10
19.592653163040769
 20
1.1919195410861949
 30
0.0
 11
19.617969741726309
 21
1.2172361197717421
 31
0.0
  0
LINE
  5
34727
  8
0
 62
     0
 10
19.59198261384898
 20
1.1934587005856141
 30
0.0
 11
19.615760033035109
 21
1.2172361197717441
 31
0.0
  0
LINE
  5
34728
  8
0
 62
     0
 10
19.591442346105708
 20
1.1951281415335591
 30
0.0
 11
19.613550324343901
 21
1.2172361197717441
 31
0.0
  0
LINE
  5
34729
  8
0
 62
     0
 10
19.591054324128859
 20
1.196949828247909
 30
0.0
 11
19.61134061565269
 21
1.2172361197717441
 31
0.0
  0
LINE
  5
3472A
  8
0
 62
     0
 10
19.590854335300669
 20
1.1989595481109341
 30
0.0
 11
19.609130906961479
 21
1.2172361197717441
 31
0.0
  0
LINE
  5
3472B
  8
0
 62
     0
 10
19.590906136716931
 20
1.2012210582183971
 30
0.0
 11
19.606854217394289
 21
1.2171691388957619
 31
0.0
  0
LINE
  5
3472C
  8
0
 62
     0
 10
19.591344178090619
 20
1.2038688082832989
 30
0.0
 11
19.604206467329391
 21
1.2167310975220671
 31
0.0
  0
LINE
  5
3472D
  8
0
 62
     0
 10
19.592584820721989
 20
1.2073191596058761
 30
0.0
 11
19.60075611600681
 21
1.215490454890698
 31
0.0
  0
LINE
  5
3472E
  8
0
 62
     0
 10
19.129601880368259
 20
0.9166934971663716
 30
0.0
 11
19.139631778446319
 21
0.9267233952444255
 31
0.0
  0
LINE
  5
3472F
  8
0
 62
     0
 10
19.126498471891381
 20
0.915799797380691
 30
0.0
 11
19.140525478232
 21
0.9298268037213137
 31
0.0
  0
LINE
  5
34730
  8
0
 62
     0
 10
19.12399359985227
 20
0.9155046340327883
 30
0.0
 11
19.1408206415799
 21
0.932331675760424
 31
0.0
  0
LINE
  5
34731
  8
0
 62
     0
 10
19.121765379695951
 20
0.9154861225676791
 30
0.0
 11
19.140786149208321
 21
0.934506892080047
 31
0.0
  0
LINE
  5
34732
  8
0
 62
     0
 10
19.119555670927191
 20
0.915486122490127
 30
0.0
 11
19.140525012316701
 21
0.9364554638796409
 31
0.0
  0
LINE
  5
34733
  8
0
 62
     0
 10
19.117345962158431
 20
0.9154861224125747
 30
0.0
 11
19.140089521607731
 21
0.9382296818618698
 31
0.0
  0
LINE
  5
34734
  8
0
 62
     0
 10
19.115136253389672
 20
0.9154861223350234
 30
0.0
 11
19.13951010313794
 21
0.9398599720832985
 31
0.0
  0
LINE
  5
34735
  8
0
 62
     0
 10
19.112926544620908
 20
0.9154861222574712
 30
0.0
 11
19.138805800493689
 21
0.9413653781302517
 31
0.0
  0
LINE
  5
34736
  8
0
 62
     0
 10
19.110716835852148
 20
0.915486122179919
 30
0.0
 11
19.13798890950218
 21
0.9427581958299535
 31
0.0
  0
LINE
  5
34737
  8
0
 62
     0
 10
19.108507127083389
 20
0.9154861221023677
 30
0.0
 11
19.13706728022537
 21
0.9440462752443385
 31
0.0
  0
LINE
  5
34738
  8
0
 62
     0
 10
19.106297418314629
 20
0.9154861220248156
 30
0.0
 11
19.136045527680629
 21
0.9452342313908133
 31
0.0
  0
LINE
  5
34739
  8
0
 62
     0
 10
19.104087709545869
 20
0.915486121947266
 30
0.0
 11
19.134925654983888
 21
0.9463240673852855
 31
0.0
  0
LINE
  5
3473A
  8
0
 62
     0
 10
19.101878000777109
 20
0.9154861218697156
 30
0.0
 11
19.133707304143211
 21
0.9473154252358169
 31
0.0
  0
LINE
  5
3473B
  8
0
 62
     0
 10
19.09966829200836
 20
0.9154861217921634
 30
0.0
 11
19.132387712097351
 21
0.9482055418811645
 31
0.0
  0
LINE
  5
3473C
  8
0
 62
     0
 10
19.0974585832396
 20
0.9154861217146121
 30
0.0
 11
19.130961358784582
 21
0.9489888972595963
 31
0.0
  0
LINE
  5
3473D
  8
0
 62
     0
 10
19.09524887447084
 20
0.91548612163706
 30
0.0
 11
19.129419195560381
 21
0.9496564427266029
 31
0.0
  0
LINE
  5
3473E
  8
0
 62
     0
 10
19.09303916570207
 20
0.9154861215595078
 30
0.0
 11
19.12774717401339
 21
0.9501941298708249
 31
0.0
  0
LINE
  5
3473F
  8
0
 62
     0
 10
19.09082945693331
 20
0.9154861214819556
 30
0.0
 11
19.125923417604689
 21
0.9505800821533298
 31
0.0
  0
LINE
  5
34740
  8
0
 62
     0
 10
19.088619748164561
 20
0.9154861214044043
 30
0.0
 11
19.123988021068151
 21
0.9508543943079965
 31
0.0
  0
LINE
  5
34741
  8
0
 62
     0
 10
19.086410039395801
 20
0.9154861213268521
 30
0.0
 11
19.122050598787169
 21
0.9511266807182297
 31
0.0
  0
LINE
  5
34742
  8
0
 62
     0
 10
19.05106729472849
 20
0.8801433766595456
 30
0.0
 11
19.058483045287169
 21
0.8875591272182319
 31
0.0
  0
LINE
  5
34743
  8
0
 62
     0
 10
19.084200330627041
 20
0.9154861212493003
 30
0.0
 11
19.120113176506202
 21
0.9513989671284615
 31
0.0
  0
LINE
  5
34744
  8
0
 62
     0
 10
19.045839067136761
 20
0.8771248577590181
 30
0.0
 11
19.058589144529599
 21
0.8898749351518691
 31
0.0
  0
LINE
  5
34745
  8
0
 62
     0
 10
19.081990621858271
 20
0.9154861211717499
 30
0.0
 11
19.11817575422522
 21
0.9516712535386948
 31
0.0
  0
LINE
  5
34746
  8
0
 62
     0
 10
19.040610839545021
 20
0.8741063388584922
 30
0.0
 11
19.058589145562468
 21
0.8920846448759449
 31
0.0
  0
LINE
  5
34747
  8
0
 62
     0
 10
19.079780913089522
 20
0.9154861210941977
 30
0.0
 11
19.116238331944238
 21
0.951943539948925
 31
0.0
  0
LINE
  5
34748
  8
0
 62
     0
 10
19.035382611953281
 20
0.8710878199579643
 30
0.0
 11
19.058589146595342
 21
0.8942943546000204
 31
0.0
  0
LINE
  5
34749
  8
0
 62
     0
 10
19.077571204320758
 20
0.9154861210166465
 30
0.0
 11
19.114300909663271
 21
0.9522158263591581
 31
0.0
  0
LINE
  5
3474A
  8
0
 62
     0
 10
19.03164446145011
 20
0.8695593781460026
 30
0.0
 11
19.058589147628211
 21
0.896504064324095
 31
0.0
  0
LINE
  5
3474B
  8
0
 62
     0
 10
19.075361495551999
 20
0.9154861209390944
 30
0.0
 11
19.112363487382289
 21
0.9524881127693888
 31
0.0
  0
LINE
  5
3474C
  8
0
 62
     0
 10
19.029361497069299
 20
0.869486122456395
 30
0.0
 11
19.058589148661081
 21
0.8987137740481724
 31
0.0
  0
LINE
  5
3474D
  8
0
 62
     0
 10
19.073151786783239
 20
0.9154861208615422
 30
0.0
 11
19.110426065101318
 21
0.9527603991796209
 31
0.0
  0
LINE
  5
3474E
  8
0
 62
     0
 10
19.02715178809034
 20
0.8694861221686466
 30
0.0
 11
19.05858914969394
 21
0.9009234837722463
 31
0.0
  0
LINE
  5
3474F
  8
0
 62
     0
 10
19.070942078014479
 20
0.9154861207839907
 30
0.0
 11
19.10848864282034
 21
0.953032685589854
 31
0.0
  0
LINE
  5
34750
  8
0
 62
     0
 10
19.024942079111391
 20
0.8694861218808981
 30
0.0
 11
19.05858915072681
 21
0.9031331934963212
 31
0.0
  0
LINE
  5
34751
  8
0
 62
     0
 10
19.022732370132431
 20
0.8694861215931496
 30
0.0
 11
19.05858915175968
 21
0.9053429032203986
 31
0.0
  0
LINE
  5
34752
  8
0
 62
     0
 10
19.068732369245719
 20
0.9154861207064396
 30
0.0
 11
19.106551220539359
 21
0.9533049720000854
 31
0.0
  0
LINE
  5
34753
  8
0
 62
     0
 10
18.988373679807442
 20
0.8351274312681628
 30
0.0
 11
18.992197844344538
 21
0.8389515958052553
 31
0.0
  0
LINE
  5
34754
  8
0
 62
     0
 10
19.020522661153471
 20
0.8694861213053993
 30
0.0
 11
19.058589152792539
 21
0.9075526129444732
 31
0.0
  0
LINE
  5
34755
  8
0
 62
     0
 10
19.066522660476959
 20
0.9154861206288892
 30
0.0
 11
19.104613798258391
 21
0.9535772584103177
 31
0.0
  0
LINE
  5
34756
  8
0
 62
     0
 10
18.985524964547761
 20
0.8344884246996912
 30
0.0
 11
18.992836850913001
 21
0.8418003110649333
 31
0.0
  0
LINE
  5
34757
  8
0
 62
     0
 10
19.018312952174519
 20
0.8694861210176508
 30
0.0
 11
19.058879471769512
 21
0.9100526406126409
 31
0.0
  0
LINE
  5
34758
  8
0
 62
     0
 10
19.06402263500005
 20
0.9151958038431896
 30
0.0
 11
19.10267637597741
 21
0.953849544820548
 31
0.0
  0
LINE
  5
34759
  8
0
 62
     0
 10
18.983312967489081
 20
0.8344861363322117
 30
0.0
 11
18.99283914603669
 21
0.8440123148798278
 31
0.0
  0
LINE
  5
3475A
  8
0
 62
     0
 10
19.016103243195559
 20
0.8694861207299013
 30
0.0
 11
19.100738953696439
 21
0.9541218312307812
 31
0.0
  0
LINE
  5
3475B
  8
0
 62
     0
 10
18.981103258797869
 20
0.8344861363322127
 30
0.0
 11
18.99283914689217
 21
0.8462220244265154
 31
0.0
  0
LINE
  5
3475C
  8
0
 62
     0
 10
19.013893534216599
 20
0.8694861204421528
 30
0.0
 11
19.098801531415461
 21
0.9543941176410118
 31
0.0
  0
LINE
  5
3475D
  8
0
 62
     0
 10
18.978893550106658
 20
0.8344861363322117
 30
0.0
 11
18.992839147747649
 21
0.8484317339732033
 31
0.0
  0
LINE
  5
3475E
  8
0
 62
     0
 10
19.01168382523764
 20
0.8694861201544036
 30
0.0
 11
19.096864109134479
 21
0.954666404051245
 31
0.0
  0
LINE
  5
3475F
  8
0
 62
     0
 10
18.976683841415451
 20
0.8344861363322127
 30
0.0
 11
18.992839148603132
 21
0.8506414435198919
 31
0.0
  0
LINE
  5
34760
  8
0
 62
     0
 10
19.009474116258691
 20
0.869486119866654
 30
0.0
 11
19.094926686853508
 21
0.9549386904614781
 31
0.0
  0
LINE
  5
34761
  8
0
 62
     0
 10
18.97447413272425
 20
0.8344861363322134
 30
0.0
 11
18.992839149458611
 21
0.8528511530665788
 31
0.0
  0
LINE
  5
34762
  8
0
 62
     0
 10
19.007264407279731
 20
0.8694861195789055
 30
0.0
 11
19.09298926457253
 21
0.9552109768717084
 31
0.0
  0
LINE
  5
34763
  8
0
 62
     0
 10
18.972264424033039
 20
0.8344861363322127
 30
0.0
 11
18.99283915031409
 21
0.8550608626132675
 31
0.0
  0
LINE
  5
34764
  8
0
 62
     0
 10
19.005054698300771
 20
0.869486119291157
 30
0.0
 11
19.091051842291559
 21
0.9554832632819408
 31
0.0
  0
LINE
  5
34765
  8
0
 62
     0
 10
18.970054715341831
 20
0.8344861363322127
 30
0.0
 11
18.992839151169569
 21
0.857270572159955
 31
0.0
  0
LINE
  5
34766
  8
0
 62
     0
 10
19.002844989321812
 20
0.869486119003406
 30
0.0
 11
19.081913399027421
 21
0.9485545287090154
 31
0.0
  0
LINE
  5
34767
  8
0
 62
     0
 10
19.086020746903671
 20
0.9526618765852695
 30
0.0
 11
19.089114420010581
 21
0.9557555496921723
 31
0.0
  0
LINE
  5
34768
  8
0
 62
     0
 10
18.96784500665062
 20
0.8344861363322134
 30
0.0
 11
18.992839152025049
 21
0.859480281706643
 31
0.0
  0
LINE
  5
34769
  8
0
 62
     0
 10
19.000635280342859
 20
0.8694861187156593
 30
0.0
 11
19.079635284244709
 21
0.948486122617513
 31
0.0
  0
LINE
  5
3476A
  8
0
 62
     0
 10
19.086089154950638
 20
0.954939993323444
 30
0.0
 11
19.087135274381321
 21
0.9559861127541186
 31
0.0
  0
LINE
  5
3476B
  8
0
 62
     0
 10
18.965795798167601
 20
0.834646636540397
 30
0.0
 11
18.992839152880531
 21
0.8616899912533316
 31
0.0
  0
LINE
  5
3476C
  8
0
 62
     0
 10
18.998075955880442
 20
0.8691365029444529
 30
0.0
 11
19.077425575553502
 21
0.948486122617513
 31
0.0
  0
LINE
  5
3476D
  8
0
 62
     0
 10
19.132336425143482
 20
1.0033969722074909
 30
0.0
 11
19.13877153457917
 21
1.0098320816431801
 31
0.0
  0
LINE
  5
3476E
  8
0
 62
     0
 10
18.964141433167999
 20
0.835201980232005
 30
0.0
 11
18.99318877266824
 21
0.8642493197322455
 31
0.0
  0
LINE
  5
3476F
  8
0
 62
     0
 10
19.12862559946754
 20
1.0018958552227579
 30
0.0
 11
19.140272651563901
 21
1.01354290731912
 31
0.0
  0
LINE
  5
34770
  8
0
 62
     0
 10
18.962769072448651
 20
0.8360393282038632
 30
0.0
 11
19.075215866862301
 21
0.948486122617513
 31
0.0
  0
LINE
  5
34771
  8
0
 62
     0
 10
19.125907694118212
 20
1.001387658564634
 30
0.0
 11
19.140762683847729
 21
1.0162426482941549
 31
0.0
  0
LINE
  5
34772
  8
0
 62
     0
 10
18.961635734938209
 20
0.8371156993846295
 30
0.0
 11
19.07300615817109
 21
0.9484861226175138
 31
0.0
  0
LINE
  5
34773
  8
0
 62
     0
 10
19.123336647476719
 20
1.001026320614349
 30
0.0
 11
19.140839152995181
 21
1.0185288261328109
 31
0.0
  0
LINE
  5
34774
  8
0
 62
     0
 10
18.96073739880962
 20
0.8384270719472525
 30
0.0
 11
19.070796449479879
 21
0.9484861226175138
 31
0.0
  0
LINE
  5
34775
  8
0
 62
     0
 10
19.120765600835231
 20
1.0006649826640639
 30
0.0
 11
19.140839152995181
 21
1.020738534824019
 31
0.0
  0
LINE
  5
34776
  8
0
 62
     0
 10
18.960105557012259
 20
0.840004938841101
 30
0.0
 11
19.068586740788671
 21
0.9484861226175138
 31
0.0
  0
LINE
  5
34777
  8
0
 62
     0
 10
19.025026216543971
 20
0.9071353070640157
 30
0.0
 11
19.066377032097471
 21
0.9484861226175148
 31
0.0
  0
LINE
  5
34778
  8
0
 62
     0
 10
19.118194554193732
 20
1.000303644713777
 30
0.0
 11
19.140839152995181
 21
1.0229482435152271
 31
0.0
  0
LINE
  5
34779
  8
0
 62
     0
 10
18.959839248170791
 20
0.8419483386908379
 30
0.0
 11
19.020939968548671
 21
0.9030490590687247
 31
0.0
  0
LINE
  5
3477A
  8
0
 62
     0
 10
19.025588741307459
 20
0.9099075405187196
 30
0.0
 11
19.064167323406259
 21
0.9484861226175148
 31
0.0
  0
LINE
  5
3477B
  8
0
 62
     0
 10
19.11562350755224
 20
0.9999423067634932
 30
0.0
 11
19.140839152995181
 21
1.0251579522064349
 31
0.0
  0
LINE
  5
3477C
  8
0
 62
     0
 10
18.959839159808411
 20
0.8441579590196685
 30
0.0
 11
19.018167735093972
 21
0.9024865343052287
 31
0.0
  0
LINE
  5
3477D
  8
0
 62
     0
 10
19.025589140259029
 20
0.9121176481614896
 30
0.0
 11
19.062164788286299
 21
0.9486932961887649
 31
0.0
  0
LINE
  5
3477E
  8
0
 62
     0
 10
19.11305246091074
 20
0.9995809688132059
 30
0.0
 11
19.140839152995181
 21
1.027367660897643
 31
0.0
  0
LINE
  5
3477F
  8
0
 62
     0
 10
18.959839159808411
 20
0.8463676677108761
 30
0.0
 11
19.015957632118958
 21
0.9024861400214284
 31
0.0
  0
LINE
  5
34780
  8
0
 62
     0
 10
19.025589140259029
 20
0.9143273568526982
 30
0.0
 11
19.060680790577958
 21
0.9494190071716325
 31
0.0
  0
LINE
  5
34781
  8
0
 62
     0
 10
19.110481414269248
 20
0.9992196308629214
 30
0.0
 11
19.140839152995181
 21
1.029577369588851
 31
0.0
  0
LINE
  5
34782
  8
0
 62
     0
 10
18.959839159808411
 20
0.8485773764020838
 30
0.0
 11
19.01374792263675
 21
0.9024861392304202
 31
0.0
  0
LINE
  5
34783
  8
0
 62
     0
 10
19.025589140259029
 20
0.9165370655439058
 30
0.0
 11
19.05956740957776
 21
0.9505153348626432
 31
0.0
  0
LINE
  5
34784
  8
0
 62
     0
 10
19.10791036762776
 20
0.9988582929126362
 30
0.0
 11
19.140839152995181
 21
1.031787078280058
 31
0.0
  0
LINE
  5
34785
  8
0
 62
     0
 10
18.959839159808411
 20
0.8507870850932913
 30
0.0
 11
19.01153821315453
 21
0.9024861384394128
 31
0.0
  0
LINE
  5
34786
  8
0
 62
     0
 10
19.025589140259019
 20
0.9187467742351142
 30
0.0
 11
19.058821621909551
 21
0.9519792558856433
 31
0.0
  0
LINE
  5
34787
  8
0
 62
     0
 10
19.105339320986261
 20
0.9984969549623507
 30
0.0
 11
19.140839152995181
 21
1.033996786971267
 31
0.0
  0
LINE
  5
34788
  8
0
 62
     0
 10
18.959839159808411
 20
0.8529967937845
 30
0.0
 11
19.009328503672311
 21
0.9024861376484057
 31
0.0
  0
LINE
  5
34789
  8
0
 62
     0
 10
19.025589140259029
 20
0.9209564829263218
 30
0.0
 11
19.058589152995179
 21
0.9539564956624722
 31
0.0
  0
LINE
  5
3478A
  8
0
 62
     0
 10
19.102768274344768
 20
0.9981356170120662
 30
0.0
 11
19.140839152995181
 21
1.036206495662475
 31
0.0
  0
LINE
  5
3478B
  8
0
 62
     0
 10
18.959839159808411
 20
0.8552065024757084
 30
0.0
 11
19.007118794190099
 21
0.9024861368573994
 31
0.0
  0
LINE
  5
3478C
  8
0
 62
     0
 10
19.025589140259019
 20
0.9231661916175294
 30
0.0
 11
19.058589152995179
 21
0.9561662043536806
 31
0.0
  0
LINE
  5
3478D
  8
0
 62
     0
 10
19.100197227703269
 20
0.9977742790617792
 30
0.0
 11
19.140839152995181
 21
1.038416204353682
 31
0.0
  0
LINE
  5
3478E
  8
0
 62
     0
 10
18.959839159808411
 20
0.857416211166916
 30
0.0
 11
19.00490908470789
 21
0.9024861360663912
 31
0.0
  0
LINE
  5
3478F
  8
0
 62
     0
 10
19.025589140259029
 20
0.9253759003087381
 30
0.0
 11
19.058589152995179
 21
0.9583759130448875
 31
0.0
  0
LINE
  5
34790
  8
0
 62
     0
 10
19.097626181061781
 20
0.9974129411114947
 30
0.0
 11
19.140839152995181
 21
1.0406259130448909
 31
0.0
  0
LINE
  5
34791
  8
0
 62
     0
 10
18.959839159808411
 20
0.8596259198581236
 30
0.0
 11
19.002699375225671
 21
0.9024861352753831
 31
0.0
  0
LINE
  5
34792
  8
0
 62
     0
 10
19.025589140259019
 20
0.9275856089999447
 30
0.0
 11
19.058589152995179
 21
0.9605856217360959
 31
0.0
  0
LINE
  5
34793
  8
0
 62
     0
 10
19.095055134420289
 20
0.9970516031612092
 30
0.0
 11
19.140839152995181
 21
1.0428356217360979
 31
0.0
  0
LINE
  5
34794
  8
0
 62
     0
 10
18.959839159808411
 20
0.8618356285493312
 30
0.0
 11
19.000489665743459
 21
0.9024861344843757
 31
0.0
  0
LINE
  5
34795
  8
0
 62
     0
 10
19.025589140259029
 20
0.9297953176911541
 30
0.0
 11
19.058589152995179
 21
0.9627953304273045
 31
0.0
  0
LINE
  5
34796
  8
0
 62
     0
 10
19.0924840877788
 20
0.996690265210924
 30
0.0
 11
19.140839152995181
 21
1.0450453304273071
 31
0.0
  0
LINE
  5
34797
  8
0
 62
     0
 10
18.959839159808411
 20
0.8640453372405399
 30
0.0
 11
18.998279956261239
 21
0.9024861336933685
 31
0.0
  0
LINE
  5
34798
  8
0
 62
     0
 10
19.025589140259029
 20
0.9320050263823617
 30
0.0
 11
19.058589152995179
 21
0.9650050391185121
 31
0.0
  0
LINE
  5
34799
  8
0
 62
     0
 10
19.089913041137301
 20
0.9963289272606385
 30
0.0
 11
19.140839152995181
 21
1.047255039118514
 31
0.0
  0
LINE
  5
3479A
  8
0
 62
     0
 10
18.959839159808411
 20
0.8662550459317483
 30
0.0
 11
18.996070246779031
 21
0.9024861329023604
 31
0.0
  0
LINE
  5
3479B
  8
0
 62
     0
 10
19.025589140259029
 20
0.9342147350735693
 30
0.0
 11
19.058589152995179
 21
0.9672147478097205
 31
0.0
  0
LINE
  5
3479C
  8
0
 62
     0
 10
19.087360529189361
 20
0.9959861240039064
 30
0.0
 11
19.140839152995181
 21
1.0494647478097221
 31
0.0
  0
LINE
  5
3479D
  8
0
 62
     0
 10
18.959839159808411
 20
0.8684647546229559
 30
0.0
 11
18.993860537296811
 21
0.9024861321113522
 31
0.0
  0
LINE
  5
3479E
  8
0
 62
     0
 10
19.025589140259029
 20
0.936424443764778
 30
0.0
 11
19.058589152995179
 21
0.9694244565009281
 31
0.0
  0
LINE
  5
3479F
  8
0
 62
     0
 10
19.08608915635768
 20
0.9969244598634323
 30
0.0
 11
19.140839152995181
 21
1.0516744565009311
 31
0.0
  0
LINE
  5
347A0
  8
0
 62
     0
 10
18.959839159808411
 20
0.8706744633141635
 30
0.0
 11
18.991650827814588
 21
0.9024861313203441
 31
0.0
  0
LINE
  5
347A1
  8
0
 62
     0
 10
19.025589140259029
 20
0.9386341524559856
 30
0.0
 11
19.058589152995179
 21
0.9716341651921358
 31
0.0
  0
LINE
  5
347A2
  8
0
 62
     0
 10
19.08605172759567
 20
0.9990967397926326
 30
0.0
 11
19.140839152995181
 21
1.0538841651921369
 31
0.0
  0
LINE
  5
347A3
  8
0
 62
     0
 10
18.959839159808411
 20
0.8728841720053711
 30
0.0
 11
18.98944111833238
 21
0.9024861305293359
 31
0.0
  0
LINE
  5
347A4
  8
0
 62
     0
 10
19.025589140259029
 20
0.940843861147194
 30
0.0
 11
19.058589152995179
 21
0.9738438738833444
 31
0.0
  0
LINE
  5
347A5
  8
0
 62
     0
 10
19.085529653059659
 20
1.000784373947833
 30
0.0
 11
19.140839152995181
 21
1.056093873883347
 31
0.0
  0
LINE
  5
347A6
  8
0
 62
     0
 10
18.959839159808411
 20
0.8750938806965798
 30
0.0
 11
18.98723140885016
 21
0.9024861297383297
 31
0.0
  0
LINE
  5
347A7
  8
0
 62
     0
 10
19.025589140259019
 20
0.9430535698384016
 30
0.0
 11
19.058589152995179
 21
0.9760535825745527
 31
0.0
  0
LINE
  5
347A8
  8
0
 62
     0
 10
19.084590796022241
 20
1.0020552256016111
 30
0.0
 11
19.14083915299517
 21
1.0583035825745539
 31
0.0
  0
LINE
  5
347A9
  8
0
 62
     0
 10
18.959839159808411
 20
0.8773035893877882
 30
0.0
 11
18.985021699367952
 21
0.9024861289473214
 31
0.0
  0
LINE
  5
347AA
  8
0
 62
     0
 10
19.025589140259029
 20
0.9452632785296092
 30
0.0
 11
19.058589152995179
 21
0.9782632912657604
 31
0.0
  0
LINE
  5
347AB
  8
0
 62
     0
 10
19.083297750431409
 20
1.0029718887019941
 30
0.0
 11
19.140839152995181
 21
1.060513291265762
 31
0.0
  0
LINE
  5
347AC
  8
0
 62
     0
 10
18.959839159808411
 20
0.8795132980789951
 30
0.0
 11
18.982811989885729
 21
0.9024861281563134
 31
0.0
  0
LINE
  5
347AD
  8
0
 62
     0
 10
19.025589140259019
 20
0.9474729872208179
 30
0.0
 11
19.058589152995179
 21
0.980472999956968
 31
0.0
  0
LINE
  5
347AE
  8
0
 62
     0
 10
19.081578292400302
 20
1.0034621393620951
 30
0.0
 11
19.140839152995181
 21
1.0627229999569701
 31
0.0
  0
LINE
  5
347AF
  8
0
 62
     0
 10
18.959839159808411
 20
0.8817230067702034
 30
0.0
 11
18.980602280403509
 21
0.9024861273653051
 31
0.0
  0
LINE
  5
347B0
  8
0
 62
     0
 10
19.025589140259029
 20
0.9496826959120255
 30
0.0
 11
19.058589152995179
 21
0.9826827086481756
 31
0.0
  0
LINE
  5
347B1
  8
0
 62
     0
 10
19.079392566964511
 20
1.0034861226175129
 30
0.0
 11
19.140839152995181
 21
1.064932708648177
 31
0.0
  0
LINE
  5
347B2
  8
0
 62
     0
 10
18.959839159808411
 20
0.8839327154614109
 30
0.0
 11
18.978392570921301
 21
0.9024861265742971
 31
0.0
  0
LINE
  5
347B3
  8
0
 62
     0
 10
19.025589140259029
 20
0.9518924046032338
 30
0.0
 11
19.058589152995179
 21
0.9848924173393843
 31
0.0
  0
LINE
  5
347B4
  8
0
 62
     0
 10
19.0771828582733
 20
1.0034861226175129
 30
0.0
 11
19.140839152995181
 21
1.0671424173393871
 31
0.0
  0
LINE
  5
347B5
  8
0
 62
     0
 10
18.959839159808411
 20
0.8861424241526197
 30
0.0
 11
18.976182861439082
 21
0.9024861257832906
 31
0.0
  0
LINE
  5
347B6
  8
0
 62
     0
 10
19.025589140259029
 20
0.9541021132944415
 30
0.0
 11
19.058589152995179
 21
0.9871021260305926
 31
0.0
  0
LINE
  5
347B7
  8
0
 62
     0
 10
19.0749731495821
 20
1.0034861226175129
 30
0.0
 11
19.140839152995181
 21
1.069352126030594
 31
0.0
  0
LINE
  5
347B8
  8
0
 62
     0
 10
18.959839159808411
 20
0.8883521328438281
 30
0.0
 11
18.973973151956869
 21
0.9024861249922825
 31
0.0
  0
LINE
  5
347B9
  8
0
 62
     0
 10
19.025589140259029
 20
0.9563118219856502
 30
0.0
 11
19.058589152995179
 21
0.9893118347217995
 31
0.0
  0
LINE
  5
347BA
  8
0
 62
     0
 10
19.072763440890888
 20
1.003486122617514
 30
0.0
 11
19.140839152995181
 21
1.0715618347218021
 31
0.0
  0
LINE
  5
347BB
  8
0
 62
     0
 10
18.959839159808411
 20
0.890561841535035
 30
0.0
 11
18.97176344247465
 21
0.9024861242012732
 31
0.0
  0
LINE
  5
347BC
  8
0
 62
     0
 10
19.025589140259029
 20
0.9585215306768578
 30
0.0
 11
19.058589152995179
 21
0.9915215434130079
 31
0.0
  0
LINE
  5
347BD
  8
0
 62
     0
 10
19.070553732199681
 20
1.0034861226175129
 30
0.0
 11
19.140839152995181
 21
1.0737715434130091
 31
0.0
  0
LINE
  5
347BE
  8
0
 62
     0
 10
18.959839159808411
 20
0.8927715502262433
 30
0.0
 11
18.969553732992441
 21
0.9024861234102662
 31
0.0
  0
LINE
  5
347BF
  8
0
 62
     0
 10
19.025589140259029
 20
0.9607312393680654
 30
0.0
 11
19.058589152995179
 21
0.9937312521042155
 31
0.0
  0
LINE
  5
347C0
  8
0
 62
     0
 10
19.06834402350847
 20
1.0034861226175129
 30
0.0
 11
19.140839152995181
 21
1.0759812521042169
 31
0.0
  0
LINE
  5
347C1
  8
0
 62
     0
 10
18.959839154575612
 20
0.8949812536846477
 30
0.0
 11
18.967344023510218
 21
0.902486122619258
 31
0.0
  0
LINE
  5
347C2
  8
0
 62
     0
 10
19.025589140259029
 20
0.962940948059273
 30
0.0
 11
19.058589152995179
 21
0.9959409607954231
 31
0.0
  0
LINE
  5
347C3
  8
0
 62
     0
 10
19.066134314817269
 20
1.003486122617514
 30
0.0
 11
19.140839152995181
 21
1.0781909607954261
 31
0.0
  0
LINE
  5
347C4
  8
0
 62
     0
 10
18.960346867325061
 20
0.897698675125309
 30
0.0
 11
18.964626600487382
 21
0.901978408287626
 31
0.0
  0
LINE
  5
347C5
  8
0
 62
     0
 10
19.063924606126061
 20
1.003486122617514
 30
0.0
 11
19.100356771213729
 21
1.0399182877051809
 31
0.0
  0
LINE
  5
347C6
  8
0
 62
     0
 10
19.10515698790751
 20
1.0447185043989651
 30
0.0
 11
19.140839152995181
 21
1.080400669486633
 31
0.0
  0
LINE
  5
347C7
  8
0
 62
     0
 10
19.025589140259029
 20
0.9651506567504814
 30
0.0
 11
19.058589152995179
 21
0.9981506694866325
 31
0.0
  0
LINE
  5
347C8
  8
0
 62
     0
 10
19.060980368515121
 20
1.002751593697786
 30
0.0
 11
19.096195866623351
 21
1.0379670918060191
 31
0.0
  0
LINE
  5
347C9
  8
0
 62
     0
 10
19.10710818380667
 20
1.048879408989333
 30
0.0
 11
19.140839152995181
 21
1.082610378177842
 31
0.0
  0
LINE
  5
347CA
  8
0
 62
     0
 10
19.025589140259029
 20
0.9673603654416901
 30
0.0
 11
19.059323681914901
 21
1.0010949070975681
 31
0.0
  0
LINE
  5
347CB
  8
0
 62
     0
 10
19.107712183558011
 20
1.05169311743188
 30
0.0
 11
19.140839152995181
 21
1.084820086869049
 31
0.0
  0
LINE
  5
347CC
  8
0
 62
     0
 10
19.025589140259029
 20
0.9695700741328966
 30
0.0
 11
19.093382158180809
 21
1.037363092054679
 31
0.0
  0
LINE
  5
347CD
  8
0
 62
     0
 10
19.107836584855729
 20
1.0540272274208069
 30
0.0
 11
19.140839152995181
 21
1.087029795560257
 31
0.0
  0
LINE
  5
347CE
  8
0
 62
     0
 10
19.025589140259029
 20
0.9717797828241053
 30
0.0
 11
19.091045481577972
 21
1.037236124143051
 31
0.0
  0
LINE
  5
347CF
  8
0
 62
     0
 10
19.10767280730192
 20
1.0560731585582011
 30
0.0
 11
19.140839152995181
 21
1.0892395042514651
 31
0.0
  0
LINE
  5
347D0
  8
0
 62
     0
 10
19.025589140259029
 20
0.9739894915153129
 30
0.0
 11
19.088835772857379
 21
1.0372361241136629
 31
0.0
  0
LINE
  5
347D1
  8
0
 62
     0
 10
19.107301976734341
 20
1.057912036681832
 30
0.0
 11
19.140749598207272
 21
1.0913596581547691
 31
0.0
  0
LINE
  5
347D2
  8
0
 62
     0
 10
19.025589140259029
 20
0.9761992002065213
 30
0.0
 11
19.08662606413678
 21
1.037236124084276
 31
0.0
  0
LINE
  5
347D3
  8
0
 62
     0
 10
19.106767034728211
 20
1.059586803366918
 30
0.0
 11
19.140438248249801
 21
1.0932580168884991
 31
0.0
  0
LINE
  5
347D4
  8
0
 62
     0
 10
19.025589140259029
 20
0.97840890889773
 30
0.0
 11
19.084416355416192
 21
1.0372361240548891
 31
0.0
  0
LINE
  5
347D5
  8
0
 62
     0
 10
19.106093355967118
 20
1.0611228332970279
 30
0.0
 11
19.139951725770249
 21
1.0949812031001589
 31
0.0
  0
LINE
  5
347D6
  8
0
 62
     0
 10
19.025589140259029
 20
0.9806186175889377
 30
0.0
 11
19.082206646695589
 21
1.0372361240254999
 31
0.0
  0
LINE
  5
347D7
  8
0
 62
     0
 10
19.10529672297389
 20
1.0625359089950051
 30
0.0
 11
19.1393197509312
 21
1.096558936952315
 31
0.0
  0
LINE
  5
347D8
  8
0
 62
     0
 10
19.025589140259029
 20
0.9828283262801452
 30
0.0
 11
19.07999693797499
 21
1.0372361239961121
 31
0.0
  0
LINE
  5
347D9
  8
0
 62
     0
 10
19.104386963110009
 20
1.063835857822331
 30
0.0
 11
19.138560608739841
 21
1.098009503452162
 31
0.0
  0
LINE
  5
347DA
  8
0
 62
     0
 10
19.025589140259029
 20
0.9850380349713528
 30
0.0
 11
19.077787229254401
 21
1.0372361239667229
 31
0.0
  0
LINE
  5
347DB
  8
0
 62
     0
 10
19.103369755564991
 20
1.0650283589685281
 30
0.0
 11
19.13768574965788
 21
1.0993443530614191
 31
0.0
  0
LINE
  5
347DC
  8
0
 62
     0
 10
19.025589140259019
 20
0.9872477436625612
 30
0.0
 11
19.075577520533798
 21
1.037236123937336
 31
0.0
  0
LINE
  5
347DD
  8
0
 62
     0
 10
19.102247526925161
 20
1.0661158390199059
 30
0.0
 11
19.13670203202722
 21
1.1005703441219641
 31
0.0
  0
LINE
  5
347DE
  8
0
 62
     0
 10
19.025589140259029
 20
0.9894574523537698
 30
0.0
 11
19.073367811813199
 21
1.0372361239079471
 31
0.0
  0
LINE
  5
347DF
  8
0
 62
     0
 10
19.101019802074951
 20
1.0670978228609049
 30
0.0
 11
19.135612848919639
 21
1.101690869705592
 31
0.0
  0
LINE
  5
347E0
  8
0
 62
     0
 10
19.025589140259029
 20
0.9916671610449775
 30
0.0
 11
19.071158103092611
 21
1.037236123878559
 31
0.0
  0
LINE
  5
347E1
  8
0
 62
     0
 10
19.099683136959651
 20
1.0679708664368019
 30
0.0
 11
19.13441862883861
 21
1.102706358315769
 31
0.0
  0
LINE
  5
347E2
  8
0
 62
     0
 10
19.025589140259029
 20
0.9938768697361851
 30
0.0
 11
19.068948394372011
 21
1.037236123849171
 31
0.0
  0
LINE
  5
347E3
  8
0
 62
     0
 10
19.098230609740181
 20
1.0687280479085439
 30
0.0
 11
19.133116896350089
 21
1.1036143345184519
 31
0.0
  0
LINE
  5
347E4
  8
0
 62
     0
 10
19.025589140259029
 20
0.9960865784273927
 30
0.0
 11
19.066738685651419
 21
1.0372361238197829
 31
0.0
  0
LINE
  5
347E5
  8
0
 62
     0
 10
19.09665068089452
 20
1.0693578277541
 30
0.0
 11
19.131701913800331
 21
1.1044090606599031
 31
0.0
  0
LINE
  5
347E6
  8
0
 62
     0
 10
19.025452767414631
 20
0.9981599142742037
 30
0.0
 11
19.06452897693082
 21
1.0372361237903951
 31
0.0
  0
LINE
  5
347E7
  8
0
 62
     0
 10
19.094924925550139
 20
1.06984178110092
 30
0.0
 11
19.130163774759151
 21
1.1050806303099301
 31
0.0
  0
LINE
  5
347E8
  8
0
 62
     0
 10
19.024918740447148
 20
0.9998355959979306
 30
0.0
 11
19.062319268210231
 21
1.0372361237610079
 31
0.0
  0
LINE
  5
347E9
  8
0
 62
     0
 10
19.093023375554111
 20
1.0701499397960981
 30
0.0
 11
19.12848657688815
 21
1.105613141130136
 31
0.0
  0
LINE
  5
347EA
  8
0
 62
     0
 10
19.02409788803924
 20
1.001224452281233
 30
0.0
 11
19.060109559489629
 21
1.0372361237316201
 31
0.0
  0
LINE
  5
347EB
  8
0
 62
     0
 10
19.090899836711621
 20
1.070236109644817
 30
0.0
 11
19.12664474146839
 21
1.10598101440159
 31
0.0
  0
LINE
  5
347EC
  8
0
 62
     0
 10
19.023036591213931
 20
1.0023728641471259
 30
0.0
 11
19.05789985076904
 21
1.0372361237022321
 31
0.0
  0
LINE
  5
347ED
  8
0
 62
     0
 10
19.088690128270638
 20
1.0702361098950419
 30
0.0
 11
19.124707321403509
 21
1.1062533030279169
 31
0.0
  0
LINE
  5
347EE
  8
0
 62
     0
 10
19.021741012728231
 20
1.0032869943526399
 30
0.0
 11
19.055690142048441
 21
1.037236123672844
 31
0.0
  0
LINE
  5
347EF
  8
0
 62
     0
 10
19.086480419829648
 20
1.0702361101452671
 30
0.0
 11
19.1227698990036
 21
1.1065255893192101
 31
0.0
  0
LINE
  5
347F0
  8
0
 62
     0
 10
19.020182398830169
 20
1.0039380891457821
 30
0.0
 11
19.053480433327842
 21
1.037236123643454
 31
0.0
  0
LINE
  5
347F1
  8
0
 62
     0
 10
19.084270711388669
 20
1.07023611039549
 30
0.0
 11
19.120832476603681
 21
1.106797875610505
 31
0.0
  0
LINE
  5
347F2
  8
0
 62
     0
 10
19.01826857710283
 20
1.0042339761096539
 30
0.0
 11
19.051270724607239
 21
1.037236123614067
 31
0.0
  0
LINE
  5
347F3
  8
0
 62
     0
 10
19.08206100294769
 20
1.070236110645715
 30
0.0
 11
19.118895054203769
 21
1.1070701619018011
 31
0.0
  0
LINE
  5
347F4
  8
0
 62
     0
 10
19.016061015701119
 20
1.004236123399155
 30
0.0
 11
19.04906101588665
 21
1.0372361235846781
 31
0.0
  0
LINE
  5
347F5
  8
0
 62
     0
 10
19.0798512945067
 20
1.07023611089594
 30
0.0
 11
19.11695763180386
 21
1.1073424481930929
 31
0.0
  0
LINE
  5
347F6
  8
0
 62
     0
 10
19.013851307861529
 20
1.0042361242507729
 30
0.0
 11
19.046851307166051
 21
1.03723612355529
 31
0.0
  0
LINE
  5
347F7
  8
0
 62
     0
 10
19.07764158606572
 20
1.070236111146164
 30
0.0
 11
19.115020209403941
 21
1.107614734484389
 31
0.0
  0
LINE
  5
347F8
  8
0
 62
     0
 10
19.011641600021949
 20
1.004236125102393
 30
0.0
 11
19.044641598445459
 21
1.037236123525902
 31
0.0
  0
LINE
  5
347F9
  8
0
 62
     0
 10
19.075431877624741
 20
1.0702361113963881
 30
0.0
 11
19.113082787004029
 21
1.1078870207756839
 31
0.0
  0
LINE
  5
347FA
  8
0
 62
     0
 10
19.009431892182359
 20
1.0042361259540109
 30
0.0
 11
19.04243188972486
 21
1.037236123496514
 31
0.0
  0
LINE
  5
347FB
  8
0
 62
     0
 10
19.073222169183751
 20
1.0702361116466119
 30
0.0
 11
19.111145364604109
 21
1.108159307066978
 31
0.0
  0
LINE
  5
347FC
  8
0
 62
     0
 10
19.007222184342769
 20
1.0042361268056299
 30
0.0
 11
19.040222181004271
 21
1.037236123467127
 31
0.0
  0
LINE
  5
347FD
  8
0
 62
     0
 10
19.071012460742772
 20
1.0702361118968371
 30
0.0
 11
19.1092079422042
 21
1.108431593358272
 31
0.0
  0
LINE
  5
347FE
  8
0
 62
     0
 10
19.005012476503179
 20
1.0042361276572469
 30
0.0
 11
19.038012472283668
 21
1.037236123437739
 31
0.0
  0
LINE
  5
347FF
  8
0
 62
     0
 10
19.068802752301782
 20
1.070236112147062
 30
0.0
 11
19.107270519804288
 21
1.1087038796495681
 31
0.0
  0
LINE
  5
34800
  8
0
 62
     0
 10
19.002802768663589
 20
1.004236128508865
 30
0.0
 11
19.035802763563069
 21
1.0372361234083509
 31
0.0
  0
LINE
  5
34801
  8
0
 62
     0
 10
19.066593043860799
 20
1.0702361123972861
 30
0.0
 11
19.105333097404369
 21
1.1089761659408599
 31
0.0
  0
LINE
  5
34802
  8
0
 62
     0
 10
19.000593060823999
 20
1.004236129360486
 30
0.0
 11
19.033593054842481
 21
1.0372361233789631
 31
0.0
  0
LINE
  5
34803
  8
0
 62
     0
 10
19.064383335419819
 20
1.07023611264751
 30
0.0
 11
19.10339567500446
 21
1.1092484522321551
 31
0.0
  0
LINE
  5
34804
  8
0
 62
     0
 10
18.998383352984408
 20
1.0042361302121039
 30
0.0
 11
19.031383346121881
 21
1.037236123349573
 31
0.0
  0
LINE
  5
34805
  8
0
 62
     0
 10
19.062173626978829
 20
1.0702361128977329
 30
0.0
 11
19.101458252604552
 21
1.109520738523452
 31
0.0
  0
LINE
  5
34806
  8
0
 62
     0
 10
18.996173645144822
 20
1.004236131063722
 30
0.0
 11
19.029173637401279
 21
1.0372361233201861
 31
0.0
  0
LINE
  5
34807
  8
0
 62
     0
 10
19.05996391853785
 20
1.070236113147959
 30
0.0
 11
19.099520830204629
 21
1.109793024814745
 31
0.0
  0
LINE
  5
34808
  8
0
 62
     0
 10
18.993963937305232
 20
1.0042361319153399
 30
0.0
 11
19.02696392868069
 21
1.0372361232907981
 31
0.0
  0
LINE
  5
34809
  8
0
 62
     0
 10
19.057754210096871
 20
1.070236113398183
 30
0.0
 11
19.09758340780472
 21
1.110065311106039
 31
0.0
  0
LINE
  5
3480A
  8
0
 62
     0
 10
18.991754229465641
 20
1.0042361327669611
 30
0.0
 11
19.024754219960091
 21
1.03723612326141
 31
0.0
  0
LINE
  5
3480B
  8
0
 62
     0
 10
19.055544501655881
 20
1.0702361136484071
 30
0.0
 11
19.095645985404801
 21
1.110337597397334
 31
0.0
  0
LINE
  5
3480C
  8
0
 62
     0
 10
18.989544521626051
 20
1.0042361336185781
 30
0.0
 11
19.022544511239499
 21
1.037236123232022
 31
0.0
  0
LINE
  5
3480D
  8
0
 62
     0
 10
19.053334793214901
 20
1.070236113898632
 30
0.0
 11
19.093708563004888
 21
1.1106098836886269
 31
0.0
  0
LINE
  5
3480E
  8
0
 62
     0
 10
18.987334813786472
 20
1.004236134470196
 30
0.0
 11
19.020334802518899
 21
1.0372361232026339
 31
0.0
  0
LINE
  5
3480F
  8
0
 62
     0
 10
19.051125084773911
 20
1.070236114148855
 30
0.0
 11
19.09177114060498
 21
1.1108821699799221
 31
0.0
  0
LINE
  5
34810
  8
0
 62
     0
 10
18.985125105946871
 20
1.0042361353218141
 30
0.0
 11
19.018125093798311
 21
1.0372361231732461
 31
0.0
  0
LINE
  5
34811
  8
0
 62
     0
 10
19.048915376332928
 20
1.07023611439908
 30
0.0
 11
19.083077924850421
 21
1.104398662916569
 31
0.0
  0
LINE
  5
34812
  8
0
 62
     0
 10
19.085676612696119
 20
1.1069973507622759
 30
0.0
 11
19.089833718205071
 21
1.1111544562712179
 31
0.0
  0
LINE
  5
34813
  8
0
 62
     0
 10
18.982915398107291
 20
1.0042361361734351
 30
0.0
 11
19.015915385077712
 21
1.0372361231438589
 31
0.0
  0
LINE
  5
34814
  8
0
 62
     0
 10
19.046705667891949
 20
1.070236114649306
 30
0.0
 11
19.080455692954491
 21
1.1039861397118429
 31
0.0
  0
LINE
  5
34815
  8
0
 62
     0
 10
19.086089153847212
 20
1.10961960060457
 30
0.0
 11
19.087896295805152
 21
1.1114267425625119
 31
0.0
  0
LINE
  5
34816
  8
0
 62
     0
 10
18.980705690267701
 20
1.004236137025053
 30
0.0
 11
19.013705676357109
 21
1.0372361231144711
 31
0.0
  0
LINE
  5
34817
  8
0
 62
     0
 10
19.044495959450959
 20
1.070236114899529
 30
0.0
 11
19.07824598426328
 21
1.1039861397118429
 31
0.0
  0
LINE
  5
34818
  8
0
 62
     0
 10
18.9784959824281
 20
1.0042361378766711
 30
0.0
 11
19.01149596763652
 21
1.0372361230850831
 31
0.0
  0
LINE
  5
34819
  8
0
 62
     0
 10
19.04228625100998
 20
1.0702361151497539
 30
0.0
 11
19.076036275572068
 21
1.103986139711842
 31
0.0
  0
LINE
  5
3481A
  8
0
 62
     0
 10
19.130168529573432
 20
1.158118393713204
 30
0.0
 11
19.139399297105349
 21
1.167349161245123
 31
0.0
  0
LINE
  5
3481B
  8
0
 62
     0
 10
18.97628634298998
 20
1.004236207129749
 30
0.0
 11
19.009286258915921
 21
1.037236123055693
 31
0.0
  0
LINE
  5
3481C
  8
0
 62
     0
 10
19.040076542569
 20
1.070236115399976
 30
0.0
 11
19.073826566880861
 21
1.1039861397118409
 31
0.0
  0
LINE
  5
3481D
  8
0
 62
     0
 10
19.126918105881991
 20
1.1570776787129691
 30
0.0
 11
19.140440012105579
 21
1.1705995849365649
 31
0.0
  0
LINE
  5
3481E
  8
0
 62
     0
 10
18.974213981359782
 20
1.004373554190763
 30
0.0
 11
19.007076550195318
 21
1.037236123026305
 31
0.0
  0
LINE
  5
3481F
  8
0
 62
     0
 10
19.037866834128021
 20
1.0702361156502029
 30
0.0
 11
19.07161685818966
 21
1.103986139711842
 31
0.0
  0
LINE
  5
34820
  8
0
 62
     0
 10
19.124291187555649
 20
1.156660469077837
 30
0.0
 11
19.140800856482478
 21
1.1731701380046711
 31
0.0
  0
LINE
  5
34821
  8
0
 62
     0
 10
18.97235506327165
 20
1.0047243447938361
 30
0.0
 11
19.00486684147473
 21
1.037236122996918
 31
0.0
  0
LINE
  5
34822
  8
0
 62
     0
 10
19.035657125687031
 20
1.0702361159004261
 30
0.0
 11
19.069407149498439
 21
1.103986139711842
 31
0.0
  0
LINE
  5
34823
  8
0
 62
     0
 10
19.12172014097246
 20
1.1562991311858579
 30
0.0
 11
19.140807642843281
 21
1.175386633056672
 31
0.0
  0
LINE
  5
34824
  8
0
 62
     0
 10
18.970663870401491
 20
1.0052428606148931
 30
0.0
 11
19.00265713275413
 21
1.0372361229675291
 31
0.0
  0
LINE
  5
34825
  8
0
 62
     0
 10
19.033447417246052
 20
1.070236116150652
 30
0.0
 11
19.067197440807242
 21
1.103986139711842
 31
0.0
  0
LINE
  5
34826
  8
0
 62
     0
 10
19.119149094389279
 20
1.1559377932938819
 30
0.0
 11
19.14057665579212
 21
1.1773653546967211
 31
0.0
  0
LINE
  5
34827
  8
0
 62
     0
 10
18.9691136213522
 20
1.00590232025681
 30
0.0
 11
19.000447424033538
 21
1.037236122938141
 31
0.0
  0
LINE
  5
34828
  8
0
 62
     0
 10
19.031237708805062
 20
1.070236116400876
 30
0.0
 11
19.06498773211603
 21
1.103986139711842
 31
0.0
  0
LINE
  5
34829
  8
0
 62
     0
 10
19.11657804780609
 20
1.155576455401905
 30
0.0
 11
19.140165204557469
 21
1.179163612153282
 31
0.0
  0
LINE
  5
3482A
  8
0
 62
     0
 10
18.96768771235687
 20
1.0066861199526811
 30
0.0
 11
18.998237715312939
 21
1.037236122908753
 31
0.0
  0
LINE
  5
3482B
  8
0
 62
     0
 10
19.029028000364079
 20
1.070236116651099
 30
0.0
 11
19.062835180650438
 21
1.1040432969374629
 31
0.0
  0
LINE
  5
3482C
  8
0
 62
     0
 10
19.114007001222909
 20
1.155215117509927
 30
0.0
 11
19.139606118699021
 21
1.180814234986038
 31
0.0
  0
LINE
  5
3482D
  8
0
 62
     0
 10
18.966375776947721
 20
1.007583893234743
 30
0.0
 11
18.99602800659234
 21
1.037236122879365
 31
0.0
  0
LINE
  5
3482E
  8
0
 62
     0
 10
19.026818291923089
 20
1.0702361169013239
 30
0.0
 11
19.061184502781892
 21
1.104602327760118
 31
0.0
  0
LINE
  5
3482F
  8
0
 62
     0
 10
19.11143595463972
 20
1.154853779617951
 30
0.0
 11
19.138919780171371
 21
1.1823376051495991
 31
0.0
  0
LINE
  5
34830
  8
0
 62
     0
 10
18.965171739474329
 20
1.008589564452564
 30
0.0
 11
18.993818297871751
 21
1.037236122849978
 31
0.0
  0
LINE
  5
34831
  8
0
 62
     0
 10
19.024608583482109
 20
1.0702361171515491
 30
0.0
 11
19.059940217047561
 21
1.105567750717001
 31
0.0
  0
LINE
  5
34832
  8
0
 62
     0
 10
19.108864908056539
 20
1.1544924417259741
 30
0.0
 11
19.138119319811281
 21
1.1837468534807161
 31
0.0
  0
LINE
  5
34833
  8
0
 62
     0
 10
18.964072844062748
 20
1.009700377732182
 30
0.0
 11
18.991608589151149
 21
1.03723612282059
 31
0.0
  0
LINE
  5
34834
  8
0
 62
     0
 10
19.02239887504113
 20
1.0702361174017729
 30
0.0
 11
19.05905069366997
 21
1.106887936030615
 31
0.0
  0
LINE
  5
34835
  8
0
 62
     0
 10
19.10629386147335
 20
1.154131103833997
 30
0.0
 11
19.1372131632235
 21
1.1850504055841431
 31
0.0
  0
LINE
  5
34836
  8
0
 62
     0
 10
18.963079253592429
 20
1.010916495953073
 30
0.0
 11
18.98939888043056
 21
1.0372361227912019
 31
0.0
  0
LINE
  5
34837
  8
0
 62
     0
 10
19.020189166600151
 20
1.070236117651999
 30
0.0
 11
19.05860062737802
 21
1.1086475784298739
 31
0.0
  0
LINE
  5
34838
  8
0
 62
     0
 10
19.103722814890169
 20
1.1537697659420201
 30
0.0
 11
19.136206363540051
 21
1.186253314591907
 31
0.0
  0
LINE
  5
34839
  8
0
 62
     0
 10
18.962194072728579
 20
1.012241023780438
 30
0.0
 11
18.987189171709961
 21
1.0372361227618121
 31
0.0
  0
LINE
  5
3483A
  8
0
 62
     0
 10
19.017979458159161
 20
1.0702361179022211
 30
0.0
 11
19.058589152995179
 21
1.1108458127382379
 31
0.0
  0
LINE
  5
3483B
  8
0
 62
     0
 10
19.10115176830698
 20
1.153408428050043
 30
0.0
 11
19.135101294982451
 21
1.1873579547255091
 31
0.0
  0
LINE
  5
3483C
  8
0
 62
     0
 10
18.961423803039661
 20
1.013680462782717
 30
0.0
 11
18.984979462989362
 21
1.037236122732424
 31
0.0
  0
LINE
  5
3483D
  8
0
 62
     0
 10
19.015769749718181
 20
1.070236118152446
 30
0.0
 11
19.058589152995179
 21
1.113055521429446
 31
0.0
  0
LINE
  5
3483E
  8
0
 62
     0
 10
19.098580721723799
 20
1.1530470901580661
 30
0.0
 11
19.133897952446439
 21
1.188364320880712
 31
0.0
  0
LINE
  5
3483F
  8
0
 62
     0
 10
18.960779397680021
 20
1.01524576611429
 30
0.0
 11
18.982769754268769
 21
1.0372361227030369
 31
0.0
  0
LINE
  5
34840
  8
0
 62
     0
 10
19.013560041277191
 20
1.0702361184026701
 30
0.0
 11
19.058589152995179
 21
1.115265230120654
 31
0.0
  0
LINE
  5
34841
  8
0
 62
     0
 10
19.096009675140611
 20
1.1526857522660889
 30
0.0
 11
19.13259395087568
 21
1.1892700280011519
 31
0.0
  0
LINE
  5
34842
  8
0
 62
     0
 10
18.960278365462891
 20
1.0169544425883701
 30
0.0
 11
18.98056004554817
 21
1.0372361226736491
 31
0.0
  0
LINE
  5
34843
  8
0
 62
     0
 10
19.011350332836209
 20
1.070236118652895
 30
0.0
 11
19.058589152995179
 21
1.1174749388118621
 31
0.0
  0
LINE
  5
34844
  8
0
 62
     0
 10
19.093438628557429
 20
1.1523244143741109
 30
0.0
 11
19.13118422423598
 21
1.1900700100526671
 31
0.0
  0
LINE
  5
34845
  8
0
 62
     0
 10
18.959949060050949
 20
1.0188348458676351
 30
0.0
 11
18.978350336827582
 21
1.0372361226442619
 31
0.0
  0
LINE
  5
34846
  8
0
 62
     0
 10
19.009140624395229
 20
1.07023611890312
 30
0.0
 11
19.058589152995179
 21
1.1196846475030691
 31
0.0
  0
LINE
  5
34847
  8
0
 62
     0
 10
19.090867581974241
 20
1.1519630764821349
 30
0.0
 11
19.129660329839151
 21
1.190755824347042
 31
0.0
  0
LINE
  5
34848
  8
0
 62
     0
 10
18.959840361936479
 20
1.020935856444376
 30
0.0
 11
18.976139419168309
 21
1.037234913676206
 31
0.0
  0
LINE
  5
34849
  8
0
 62
     0
 10
19.006930915954239
 20
1.0702361191533429
 30
0.0
 11
19.058589152995179
 21
1.121894356194278
 31
0.0
  0
LINE
  5
3484A
  8
0
 62
     0
 10
19.088296535391059
 20
1.1516017385901569
 30
0.0
 11
19.128009111876089
 21
1.191314315075195
 31
0.0
  0
LINE
  5
3484B
  8
0
 62
     0
 10
18.960048028399889
 20
1.0233532315989939
 30
0.0
 11
18.973722044013702
 21
1.0370272472127959
 31
0.0
  0
LINE
  5
3484C
  8
0
 62
     0
 10
19.00472120751326
 20
1.0702361194035661
 30
0.0
 11
19.058589152995179
 21
1.1241040648854841
 31
0.0
  0
LINE
  5
3484D
  8
0
 62
     0
 10
19.08608915635768
 20
1.1516040682479891
 30
0.0
 11
19.126210148044159
 21
1.1917250599344671
 31
0.0
  0
LINE
  5
3484E
  8
0
 62
     0
 10
18.960817004593391
 20
1.026331916483695
 30
0.0
 11
18.970743359128999
 21
1.0362582710193029
 31
0.0
  0
LINE
  5
3484F
  8
0
 62
     0
 10
19.002511499072281
 20
1.070236119653792
 30
0.0
 11
19.058589152995179
 21
1.1263137735766939
 31
0.0
  0
LINE
  5
34850
  8
0
 62
     0
 10
19.08608915635768
 20
1.1538137769391981
 30
0.0
 11
19.124230535609641
 21
1.1919551561911601
 31
0.0
  0
LINE
  5
34851
  8
0
 62
     0
 10
18.964392175292101
 20
1.032116795873621
 30
0.0
 11
18.964958479739071
 21
1.032683100320587
 31
0.0
  0
LINE
  5
34852
  8
0
 62
     0
 10
19.085780720908041
 20
1.15571505018077
 30
0.0
 11
19.122051793520381
 21
1.191986122793105
 31
0.0
  0
LINE
  5
34853
  8
0
 62
     0
 10
19.000301790631291
 20
1.0702361199040169
 30
0.0
 11
19.058589152995179
 21
1.128523482267902
 31
0.0
  0
LINE
  5
34854
  8
0
 62
     0
 10
19.084981052436252
 20
1.1571250904001811
 30
0.0
 11
19.119842085171459
 21
1.1919861231353921
 31
0.0
  0
LINE
  5
34855
  8
0
 62
     0
 10
18.998092082190311
 20
1.070236120154241
 30
0.0
 11
19.058589152995179
 21
1.130733190959109
 31
0.0
  0
LINE
  5
34856
  8
0
 62
     0
 10
19.083820453795632
 20
1.158174200450774
 30
0.0
 11
19.117632376822542
 21
1.191986123477675
 31
0.0
  0
LINE
  5
34857
  8
0
 62
     0
 10
18.995882373749321
 20
1.070236120404465
 30
0.0
 11
19.058589152995179
 21
1.1329428996503179
 31
0.0
  0
LINE
  5
34858
  8
0
 62
     0
 10
19.082279024522158
 20
1.158842479868508
 30
0.0
 11
19.11542266847362
 21
1.1919861238199621
 31
0.0
  0
LINE
  5
34859
  8
0
 62
     0
 10
18.993672665308338
 20
1.0702361206546891
 30
0.0
 11
19.058589152995179
 21
1.135152608341524
 31
0.0
  0
LINE
  5
3485A
  8
0
 62
     0
 10
19.080212958579949
 20
1.158986122617512
 30
0.0
 11
19.113212960124692
 21
1.191986124162248
 31
0.0
  0
LINE
  5
3485B
  8
0
 62
     0
 10
18.991462956867359
 20
1.070236120904914
 30
0.0
 11
19.058589152995179
 21
1.137362317032734
 31
0.0
  0
LINE
  5
3485C
  8
0
 62
     0
 10
19.078003249888749
 20
1.1589861226175131
 30
0.0
 11
19.11100325177577
 21
1.191986124504532
 31
0.0
  0
LINE
  5
3485D
  8
0
 62
     0
 10
18.989253248426369
 20
1.070236121155139
 30
0.0
 11
19.058589152995179
 21
1.139572025723941
 31
0.0
  0
LINE
  5
3485E
  8
0
 62
     0
 10
19.025220226446439
 20
1.1084128078664151
 30
0.0
 11
19.058589152995179
 21
1.1417817344151491
 31
0.0
  0
LINE
  5
3485F
  8
0
 62
     0
 10
19.075793541197541
 20
1.1589861226175131
 30
0.0
 11
19.108793543426849
 21
1.191986124846818
 31
0.0
  0
LINE
  5
34860
  8
0
 62
     0
 10
18.98704353998539
 20
1.0702361214053631
 30
0.0
 11
19.020412467746279
 21
1.103605049166251
 31
0.0
  0
LINE
  5
34861
  8
0
 62
     0
 10
19.025589140259029
 20
1.110991430370206
 30
0.0
 11
19.058589152995179
 21
1.1439914431063569
 31
0.0
  0
LINE
  5
34862
  8
0
 62
     0
 10
19.07358383250634
 20
1.158986122617512
 30
0.0
 11
19.106583835077931
 21
1.191986125189104
 31
0.0
  0
LINE
  5
34863
  8
0
 62
     0
 10
18.98483383154441
 20
1.070236121655586
 30
0.0
 11
19.017833841540028
 21
1.103236131651208
 31
0.0
  0
LINE
  5
34864
  8
0
 62
     0
 10
19.025589140259029
 20
1.113201139061414
 30
0.0
 11
19.058589152995179
 21
1.1462011517975641
 31
0.0
  0
LINE
  5
34865
  8
0
 62
     0
 10
19.071374123815119
 20
1.1589861226175131
 30
0.0
 11
19.104374126728999
 21
1.1919861255313899
 31
0.0
  0
LINE
  5
34866
  8
0
 62
     0
 10
18.98262412310342
 20
1.070236121905811
 30
0.0
 11
19.015624132367751
 21
1.1032361311701391
 31
0.0
  0
LINE
  5
34867
  8
0
 62
     0
 10
19.025589140259029
 20
1.115410847752623
 30
0.0
 11
19.058589152995179
 21
1.1484108604887739
 31
0.0
  0
LINE
  5
34868
  8
0
 62
     0
 10
19.069164415123911
 20
1.158986122617514
 30
0.0
 11
19.102164418380081
 21
1.191986125873675
 31
0.0
  0
LINE
  5
34869
  8
0
 62
     0
 10
18.980414414662441
 20
1.0702361221560359
 30
0.0
 11
19.013414423195471
 21
1.103236130689067
 31
0.0
  0
LINE
  5
3486A
  8
0
 62
     0
 10
19.025589140259029
 20
1.1176205564438311
 30
0.0
 11
19.058589152995179
 21
1.15062056917998
 31
0.0
  0
LINE
  5
3486B
  8
0
 62
     0
 10
19.066954706432711
 20
1.1589861226175131
 30
0.0
 11
19.09995471003116
 21
1.191986126215961
 31
0.0
  0
LINE
  5
3486C
  8
0
 62
     0
 10
18.978204706221462
 20
1.0702361224062611
 30
0.0
 11
19.011204714023201
 21
1.1032361302079989
 31
0.0
  0
LINE
  5
3486D
  8
0
 62
     0
 10
19.025589140259029
 20
1.1198302651350389
 30
0.0
 11
19.058589152995179
 21
1.152830277871189
 31
0.0
  0
LINE
  5
3486E
  8
0
 62
     0
 10
19.064744997741499
 20
1.158986122617514
 30
0.0
 11
19.097745001682231
 21
1.1919861265582461
 31
0.0
  0
LINE
  5
3486F
  8
0
 62
     0
 10
18.975998514319489
 20
1.070239639195504
 30
0.0
 11
19.00899500485092
 21
1.1032361297269291
 31
0.0
  0
LINE
  5
34870
  8
0
 62
     0
 10
19.025589140259029
 20
1.1220399738262461
 30
0.0
 11
19.058735288392828
 21
1.155186121960049
 31
0.0
  0
LINE
  5
34871
  8
0
 62
     0
 10
19.062389153652639
 20
1.158839987219862
 30
0.0
 11
19.09553529333331
 21
1.1919861269005321
 31
0.0
  0
LINE
  5
34872
  8
0
 62
     0
 10
18.973958006877059
 20
1.070408840444284
 30
0.0
 11
19.00678529567864
 21
1.1032361292458599
 31
0.0
  0
LINE
  5
34873
  8
0
 62
     0
 10
19.025589140259029
 20
1.1242496825174539
 30
0.0
 11
19.093325584984392
 21
1.1919861272428169
 31
0.0
  0
LINE
  5
34874
  8
0
 62
     0
 10
18.972123266906561
 20
1.0707838091649831
 30
0.0
 11
19.004575586506359
 21
1.10323612876479
 31
0.0
  0
LINE
  5
34875
  8
0
 62
     0
 10
19.025589140259029
 20
1.126459391208662
 30
0.0
 11
19.09111587663547
 21
1.1919861275851029
 31
0.0
  0
LINE
  5
34876
  8
0
 62
     0
 10
18.970451906347229
 20
1.0713221572968621
 30
0.0
 11
19.002365877334078
 21
1.1032361282837191
 31
0.0
  0
LINE
  5
34877
  8
0
 62
     0
 10
19.025589140259029
 20
1.128669099899871
 30
0.0
 11
19.088906168286542
 21
1.19198612792739
 31
0.0
  0
LINE
  5
34878
  8
0
 62
     0
 10
18.96891883398548
 20
1.0719987936263291
 30
0.0
 11
19.000156168161809
 21
1.103236127802651
 31
0.0
  0
LINE
  5
34879
  8
0
 62
     0
 10
19.025589140259029
 20
1.1308788085910779
 30
0.0
 11
19.08669645993762
 21
1.191986128269674
 31
0.0
  0
LINE
  5
3487A
  8
0
 62
     0
 10
18.967508434163591
 20
1.072798102495647
 30
0.0
 11
18.997946458989531
 21
1.1032361273215809
 31
0.0
  0
LINE
  5
3487B
  8
0
 62
     0
 10
19.025589140259029
 20
1.133088517282286
 30
0.0
 11
19.084486751588699
 21
1.1919861286119591
 31
0.0
  0
LINE
  5
3487C
  8
0
 62
     0
 10
18.96621098988032
 20
1.073710366903585
 30
0.0
 11
18.995736749817251
 21
1.1032361268405111
 31
0.0
  0
LINE
  5
3487D
  8
0
 62
     0
 10
19.025589140259029
 20
1.1352982259734941
 30
0.0
 11
19.082277043239781
 21
1.191986128954245
 31
0.0
  0
LINE
  5
3487E
  8
0
 62
     0
 10
18.965020903734239
 20
1.074729989448703
 30
0.0
 11
18.99352704064497
 21
1.1032361263594419
 31
0.0
  0
LINE
  5
3487F
  8
0
 62
     0
 10
19.025589140259029
 20
1.137507934664701
 30
0.0
 11
19.080067334890849
 21
1.191986129296531
 31
0.0
  0
LINE
  5
34880
  8
0
 62
     0
 10
18.963935817645542
 20
1.075854612051216
 30
0.0
 11
18.99131733147269
 21
1.1032361258783701
 31
0.0
  0
LINE
  5
34881
  8
0
 62
     0
 10
19.025589140259029
 20
1.1397176433559111
 30
0.0
 11
19.077857626541931
 21
1.1919861296388159
 31
0.0
  0
LINE
  5
34882
  8
0
 62
     0
 10
18.962956272275569
 20
1.0770847753724531
 30
0.0
 11
18.98910762230042
 21
1.103236125397302
 31
0.0
  0
LINE
  5
34883
  8
0
 62
     0
 10
19.025589140259029
 20
1.141927352047118
 30
0.0
 11
19.07564791819301
 21
1.191986129981101
 31
0.0
  0
LINE
  5
34884
  8
0
 62
     0
 10
18.962085783559971
 20
1.078423995348063
 30
0.0
 11
18.986897913128139
 21
1.103236124916233
 31
0.0
  0
LINE
  5
34885
  8
0
 62
     0
 10
19.025589140259029
 20
1.1441370607383261
 30
0.0
 11
19.073438209844092
 21
1.1919861303233881
 31
0.0
  0
LINE
  5
34886
  8
0
 62
     0
 10
18.961331363080191
 20
1.079879283559491
 30
0.0
 11
18.984688203955859
 21
1.1032361244351621
 31
0.0
  0
LINE
  5
34887
  8
0
 62
     0
 10
19.025589140259029
 20
1.146346769429534
 30
0.0
 11
19.07122850149517
 21
1.191986130665674
 31
0.0
  0
LINE
  5
34888
  8
0
 62
     0
 10
18.960704676511209
 20
1.081462305681717
 30
0.0
 11
18.982478494783589
 21
1.1032361239540931
 31
0.0
  0
LINE
  5
34889
  8
0
 62
     0
 10
19.025589140259029
 20
1.1485564781207409
 30
0.0
 11
19.069018793146238
 21
1.191986131007958
 31
0.0
  0
LINE
  5
3488A
  8
0
 62
     0
 10
18.960224347286559
 20
1.083191685148271
 30
0.0
 11
18.980268785611312
 21
1.103236123473023
 31
0.0
  0
LINE
  5
3488B
  8
0
 62
     0
 10
19.025589140259029
 20
1.150766186811951
 30
0.0
 11
19.06680908479732
 21
1.191986131350244
 31
0.0
  0
LINE
  5
3488C
  8
0
 62
     0
 10
18.959920696535491
 20
1.0850977430884139
 30
0.0
 11
18.978059076439031
 21
1.1032361229919529
 31
0.0
  0
LINE
  5
3488D
  8
0
 62
     0
 10
19.025589140259019
 20
1.152975895503157
 30
0.0
 11
19.064724554155038
 21
1.192111309399168
 31
0.0
  0
LINE
  5
3488E
  8
0
 62
     0
 10
18.959846648282511
 20
1.08723340352664
 30
0.0
 11
18.97584187208605
 21
1.103228627330183
 31
0.0
  0
LINE
  5
3488F
  8
0
 62
     0
 10
19.025589140259029
 20
1.155185604194366
 30
0.0
 11
19.06303824040711
 21
1.192634704342447
 31
0.0
  0
LINE
  5
34890
  8
0
 62
     0
 10
18.96010842894751
 20
1.0897048928828439
 30
0.0
 11
18.973370382729851
 21
1.1029668466651861
 31
0.0
  0
LINE
  5
34891
  8
0
 62
     0
 10
19.025589140259029
 20
1.1573953128855741
 30
0.0
 11
19.061641237538179
 21
1.1934474101647301
 31
0.0
  0
LINE
  5
34892
  8
0
 62
     0
 10
18.960993807298319
 20
1.0927999799248671
 30
0.0
 11
18.97027529568782
 21
1.10208146831437
 31
0.0
  0
LINE
  5
34893
  8
0
 62
     0
 10
19.025589140259029
 20
1.159605021576781
 30
0.0
 11
19.060485432601919
 21
1.1945013139196701
 31
0.0
  0
LINE
  5
34894
  8
0
 62
     0
 10
19.025589140259029
 20
1.1618147302679911
 30
0.0
 11
19.059563607464192
 21
1.195789197473156
 31
0.0
  0
LINE
  5
34895
  8
0
 62
     0
 10
19.025589140259029
 20
1.164024438959198
 30
0.0
 11
19.058903211192899
 21
1.197338509893068
 31
0.0
  0
LINE
  5
34896
  8
0
 62
     0
 10
19.025589140259029
 20
1.1662341476504059
 30
0.0
 11
19.05859324992791
 21
1.1992382573192879
 31
0.0
  0
LINE
  5
34897
  8
0
 62
     0
 10
19.025589140259029
 20
1.1684438563416131
 30
0.0
 11
19.05858914404017
 21
1.2014438601227551
 31
0.0
  0
LINE
  5
34898
  8
0
 62
     0
 10
19.025589140259029
 20
1.1706535650328209
 30
0.0
 11
19.05858914404017
 21
1.2036535688139629
 31
0.0
  0
LINE
  5
34899
  8
0
 62
     0
 10
19.025589140259029
 20
1.1728632737240301
 30
0.0
 11
19.05858914404017
 21
1.205863277505171
 31
0.0
  0
LINE
  5
3489A
  8
0
 62
     0
 10
19.025589140259029
 20
1.1750729824152379
 30
0.0
 11
19.05858914404017
 21
1.208072986196379
 31
0.0
  0
LINE
  5
3489B
  8
0
 62
     0
 10
19.025589140259029
 20
1.177282691106446
 30
0.0
 11
19.05858914404017
 21
1.2102826948875871
 31
0.0
  0
LINE
  5
3489C
  8
0
 62
     0
 10
19.025589140259029
 20
1.179492399797653
 30
0.0
 11
19.05858914404017
 21
1.212492403578795
 31
0.0
  0
LINE
  5
3489D
  8
0
 62
     0
 10
19.025589140259029
 20
1.1817021084888619
 30
0.0
 11
19.05858914404017
 21
1.214702112270003
 31
0.0
  0
LINE
  5
3489E
  8
0
 62
     0
 10
19.025589140259029
 20
1.1839118171800691
 30
0.0
 11
19.05858914404017
 21
1.2169118209612111
 31
0.0
  0
LINE
  5
3489F
  8
0
 62
     0
 10
19.025589140259029
 20
1.1861215258712781
 30
0.0
 11
19.058575525442532
 21
1.2191079110547789
 31
0.0
  0
LINE
  5
348A0
  8
0
 62
     0
 10
19.025589140259029
 20
1.1883312345624859
 30
0.0
 11
19.05822439184367
 21
1.220966486147133
 31
0.0
  0
LINE
  5
348A1
  8
0
 62
     0
 10
19.025589140259029
 20
1.1905409432536931
 30
0.0
 11
19.057536263440952
 21
1.222488066435617
 31
0.0
  0
LINE
  5
348A2
  8
0
 62
     0
 10
19.025589140259029
 20
1.192750651944902
 30
0.0
 11
19.05659124547126
 21
1.2237527571571341
 31
0.0
  0
LINE
  5
348A3
  8
0
 62
     0
 10
19.025589140259029
 20
1.1949603606361081
 30
0.0
 11
19.05541296211948
 21
1.224784182496568
 31
0.0
  0
LINE
  5
348A4
  8
0
 62
     0
 10
19.025589140259029
 20
1.197170069327318
 30
0.0
 11
19.054034705206199
 21
1.2256156342744899
 31
0.0
  0
LINE
  5
348A5
  8
0
 62
     0
 10
19.025394236380411
 20
1.199184874139908
 30
0.0
 11
19.05263380603094
 21
1.2264244437904359
 31
0.0
  0
LINE
  5
348A6
  8
0
 62
     0
 10
19.024811480679439
 20
1.20081182713015
 30
0.0
 11
19.05123290685567
 21
1.227233253306381
 31
0.0
  0
LINE
  5
348A7
  8
0
 62
     0
 10
19.023952601554551
 20
1.202162656696466
 30
0.0
 11
19.049832007680411
 21
1.2280420628223261
 31
0.0
  0
LINE
  5
348A8
  8
0
 62
     0
 10
19.02285634215891
 20
1.2032761059920329
 30
0.0
 11
19.048431108505149
 21
1.2288508723382721
 31
0.0
  0
LINE
  5
348A9
  8
0
 62
     0
 10
19.02152391443737
 20
1.2041533869617009
 30
0.0
 11
19.04703020932989
 21
1.2296596818542169
 31
0.0
  0
LINE
  5
348AA
  8
0
 62
     0
 10
19.019920033934469
 20
1.2047592151500051
 30
0.0
 11
19.04562931015462
 21
1.230468491370162
 31
0.0
  0
LINE
  5
348AB
  8
0
 62
     0
 10
19.017937232731729
 20
1.204986122638473
 30
0.0
 11
19.044228410979361
 21
1.2312773008861071
 31
0.0
  0
LINE
  5
348AC
  8
0
 62
     0
 10
19.01572752434539
 20
1.204986122943345
 30
0.0
 11
19.042827511804099
 21
1.2320861104020531
 31
0.0
  0
LINE
  5
348AD
  8
0
 62
     0
 10
19.013517815959052
 20
1.2049861232482151
 30
0.0
 11
19.04142661262884
 21
1.232894919917999
 31
0.0
  0
LINE
  5
348AE
  8
0
 62
     0
 10
19.01130810757272
 20
1.2049861235530841
 30
0.0
 11
19.040025713453581
 21
1.2337037294339439
 31
0.0
  0
LINE
  5
348AF
  8
0
 62
     0
 10
19.009098399186382
 20
1.204986123857956
 30
0.0
 11
19.038624814278311
 21
1.2345125389498901
 31
0.0
  0
LINE
  5
348B0
  8
0
 62
     0
 10
19.006888690800039
 20
1.204986124162827
 30
0.0
 11
19.037223915103048
 21
1.235321348465835
 31
0.0
  0
LINE
  5
348B1
  8
0
 62
     0
 10
19.004678982413701
 20
1.204986124467696
 30
0.0
 11
19.035823015927779
 21
1.2361301579817809
 31
0.0
  0
LINE
  5
348B2
  8
0
 62
     0
 10
19.002469274027359
 20
1.2049861247725651
 30
0.0
 11
19.03442211675253
 21
1.236938967497726
 31
0.0
  0
LINE
  5
348B3
  8
0
 62
     0
 10
19.000259565641031
 20
1.204986125077435
 30
0.0
 11
19.032898332173421
 21
1.2376248916098249
 31
0.0
  0
LINE
  5
348B4
  8
0
 62
     0
 10
18.998049857254689
 20
1.204986125382308
 30
0.0
 11
19.031037038375079
 21
1.2379733065026941
 31
0.0
  0
LINE
  5
348B5
  8
0
 62
     0
 10
18.99584014886835
 20
1.2049861256871779
 30
0.0
 11
19.028840138683581
 21
1.237986115502403
 31
0.0
  0
LINE
  5
348B6
  8
0
 62
     0
 10
18.993630440482011
 20
1.204986125992048
 30
0.0
 11
19.02663043054401
 21
1.237986116054044
 31
0.0
  0
LINE
  5
348B7
  8
0
 62
     0
 10
18.99142073209568
 20
1.204986126296919
 30
0.0
 11
19.024420722404439
 21
1.237986116605684
 31
0.0
  0
LINE
  5
348B8
  8
0
 62
     0
 10
18.989211023709341
 20
1.2049861266017889
 30
0.0
 11
19.022211014264879
 21
1.2379861171573261
 31
0.0
  0
LINE
  5
348B9
  8
0
 62
     0
 10
18.987001315322999
 20
1.2049861269066591
 30
0.0
 11
19.020001306125309
 21
1.237986117708967
 31
0.0
  0
LINE
  5
348BA
  8
0
 62
     0
 10
18.98479160693666
 20
1.204986127211529
 30
0.0
 11
19.017791597985742
 21
1.2379861182606089
 31
0.0
  0
LINE
  5
348BB
  8
0
 62
     0
 10
18.982581898550329
 20
1.2049861275164
 30
0.0
 11
19.015581889846171
 21
1.2379861188122501
 31
0.0
  0
LINE
  5
348BC
  8
0
 62
     0
 10
18.98037219016399
 20
1.2049861278212699
 30
0.0
 11
19.013372181706611
 21
1.237986119363891
 31
0.0
  0
LINE
  5
348BD
  8
0
 62
     0
 10
18.978162481777652
 20
1.20498612812614
 30
0.0
 11
19.011162473567051
 21
1.237986119915532
 31
0.0
  0
LINE
  5
348BE
  8
0
 62
     0
 10
18.97595277339131
 20
1.2049861284310099
 30
0.0
 11
19.00895276542748
 21
1.2379861204671729
 31
0.0
  0
LINE
  5
348BF
  8
0
 62
     0
 10
18.973743065004982
 20
1.2049861287358821
 30
0.0
 11
19.00674305728791
 21
1.2379861210188161
 31
0.0
  0
LINE
  5
348C0
  8
0
 62
     0
 10
18.971533356618639
 20
1.2049861290407511
 30
0.0
 11
19.004533349148339
 21
1.2379861215704571
 31
0.0
  0
LINE
  5
348C1
  8
0
 62
     0
 10
18.969323648232301
 20
1.204986129345621
 30
0.0
 11
19.002323641008779
 21
1.237986122122098
 31
0.0
  0
LINE
  5
348C2
  8
0
 62
     0
 10
18.967117217231038
 20
1.2049894070355689
 30
0.0
 11
19.00011721723104
 21
1.237989407035567
 31
0.0
  0
LINE
  5
348C3
  8
0
 62
     0
 10
18.96521215385847
 20
1.205294052354202
 30
0.0
 11
18.998212153858461
 21
1.2382940523542001
 31
0.0
  0
LINE
  5
348C4
  8
0
 62
     0
 10
18.963659317561842
 20
1.205950924748781
 30
0.0
 11
18.996659317561829
 21
1.2389509247487791
 31
0.0
  0
LINE
  5
348C5
  8
0
 62
     0
 10
18.96236851381839
 20
1.206869829696543
 30
0.0
 11
18.995368513818391
 21
1.23986982969654
 31
0.0
  0
LINE
  5
348C6
  8
0
 62
     0
 10
18.961311800647959
 20
1.2080228252173251
 30
0.0
 11
18.99431180064796
 21
1.241022825217323
 31
0.0
  0
LINE
  5
348C7
  8
0
 62
     0
 10
18.960495994650209
 20
1.209416727910781
 30
0.0
 11
18.99349599465021
 21
1.242416727910779
 31
0.0
  0
LINE
  5
348C8
  8
0
 62
     0
 10
18.95996854543241
 20
1.2110989873841791
 30
0.0
 11
18.992968545432401
 21
1.244098987384177
 31
0.0
  0
LINE
  5
348C9
  8
0
 62
     0
 10
18.959839159808411
 20
1.213179310451397
 30
0.0
 11
18.992839145256429
 21
1.246179295899416
 31
0.0
  0
LINE
  5
348CA
  8
0
 62
     0
 10
18.959839159808411
 20
1.215389019142606
 30
0.0
 11
18.992839145256429
 21
1.2483890045906241
 31
0.0
  0
LINE
  5
348CB
  8
0
 62
     0
 10
18.959839159808411
 20
1.217598727833813
 30
0.0
 11
18.992839145256429
 21
1.2505987132818319
 31
0.0
  0
LINE
  5
348CC
  8
0
 62
     0
 10
18.959839159808411
 20
1.219808436525021
 30
0.0
 11
18.992839145256429
 21
1.2528084219730391
 31
0.0
  0
LINE
  5
348CD
  8
0
 62
     0
 10
18.959839159808411
 20
1.2220181452162291
 30
0.0
 11
18.992839145256429
 21
1.2550181306642469
 31
0.0
  0
LINE
  5
348CE
  8
0
 62
     0
 10
18.959839159808411
 20
1.2242278539074369
 30
0.0
 11
18.992839145256429
 21
1.2572278393554559
 31
0.0
  0
LINE
  5
348CF
  8
0
 62
     0
 10
18.959839159808411
 20
1.226437562598645
 30
0.0
 11
18.992839145256429
 21
1.2594375480466631
 31
0.0
  0
LINE
  5
348D0
  8
0
 62
     0
 10
18.959839159808411
 20
1.2286472712898531
 30
0.0
 11
18.992839145256429
 21
1.261647256737872
 31
0.0
  0
LINE
  5
348D1
  8
0
 62
     0
 10
18.959839159808411
 20
1.2308569799810609
 30
0.0
 11
18.992839145256429
 21
1.2638569654290781
 31
0.0
  0
LINE
  5
348D2
  8
0
 62
     0
 10
18.959839159808411
 20
1.2330666886722681
 30
0.0
 11
18.992818243337169
 21
1.266045772201027
 31
0.0
  0
LINE
  5
348D3
  8
0
 62
     0
 10
18.959839159808411
 20
1.2352763973634759
 30
0.0
 11
18.9924458193154
 21
1.2678830568704671
 31
0.0
  0
LINE
  5
348D4
  8
0
 62
     0
 10
18.959839159808411
 20
1.2374861060546849
 30
0.0
 11
18.991743043880451
 21
1.269389990126726
 31
0.0
  0
LINE
  5
348D5
  8
0
 62
     0
 10
18.959839159808411
 20
1.239695814745893
 30
0.0
 11
18.990785624263982
 21
1.2706422792014569
 31
0.0
  0
LINE
  5
348D6
  8
0
 62
     0
 10
18.959839159808411
 20
1.241905523437101
 30
0.0
 11
18.989595199626621
 21
1.271661563255311
 31
0.0
  0
LINE
  5
348D7
  8
0
 62
     0
 10
18.959839159808411
 20
1.244115232128308
 30
0.0
 11
18.988159540512768
 21
1.272435612832671
 31
0.0
  0
LINE
  5
348D8
  8
0
 62
     0
 10
18.959839159808411
 20
1.2463249408195161
 30
0.0
 11
18.98642179005039
 21
1.2729075710614941
 31
0.0
  0
LINE
  5
348D9
  8
0
 62
     0
 10
18.959839159808411
 20
1.248534649510725
 30
0.0
 11
18.984290626040721
 21
1.2729861157430311
 31
0.0
  0
LINE
  5
348DA
  8
0
 62
     0
 10
18.959839159808411
 20
1.2507443582019331
 30
0.0
 11
18.98208091734951
 21
1.2729861157430311
 31
0.0
  0
LINE
  5
348DB
  8
0
 62
     0
 10
18.959839159808411
 20
1.25295406689314
 30
0.0
 11
18.979871208658299
 21
1.2729861157430311
 31
0.0
  0
LINE
  5
348DC
  8
0
 62
     0
 10
18.959839159808411
 20
1.2551637755843481
 30
0.0
 11
18.977661499967098
 21
1.2729861157430311
 31
0.0
  0
LINE
  5
348DD
  8
0
 62
     0
 10
18.959839159808411
 20
1.257373484275556
 30
0.0
 11
18.975451791275891
 21
1.2729861157430311
 31
0.0
  0
LINE
  5
348DE
  8
0
 62
     0
 10
18.959839159808411
 20
1.259583192966764
 30
0.0
 11
18.973242082584679
 21
1.272986115743032
 31
0.0
  0
LINE
  5
348DF
  8
0
 62
     0
 10
18.959839159808411
 20
1.2617929016579721
 30
0.0
 11
18.971032373893468
 21
1.272986115743032
 31
0.0
  0
LINE
  5
348E0
  8
0
 62
     0
 10
18.959839159808411
 20
1.2640026103491799
 30
0.0
 11
18.968822665202271
 21
1.272986115743032
 31
0.0
  0
LINE
  5
348E1
  8
0
 62
     0
 10
18.959878305044359
 20
1.2662514642763349
 30
0.0
 11
18.96657381133636
 21
1.2729469705683369
 31
0.0
  0
LINE
  5
348E2
  8
0
 62
     0
 10
18.961173571709601
 20
1.269756439632783
 30
0.0
 11
18.963068835979911
 21
1.2716517039030959
 31
0.0
  0
ENDBLK
  5
348E4
  8
0
  0
BLOCK
  8
0
  2
*X7
 70
     1
 10
0.0
 20
0.0
 30
0.0
  3
*X7
  1

  0
LINE
  5
348E6
  8
0
 62
     0
 10
19.65808914468478
 20
1.1782511945012151
 30
0.0
 11
19.654604223195399
 21
1.181736115990601
 31
0.0
  0
LINE
  5
348E7
  8
0
 62
     0
 10
19.65808914468478
 20
1.176041485810007
 30
0.0
 11
19.652394514504191
 21
1.181736115990601
 31
0.0
  0
LINE
  5
348E8
  8
0
 62
     0
 10
19.65808914468478
 20
1.1738317771187989
 30
0.0
 11
19.65021322514308
 21
1.181707696660508
 31
0.0
  0
LINE
  5
348E9
  8
0
 62
     0
 10
19.658089144684791
 20
1.1716220684275911
 30
0.0
 11
19.648765274995441
 21
1.180945938116938
 31
0.0
  0
LINE
  5
348EA
  8
0
 62
     0
 10
19.65808914468478
 20
1.1694123597363839
 30
0.0
 11
19.648094967935201
 21
1.1794065364859749
 31
0.0
  0
LINE
  5
348EB
  8
0
 62
     0
 10
19.658089144684791
 20
1.1672026510451761
 30
0.0
 11
19.64808915299518
 21
1.1772026427347859
 31
0.0
  0
LINE
  5
348EC
  8
0
 62
     0
 10
19.65808914468478
 20
1.164992942353968
 30
0.0
 11
19.648089152995169
 21
1.1749929340435781
 31
0.0
  0
LINE
  5
348ED
  8
0
 62
     0
 10
19.65808914468478
 20
1.1627832336627599
 30
0.0
 11
19.64808915299518
 21
1.17278322535237
 31
0.0
  0
LINE
  5
348EE
  8
0
 62
     0
 10
19.65808914468478
 20
1.1605735249715521
 30
0.0
 11
19.648089152995169
 21
1.170573516661163
 31
0.0
  0
LINE
  5
348EF
  8
0
 62
     0
 10
19.65808914468478
 20
1.1583638162803449
 30
0.0
 11
19.64808915299518
 21
1.168363807969955
 31
0.0
  0
LINE
  5
348F0
  8
0
 62
     0
 10
19.65808914468478
 20
1.1561541075891371
 30
0.0
 11
19.64808915299518
 21
1.1661540992787469
 31
0.0
  0
LINE
  5
348F1
  8
0
 62
     0
 10
19.65808914468478
 20
1.1539443988979281
 30
0.0
 11
19.648089152995169
 21
1.1639443905875391
 31
0.0
  0
LINE
  5
348F2
  8
0
 62
     0
 10
19.658089144684791
 20
1.1517346902067189
 30
0.0
 11
19.64808915299518
 21
1.1617346818963299
 31
0.0
  0
LINE
  5
348F3
  8
0
 62
     0
 10
19.65808914468478
 20
1.149524981515512
 30
0.0
 11
19.648089152995169
 21
1.159524973205122
 31
0.0
  0
LINE
  5
348F4
  8
0
 62
     0
 10
19.658089144684791
 20
1.1473152728243039
 30
0.0
 11
19.64808915299518
 21
1.1573152645139151
 31
0.0
  0
LINE
  5
348F5
  8
0
 62
     0
 10
19.65808914468478
 20
1.1451055641330961
 30
0.0
 11
19.648089152995169
 21
1.155105555822707
 31
0.0
  0
LINE
  5
348F6
  8
0
 62
     0
 10
19.658089144684791
 20
1.1428958554418891
 30
0.0
 11
19.64808915299518
 21
1.1528958471315001
 31
0.0
  0
LINE
  5
348F7
  8
0
 62
     0
 10
19.65808914468478
 20
1.1406861467506799
 30
0.0
 11
19.648089152995169
 21
1.1506861384402911
 31
0.0
  0
LINE
  5
348F8
  8
0
 62
     0
 10
19.65808914468478
 20
1.1384764380594721
 30
0.0
 11
19.648089152995169
 21
1.148476429749083
 31
0.0
  0
LINE
  5
348F9
  8
0
 62
     0
 10
19.65808914468478
 20
1.1362667293682649
 30
0.0
 11
19.648089152995169
 21
1.1462667210578761
 31
0.0
  0
LINE
  5
348FA
  8
0
 62
     0
 10
19.65808315240297
 20
1.134063012958872
 30
0.0
 11
19.648089152995169
 21
1.144057012366668
 31
0.0
  0
LINE
  5
348FB
  8
0
 62
     0
 10
19.65741163619013
 20
1.132524820480507
 30
0.0
 11
19.648089152995169
 21
1.1418473036754611
 31
0.0
  0
LINE
  5
348FC
  8
0
 62
     0
 10
19.655962578688978
 20
1.131764169290443
 30
0.0
 11
19.648089152995169
 21
1.139637594984251
 31
0.0
  0
LINE
  5
348FD
  8
0
 62
     0
 10
19.653780911266399
 20
1.1317361280218221
 30
0.0
 11
19.648089152995169
 21
1.137427886293044
 31
0.0
  0
LINE
  5
348FE
  8
0
 62
     0
 10
19.651571202575191
 20
1.1317361280218221
 30
0.0
 11
19.648089152995169
 21
1.135218177601836
 31
0.0
  0
LINE
  5
348FF
  8
0
 62
     0
 10
19.658056815524649
 20
1.076636923865782
 30
0.0
 11
19.655989954243449
 21
1.0787037851469901
 31
0.0
  0
LINE
  5
34900
  8
0
 62
     0
 10
19.658089144684791
 20
1.0743948860144401
 30
0.0
 11
19.653747908081719
 21
1.0787361226175121
 31
0.0
  0
LINE
  5
34901
  8
0
 62
     0
 10
19.658089144684791
 20
1.072185177323232
 30
0.0
 11
19.651538199390512
 21
1.078736122617511
 31
0.0
  0
LINE
  5
34902
  8
0
 62
     0
 10
19.658089144684791
 20
1.0699754686320251
 30
0.0
 11
19.649553222102799
 21
1.0785113912140121
 31
0.0
  0
LINE
  5
34903
  8
0
 62
     0
 10
19.658089144684791
 20
1.067765759940817
 30
0.0
 11
19.648404086612612
 21
1.07745081801299
 31
0.0
  0
LINE
  5
34904
  8
0
 62
     0
 10
19.658089144684791
 20
1.0655560512496089
 30
0.0
 11
19.64808915299518
 21
1.0755560429392199
 31
0.0
  0
LINE
  5
34905
  8
0
 62
     0
 10
19.658089144684791
 20
1.0633463425584011
 30
0.0
 11
19.64808915299518
 21
1.0733463342480141
 31
0.0
  0
LINE
  5
34906
  8
0
 62
     0
 10
19.658089144684791
 20
1.0611366338671919
 30
0.0
 11
19.64808915299518
 21
1.0711366255568029
 31
0.0
  0
LINE
  5
34907
  8
0
 62
     0
 10
19.658089144684791
 20
1.058926925175985
 30
0.0
 11
19.64808915299518
 21
1.0689269168655959
 31
0.0
  0
LINE
  5
34908
  8
0
 62
     0
 10
19.65808914468478
 20
1.056717216484776
 30
0.0
 11
19.648089152995169
 21
1.0667172081743881
 31
0.0
  0
LINE
  5
34909
  8
0
 62
     0
 10
19.658089144684791
 20
1.0545075077935691
 30
0.0
 11
19.64808915299518
 21
1.06450749948318
 31
0.0
  0
LINE
  5
3490A
  8
0
 62
     0
 10
19.65808914468478
 20
1.052297799102361
 30
0.0
 11
19.648089152995169
 21
1.0622977907919731
 31
0.0
  0
LINE
  5
3490B
  8
0
 62
     0
 10
19.658089144684791
 20
1.0500880904111529
 30
0.0
 11
19.64808915299518
 21
1.060088082100765
 31
0.0
  0
LINE
  5
3490C
  8
0
 62
     0
 10
19.65808914468478
 20
1.047878381719946
 30
0.0
 11
19.648089152995169
 21
1.0578783734095569
 31
0.0
  0
LINE
  5
3490D
  8
0
 62
     0
 10
19.65808914468478
 20
1.0456686730287379
 30
0.0
 11
19.648089152995169
 21
1.05566866471835
 31
0.0
  0
LINE
  5
3490E
  8
0
 62
     0
 10
19.658089144684791
 20
1.04345896433753
 30
0.0
 11
19.648089152995169
 21
1.053458956027141
 31
0.0
  0
LINE
  5
3490F
  8
0
 62
     0
 10
19.65808914468478
 20
1.0412492556463231
 30
0.0
 11
19.648089152995169
 21
1.0512492473359341
 31
0.0
  0
LINE
  5
34910
  8
0
 62
     0
 10
19.658089144684791
 20
1.0390395469551139
 30
0.0
 11
19.648089152995169
 21
1.049039538644726
 31
0.0
  0
LINE
  5
34911
  8
0
 62
     0
 10
19.658089144684791
 20
1.0368298382639061
 30
0.0
 11
19.648089152995169
 21
1.046829829953517
 31
0.0
  0
LINE
  5
34912
  8
0
 62
     0
 10
19.658089144684791
 20
1.0346201295726969
 30
0.0
 11
19.648089152995169
 21
1.044620121262309
 31
0.0
  0
LINE
  5
34913
  8
0
 62
     0
 10
19.65808914468478
 20
1.0324104208814899
 30
0.0
 11
19.648089152995169
 21
1.0424104125711009
 31
0.0
  0
LINE
  5
34914
  8
0
 62
     0
 10
19.657930403051431
 20
1.030359453823646
 30
0.0
 11
19.64808915299518
 21
1.0402007038798931
 31
0.0
  0
LINE
  5
34915
  8
0
 62
     0
 10
19.656944650702911
 20
1.029135497480953
 30
0.0
 11
19.648089152995169
 21
1.037990995188685
 31
0.0
  0
LINE
  5
34916
  8
0
 62
     0
 10
19.655134316875131
 20
1.028736122617528
 30
0.0
 11
19.64808915299518
 21
1.035781286497478
 31
0.0
  0
LINE
  5
34917
  8
0
 62
     0
 10
19.65292460818393
 20
1.0287361226175209
 30
0.0
 11
19.648089152995169
 21
1.03357157780627
 31
0.0
  0
LINE
  5
34918
  8
0
 62
     0
 10
19.650714899492719
 20
1.0287361226175129
 30
0.0
 11
19.648089152995169
 21
1.031361869115063
 31
0.0
  0
LINE
  5
34919
  8
0
 62
     0
 10
19.658089144684791
 20
0.9727482862188746
 30
0.0
 11
19.65510132518337
 21
0.9757361057202986
 31
0.0
  0
LINE
  5
3491A
  8
0
 62
     0
 10
19.658089144684791
 20
0.9705385775276669
 30
0.0
 11
19.652891616492159
 21
0.9757361057202995
 31
0.0
  0
LINE
  5
3491B
  8
0
 62
     0
 10
19.658089144684791
 20
0.9683288688364575
 30
0.0
 11
19.650681907800951
 21
0.9757361057202995
 31
0.0
  0
LINE
  5
3491C
  8
0
 62
     0
 10
19.658089144684791
 20
0.9661191601452499
 30
0.0
 11
19.649023305331959
 21
0.9751849994980767
 31
0.0
  0
LINE
  5
3491D
  8
0
 62
     0
 10
19.65808914468478
 20
0.9639094514540422
 30
0.0
 11
19.648162270881919
 21
0.9738363252569116
 31
0.0
  0
LINE
  5
3491E
  8
0
 62
     0
 10
19.658089144684791
 20
0.9616997427628347
 30
0.0
 11
19.64808915299518
 21
0.9716997344524465
 31
0.0
  0
LINE
  5
3491F
  8
0
 62
     0
 10
19.658089144684791
 20
0.9594900340716261
 30
0.0
 11
19.648089152995169
 21
0.9694900257612379
 31
0.0
  0
LINE
  5
34920
  8
0
 62
     0
 10
19.658089144684791
 20
0.9572803253804194
 30
0.0
 11
19.64808915299518
 21
0.9672803170700303
 31
0.0
  0
LINE
  5
34921
  8
0
 62
     0
 10
19.658089144684791
 20
0.9550706166892108
 30
0.0
 11
19.648089152995169
 21
0.9650706083788228
 31
0.0
  0
LINE
  5
34922
  8
0
 62
     0
 10
19.658089144684791
 20
0.9528609079980032
 30
0.0
 11
19.64808915299518
 21
0.9628608996876142
 31
0.0
  0
LINE
  5
34923
  8
0
 62
     0
 10
19.65808914468478
 20
0.9506511993067965
 30
0.0
 11
19.64808915299518
 21
0.9606511909964075
 31
0.0
  0
LINE
  5
34924
  8
0
 62
     0
 10
19.658089144684791
 20
0.948441490615588
 30
0.0
 11
19.64808915299518
 21
0.9584414823051989
 31
0.0
  0
LINE
  5
34925
  8
0
 62
     0
 10
19.658089144684791
 20
0.9462317819243803
 30
0.0
 11
19.64808915299518
 21
0.9562317736139913
 31
0.0
  0
LINE
  5
34926
  8
0
 62
     0
 10
19.658089144684791
 20
0.9440220732331709
 30
0.0
 11
19.64808915299518
 21
0.9540220649227819
 31
0.0
  0
LINE
  5
34927
  8
0
 62
     0
 10
19.658089144684791
 20
0.9418123645419633
 30
0.0
 11
19.64808915299518
 21
0.9518123562315735
 31
0.0
  0
LINE
  5
34928
  8
0
 62
     0
 10
19.65808914468478
 20
0.9396026558507558
 30
0.0
 11
19.648089152995169
 21
0.9496026475403667
 31
0.0
  0
LINE
  5
34929
  8
0
 62
     0
 10
19.658089144684791
 20
0.9373929471595481
 30
0.0
 11
19.64808915299518
 21
0.9473929388491582
 31
0.0
  0
LINE
  5
3492A
  8
0
 62
     0
 10
19.65808914468478
 20
0.9351832384683405
 30
0.0
 11
19.648089152995169
 21
0.9451832301579505
 31
0.0
  0
LINE
  5
3492B
  8
0
 62
     0
 10
19.658089144684791
 20
0.9329735297771328
 30
0.0
 11
19.64808915299518
 21
0.9429735214667429
 31
0.0
  0
LINE
  5
3492C
  8
0
 62
     0
 10
19.65808914468478
 20
0.9307638210859243
 30
0.0
 11
19.64808915299518
 21
0.9407638127755345
 31
0.0
  0
LINE
  5
3492D
  8
0
 62
     0
 10
19.65808914468478
 20
0.9285541123947176
 30
0.0
 11
19.64808915299518
 21
0.9385541040843268
 31
0.0
  0
LINE
  5
3492E
  8
0
 62
     0
 10
19.65763469716337
 20
0.9267988512249232
 30
0.0
 11
19.64808915299518
 21
0.9363443953931191
 31
0.0
  0
LINE
  5
3492F
  8
0
 62
     0
 10
19.65636445875295
 20
0.9258593809441376
 30
0.0
 11
19.64808915299518
 21
0.9341346867019115
 31
0.0
  0
LINE
  5
34930
  8
0
 62
     0
 10
19.654278008388371
 20
0.9257361226175132
 30
0.0
 11
19.64808915299518
 21
0.931924978010703
 31
0.0
  0
LINE
  5
34931
  8
0
 62
     0
 10
19.652068299697159
 20
0.9257361226175113
 30
0.0
 11
19.648089152995169
 21
0.9297152693194946
 31
0.0
  0
LINE
  5
34932
  8
0
 62
     0
 10
19.649692111033509
 20
0.9259026025899554
 30
0.0
 11
19.648255632967619
 21
0.927339080655841
 31
0.0
  0
LINE
  5
34933
  8
0
 62
     0
 10
19.083589152995181
 20
1.1539201308734679
 30
0.0
 11
19.081023161251132
 21
1.156486122617516
 31
0.0
  0
LINE
  5
34934
  8
0
 62
     0
 10
19.083589152995181
 20
1.1517104221822621
 30
0.0
 11
19.07881345255992
 21
1.156486122617516
 31
0.0
  0
LINE
  5
34935
  8
0
 62
     0
 10
19.083589152995181
 20
1.1495007134910531
 30
0.0
 11
19.076603743868709
 21
1.156486122617516
 31
0.0
  0
LINE
  5
34936
  8
0
 62
     0
 10
19.083589152995181
 20
1.147291004799845
 30
0.0
 11
19.074394035177509
 21
1.156486122617516
 31
0.0
  0
LINE
  5
34937
  8
0
 62
     0
 10
19.083589152995181
 20
1.145081296108635
 30
0.0
 11
19.072184326486301
 21
1.1564861226175129
 31
0.0
  0
LINE
  5
34938
  8
0
 62
     0
 10
19.08358915299517
 20
1.142871587417428
 30
0.0
 11
19.06997461779509
 21
1.1564861226175109
 31
0.0
  0
LINE
  5
34939
  8
0
 62
     0
 10
19.083589152995181
 20
1.1406618787262199
 30
0.0
 11
19.067764909103889
 21
1.1564861226175109
 31
0.0
  0
LINE
  5
3493A
  8
0
 62
     0
 10
19.083589152995181
 20
1.138452170035011
 30
0.0
 11
19.065555200412678
 21
1.1564861226175109
 31
0.0
  0
LINE
  5
3493B
  8
0
 62
     0
 10
19.083589152995181
 20
1.136242461343804
 30
0.0
 11
19.06335635436162
 21
1.1564752599773651
 31
0.0
  0
LINE
  5
3493C
  8
0
 62
     0
 10
19.083589152995181
 20
1.134032752652596
 30
0.0
 11
19.061844854816918
 21
1.155777050830852
 31
0.0
  0
LINE
  5
3493D
  8
0
 62
     0
 10
19.083589152995181
 20
1.1318230439613881
 30
0.0
 11
19.06110930301427
 21
1.1543028939422939
 31
0.0
  0
LINE
  5
3493E
  8
0
 62
     0
 10
19.083589152995181
 20
1.12961333527018
 30
0.0
 11
19.06108915299518
 21
1.152113335270182
 31
0.0
  0
LINE
  5
3493F
  8
0
 62
     0
 10
19.083589152995181
 20
1.127403626578972
 30
0.0
 11
19.06108915299518
 21
1.1499036265789739
 31
0.0
  0
LINE
  5
34940
  8
0
 62
     0
 10
19.083589152995181
 20
1.125193917887765
 30
0.0
 11
19.06108915299518
 21
1.1476939178877661
 31
0.0
  0
LINE
  5
34941
  8
0
 62
     0
 10
19.083589152995181
 20
1.1229842091965549
 30
0.0
 11
19.06108915299518
 21
1.145484209196556
 31
0.0
  0
LINE
  5
34942
  8
0
 62
     0
 10
19.083589152995181
 20
1.1207745005053471
 30
0.0
 11
19.06108915299518
 21
1.1432745005053491
 31
0.0
  0
LINE
  5
34943
  8
0
 62
     0
 10
19.083589152995181
 20
1.118564791814139
 30
0.0
 11
19.061089152995169
 21
1.141064791814141
 31
0.0
  0
LINE
  5
34944
  8
0
 62
     0
 10
19.083589152995181
 20
1.1163550831229321
 30
0.0
 11
19.06108915299518
 21
1.1388550831229329
 31
0.0
  0
LINE
  5
34945
  8
0
 62
     0
 10
19.083589152995181
 20
1.1141453744317229
 30
0.0
 11
19.061089152995169
 21
1.136645374431726
 31
0.0
  0
LINE
  5
34946
  8
0
 62
     0
 10
19.083589152995181
 20
1.1119356657405151
 30
0.0
 11
19.06108915299518
 21
1.134435665740517
 31
0.0
  0
LINE
  5
34947
  8
0
 62
     0
 10
19.083589152995181
 20
1.1097259570493081
 30
0.0
 11
19.06108915299518
 21
1.1322259570493101
 31
0.0
  0
LINE
  5
34948
  8
0
 62
     0
 10
19.083295283646379
 20
1.107810117706894
 30
0.0
 11
19.06108915299518
 21
1.130016248358102
 31
0.0
  0
LINE
  5
34949
  8
0
 62
     0
 10
19.082165838647121
 20
1.1067298540149511
 30
0.0
 11
19.06108915299518
 21
1.1278065396668939
 31
0.0
  0
LINE
  5
3494A
  8
0
 62
     0
 10
19.08019984425902
 20
1.106486139711842
 30
0.0
 11
19.06108915299518
 21
1.1255968309756861
 31
0.0
  0
LINE
  5
3494B
  8
0
 62
     0
 10
19.077990135567809
 20
1.106486139711842
 30
0.0
 11
19.06108915299518
 21
1.1233871222844789
 31
0.0
  0
LINE
  5
3494C
  8
0
 62
     0
 10
19.075780426876602
 20
1.106486139711842
 30
0.0
 11
19.06108915299518
 21
1.1211774135932691
 31
0.0
  0
LINE
  5
3494D
  8
0
 62
     0
 10
19.07357071818539
 20
1.106486139711842
 30
0.0
 11
19.06108915299518
 21
1.118967704902061
 31
0.0
  0
LINE
  5
3494E
  8
0
 62
     0
 10
19.07136100949419
 20
1.106486139711842
 30
0.0
 11
19.061089152995169
 21
1.116757996210854
 31
0.0
  0
LINE
  5
3494F
  8
0
 62
     0
 10
19.069151300802979
 20
1.106486139711842
 30
0.0
 11
19.06108915299518
 21
1.1145482875196451
 31
0.0
  0
LINE
  5
34950
  8
0
 62
     0
 10
19.066941592111771
 20
1.106486139711842
 30
0.0
 11
19.06108915299518
 21
1.1123385788284379
 31
0.0
  0
LINE
  5
34951
  8
0
 62
     0
 10
19.06473188342056
 20
1.106486139711842
 30
0.0
 11
19.06108915299518
 21
1.1101288701372301
 31
0.0
  0
LINE
  5
34952
  8
0
 62
     0
 10
19.083407164315599
 20
0.9994225111684889
 30
0.0
 11
19.082025541546159
 21
1.000804133937931
 31
0.0
  0
LINE
  5
34953
  8
0
 62
     0
 10
19.083589152995181
 20
0.9970308137977018
 30
0.0
 11
19.079633844175358
 21
1.0009861226175161
 31
0.0
  0
LINE
  5
34954
  8
0
 62
     0
 10
19.083589152995181
 20
0.9948211051064941
 30
0.0
 11
19.077424135484161
 21
1.000986122617515
 31
0.0
  0
LINE
  5
34955
  8
0
 62
     0
 10
19.083589152995181
 20
0.9926113964152865
 30
0.0
 11
19.07521442679295
 21
1.000986122617515
 31
0.0
  0
LINE
  5
34956
  8
0
 62
     0
 10
19.083589152995181
 20
0.9904016877240779
 30
0.0
 11
19.073004718101739
 21
1.0009861226175161
 31
0.0
  0
LINE
  5
34957
  8
0
 62
     0
 10
19.083589152995181
 20
0.9881919790328712
 30
0.0
 11
19.070795009410531
 21
1.000986122617515
 31
0.0
  0
LINE
  5
34958
  8
0
 62
     0
 10
19.083589152995181
 20
0.9859822703416628
 30
0.0
 11
19.06858530071932
 21
1.000986122617515
 31
0.0
  0
LINE
  5
34959
  8
0
 62
     0
 10
19.083589152995181
 20
0.9837725616504551
 30
0.0
 11
19.06637559202812
 21
1.0009861226175161
 31
0.0
  0
LINE
  5
3495A
  8
0
 62
     0
 10
19.083589152995181
 20
0.9815628529592457
 30
0.0
 11
19.064165883336909
 21
1.000986122617513
 31
0.0
  0
LINE
  5
3495B
  8
0
 62
     0
 10
19.083589152995181
 20
0.9793531442680381
 30
0.0
 11
19.062308876096019
 21
1.000633421167197
 31
0.0
  0
LINE
  5
3495C
  8
0
 62
     0
 10
19.083589152995181
 20
0.9771434355768304
 30
0.0
 11
19.061282481410601
 21
0.9994501071614125
 31
0.0
  0
LINE
  5
3495D
  8
0
 62
     0
 10
19.083589152995181
 20
0.9749337268856219
 30
0.0
 11
19.06108915299518
 21
0.9974337268856228
 31
0.0
  0
LINE
  5
3495E
  8
0
 62
     0
 10
19.083589152995181
 20
0.9727240181944143
 30
0.0
 11
19.06108915299518
 21
0.9952240181944151
 31
0.0
  0
LINE
  5
3495F
  8
0
 62
     0
 10
19.083589152995181
 20
0.9705143095032067
 30
0.0
 11
19.06108915299518
 21
0.9930143095032066
 31
0.0
  0
LINE
  5
34960
  8
0
 62
     0
 10
19.083589152995181
 20
0.968304600811999
 30
0.0
 11
19.06108915299518
 21
0.990804600812
 31
0.0
  0
LINE
  5
34961
  8
0
 62
     0
 10
19.083589152995181
 20
0.9660948921207914
 30
0.0
 11
19.06108915299518
 21
0.9885948921207914
 31
0.0
  0
LINE
  5
34962
  8
0
 62
     0
 10
19.083589152995181
 20
0.9638851834295829
 30
0.0
 11
19.06108915299518
 21
0.9863851834295838
 31
0.0
  0
LINE
  5
34963
  8
0
 62
     0
 10
19.083589152995181
 20
0.9616754747383753
 30
0.0
 11
19.06108915299518
 21
0.9841754747383761
 31
0.0
  0
LINE
  5
34964
  8
0
 62
     0
 10
19.083589152995181
 20
0.9594657660471659
 30
0.0
 11
19.06108915299518
 21
0.9819657660471667
 31
0.0
  0
LINE
  5
34965
  8
0
 62
     0
 10
19.083589152995181
 20
0.9572560573559583
 30
0.0
 11
19.06108915299518
 21
0.9797560573559591
 31
0.0
  0
LINE
  5
34966
  8
0
 62
     0
 10
19.083589152995181
 20
0.9550463486647506
 30
0.0
 11
19.06108915299518
 21
0.9775463486647515
 31
0.0
  0
LINE
  5
34967
  8
0
 62
     0
 10
19.083520697296422
 20
0.9529050956722961
 30
0.0
 11
19.06108915299518
 21
0.9753366399735439
 31
0.0
  0
LINE
  5
34968
  8
0
 62
     0
 10
19.082668177637998
 20
0.9515479066395151
 30
0.0
 11
19.06108915299518
 21
0.9731269312823362
 31
0.0
  0
LINE
  5
34969
  8
0
 62
     0
 10
19.081020252968791
 20
0.9509861226175155
 30
0.0
 11
19.06108915299518
 21
0.9709172225911277
 31
0.0
  0
LINE
  5
3496A
  8
0
 62
     0
 10
19.07881054427758
 20
0.9509861226175155
 30
0.0
 11
19.06108915299518
 21
0.9687075138999211
 31
0.0
  0
LINE
  5
3496B
  8
0
 62
     0
 10
19.076600835586369
 20
0.9509861226175138
 30
0.0
 11
19.06108915299518
 21
0.9664978052087125
 31
0.0
  0
LINE
  5
3496C
  8
0
 62
     0
 10
19.074391126895168
 20
0.9509861226175138
 30
0.0
 11
19.06108915299518
 21
0.9642880965175049
 31
0.0
  0
LINE
  5
3496D
  8
0
 62
     0
 10
19.072181418203961
 20
0.9509861226175138
 30
0.0
 11
19.06108915299518
 21
0.9620783878262972
 31
0.0
  0
LINE
  5
3496E
  8
0
 62
     0
 10
19.06997170951276
 20
0.9509861226175129
 30
0.0
 11
19.06108915299518
 21
0.9598686791350896
 31
0.0
  0
LINE
  5
3496F
  8
0
 62
     0
 10
19.067762000821549
 20
0.9509861226175111
 30
0.0
 11
19.06108915299518
 21
0.9576589704438802
 31
0.0
  0
LINE
  5
34970
  8
0
 62
     0
 10
19.065552292130342
 20
0.9509861226175111
 30
0.0
 11
19.061089152995169
 21
0.9554492617526726
 31
0.0
  0
LINE
  5
34971
  8
0
 62
     0
 10
19.06332901192685
 20
0.9509996941297914
 30
0.0
 11
19.06110272450746
 21
0.9532259815491893
 31
0.0
  0
ENDBLK
  5
34973
  8
0
  0
ENDSEC
  0
SECTION
  2
ENTITIES
  0
INSERT
  5
343B0
  8
0
  6
CONTINUOUS
  2
*X6
 10
0.0
 20
0.0
 30
0.0
1001
GRADIENTCOLOR1ACI
1070
     5
1001
GRADIENTCOLOR2ACI
1070
     2
1001
ACAD
1000
HATCH
1002
{
1070
    19
1000
ANSI31
1040
0.0125
1040
0.0
1000
R14_HATCH_DATA
1000
343B0
1011
1.0
1021
0.0
1031
0.0
1021
0.0
1031
0.0
1011
0.0
1021
0.0
1031
0.0
1021
1.0
1031
0.0
1011
0.0
1021
0.0
1031
0.0
1021
0.0
1031
1.0
1040
0.0
1010
0.0
1020
0.0
1030
1.0
1000
ANSI31
1070
     0
1070
     0
1071
        2
1071
        7
1070
     1
1070
     1
1071
       81
1040
19.140839152995181
1040
1.0896428914435441
1040
0.3738848422901155
1040
19.126635499825461
1040
1.1059823158898059
1040
0.0
1040
19.08747387536129
1040
1.111486109738216
1040
0.0
1040
19.08608915635768
1040
1.111486109738216
1040
0.0
1040
19.086089152995179
1040
1.1089861226175139
1040
-0.4134478812424752
1040
19.081102227512321
1040
1.103986139711842
1040
0.0
1040
19.06360222751232
1040
1.103986139711842
1040
-0.4149796582823617
1040
19.058589152995179
1040
1.1089861226175139
1040
0.0
1040
19.058589152995179
1040
1.1539861216225129
1040
-0.4142136206588904
1040
19.063589152995181
1040
1.158986122617514
1040
0.0
1040
19.081089151548579
1040
1.158986122617514
1040
-0.4142136471131203
1040
19.086089152995179
1040
1.153986122617513
1040
0.0
1040
19.08608915635768
1040
1.1539861354409591
1040
0.0
1040
19.08608915635768
1040
1.1514861209880061
1040
0.0
1040
19.08747387536129
1040
1.1514861209880061
1040
0.0
1040
19.12566240116222
1040
1.1568531810408511
1040
0.9319775943449881
1040
19.123185360598111
1040
1.1919861226175139
1040
0.0
1040
19.066100669803792
1040
1.191986131459978
1040
-0.4146633934538676
1040
19.058589152995179
1040
1.199486122617514
1040
0.0
1040
19.05858914404017
1040
1.1994861198212561
1040
0.0
1040
19.05858914404017
1040
1.2186675854684881
1040
0.2675351824816371
1040
19.054839152666698
1040
1.2251511863166229
1040
0.0
1040
19.034348772963071
1040
1.236981312554307
1040
0.1320134684332024
1040
19.030588128994211
1040
1.2379861150660261
1040
0.0
1040
19.000339152995181
1040
1.2379861226175131
1040
-0.4142135623730948
1040
18.992839152995181
1040
1.245486122617514
1040
0.0
1040
18.992839145256429
1040
1.2454861217586419
1040
0.0
1040
18.992839145256429
1040
1.2654968967144471
1040
0.4141893721697903
1040
18.985328998331841
1040
1.2729861157430311
1040
0.0
1040
18.96732899833184
1040
1.2729861157430311
1040
0.4142117918358472
1040
18.959839159808411
1040
1.2654760132916061
1040
0.0
1040
18.959839159808411
1040
1.212476013291625
1040
0.4142189509742967
1040
18.967349400304439
1040
1.2049861296180071
1040
0.0
1040
19.018089152995181
1040
1.204986122617514
1040
-0.4136738902139732
1040
19.025589140259029
1040
1.1974999444159891
1040
0.0
1040
19.025589140259029
1040
1.1107499444159901
1040
-0.4142972829812178
1040
19.01810083105995
1040
1.103236131709332
1040
0.0
1040
18.97633915299518
1040
1.103236122617514
1040
0.4142135623730832
1040
18.95983915299518
1040
1.0867361226175141
1040
0.4142135623730992
1040
18.97633915299518
1040
1.0702361226175141
1040
0.0
1040
19.09131842468139
1040
1.070236109597418
1040
-0.4145815608123097
1040
19.107839152995179
1040
1.0537361226175139
1040
-0.4140874542220385
1040
19.091346257554331
1040
1.037236124147052
1040
0.0
1040
18.97633915299518
1040
1.0372361226175131
1040
0.4142135623730911
1040
18.95983915299518
1040
1.0207361226175129
1040
0.4146225486438083
1040
18.976362189702481
1040
1.0042361386990331
1040
0.0
1040
19.018089152995181
1040
1.004236122617514
1040
-0.4136738902139735
1040
19.025589140259029
1040
0.99674994441599
1040
0.0
1040
19.025589140259029
1040
0.9099999444159896
1040
-0.4141085707811202
1040
19.018105663365819
1040
0.9024861407903586
1040
0.0
1040
18.96733915299518
1040
0.902486122617514
1040
0.4146084113540803
1040
18.959839159808411
1040
0.8949760132916274
1040
0.0
1040
18.959839159808411
1040
0.8419760132916252
1040
0.4143789056728943
1040
18.96735349594789
1040
0.8344861363322127
1040
0.0
1040
18.985353495947891
1040
0.8344861363322127
1040
0.4140741965554978
1040
18.992839145256429
1040
0.841996896714447
1040
0.0
1040
18.992839152995181
1040
0.8619861226175142
1040
-0.4139133187200443
1040
19.00033146396084
1040
0.8694861186760967
1040
0.0
1040
19.030598771938411
1040
0.8694861226175136
1040
0.1316526553923614
1040
19.03434877596845
1040
0.8704909344158782
1040
0.0
1040
19.054842497903451
1040
0.882322991440462
1040
0.26822526820376
1040
19.05858914404017
1040
0.8888278395063323
1040
0.0
1040
19.058589152995179
1040
0.907986122617514
1040
-0.4139994641170723
1040
19.066083670251938
1040
0.9154861206134823
1040
0.0
1040
19.123185360598111
1040
0.9154861226175139
1040
0.932515373286214
1040
19.125642282889519
1040
0.9506219034270236
1040
0.0
1040
19.08747387536129
1040
0.9559861127541168
1040
0.0
1040
19.08608915635768
1040
0.9559861127541168
1040
0.0
1040
19.086089152995179
1040
0.9534861226175141
1040
-0.4142135623730955
1040
19.08108915299518
1040
0.9484861226175135
1040
0.0
1040
19.06358915772547
1040
0.9484861226175159
1040
-0.4142138394670834
1040
19.058589152995179
1040
0.953486122617514
1040
0.0
1040
19.058589152995179
1040
0.9984861216225131
1040
-0.4142136206588871
1040
19.063589152995181
1040
1.003486122617514
1040
0.0
1040
19.081089150686889
1040
1.0034861226175129
1040
-0.4142136975895473
1040
19.086089152995179
1040
0.9984861226175139
1040
0.0
1040
19.08608915635768
1040
0.9984861384568599
1040
0.0
1040
19.08608915635768
1040
0.9959861240039069
1040
0.0
1040
19.08747387536129
1040
0.9959861240039069
1040
0.0
1040
19.126658084255268
1040
1.0014931192862191
1040
0.3734909990350289
1040
19.140839152995181
1040
1.0178293537914831
1040
0.0
1071
        0
1071
        7
1070
     1
1070
     1
1071
       81
1040
19.69358916679905
1040
1.194971733110453
1040
-0.4143626170749517
1040
19.701078580066032
1040
1.2024861151650541
1040
0.0
1040
19.764339152995181
1040
1.202486122617513
1040
0.4146084113556731
1040
19.77183914618195
1040
1.2099962319434401
1040
0.0
1040
19.77183914618195
1040
1.2654962319433991
1040
0.4142153328749768
1040
19.764328998332829
1040
1.2729861157430311
1040
0.0
1040
19.746328998332501
1040
1.2729861157430311
1040
0.4142377530158126
1040
19.738839160733932
1040
1.2654753485205801
1040
0.0
1040
19.73883915299518
1040
1.242986122617513
1040
-0.4142135623730931
1040
19.731339152995179
1040
1.235486122617512
1040
0.0
1040
19.68674902707016
1040
1.235486118945583
1040
0.1314007964305406
1040
19.683006449549001
1040
1.2344813137006241
1040
0.0
1040
19.65488775969412
1040
1.2182469918190471
1040
-0.1320629300088016
1040
19.651127283463591
1040
1.217236122617513
1040
0.0
1040
19.651127292322251
1040
1.2172361197717421
1040
0.0
1040
19.608375959295721
1040
1.2172361197717421
1040
0.9328156519535721
1040
19.605964980368999
1040
1.1823103392378009
1040
0.0
1040
19.645589149632681
1040
1.176741499235721
1040
0.0
1040
19.645589152995178
1040
1.1792361226175121
1040
-0.413736778283987
1040
19.650581012413461
1040
1.1842361159906021
1040
0.0
1040
19.65558101241346
1040
1.1842361159906021
1040
-0.4141564171126796
1040
19.660589144684788
1040
1.1792452387481021
1040
0.0
1040
19.660589144684788
1040
1.1342452387481221
1040
-0.4143169418490566
1040
19.655596504394651
1040
1.129236128021823
1040
0.0
1040
19.650596504394649
1040
1.129236128021823
1040
-0.4146442631337026
1040
19.645589152995178
1040
1.1342361226175131
1040
0.0
1040
19.645589149632681
1040
1.1367307447767041
1040
0.0
1040
19.605019604906499
1040
1.1310290383780059
1040
0.3734802426881748
1040
19.59083915299518
1040
1.1146928914435461
1040
0.0
1040
19.59083915299518
1040
1.0957793545642931
1040
0.3738847477104347
1040
19.605042799976228
1040
1.079439930214978
1040
0.0
1040
19.645589149632681
1040
1.0737415124336911
1040
0.0
1040
19.645589152995178
1040
1.076236122617513
1040
-0.4142135623730951
1040
19.650589152995181
1040
1.081236122617514
1040
0.0
1040
19.65558914642412
1040
1.0812361226175089
1040
-0.4136800371125475
1040
19.660589144684788
1040
1.076245238747128
1040
0.0
1040
19.660589144684788
1040
1.0312452387471469
1040
-0.4147476740572788
1040
19.65558915299518
1040
1.026236122617513
1040
0.0
1040
19.65058917105917
1040
1.0262361226175449
1040
-0.4142146205374939
1040
19.645589152995178
1040
1.0312361226175131
1040
0.0
1040
19.645589149632681
1040
1.033730721308431
1040
0.0
1040
19.605032099708549
1040
1.0280308076244009
1040
0.3736981324387968
1040
19.59083915299518
1040
1.011692891443545
1040
0.0
1040
19.59083915299518
1040
0.9927793545642945
1040
0.3741115732913423
1040
19.605055806340498
1040
0.976438107570506
1040
0.0
1040
19.645589149632681
1040
0.9707415256316615
1040
0.0
1040
19.645589152995178
1040
0.9732361226175132
1040
-0.4134523073903215
1040
19.65057615407763
1040
0.9782361057202994
1040
0.0
1040
19.655576154077629
1040
0.9782361057202994
1040
-0.414441029623828
1040
19.660589144684788
1040
0.9732452387481017
1040
0.0
1040
19.660589144684788
1040
0.9282452387481223
1040
-0.4147476741143741
1040
19.65558915299518
1040
0.9232361226175132
1040
0.0
1040
19.65058915786118
1040
0.9232361226175154
1040
-0.4142138474167832
1040
19.645589152995178
1040
0.9282361226175135
1040
0.0
1040
19.645589149632681
1040
0.9282361099911838
1040
0.0
1040
19.645589149632681
1040
0.9307307345064014
1040
0.0
1040
19.60594391468393
1040
0.9251589584332297
1040
0.9330064312130195
1040
19.60840438952507
1040
0.8902361323035016
1040
0.0
1040
19.65112728346358
1040
0.8902361226175138
1040
-0.1316528329265828
1040
19.654877292027521
1040
0.8892313082015014
1040
0.0
1040
19.654877277335441
1040
0.8892313305777239
1040
0.0
1040
19.683006440024251
1040
0.8729909370335256
1040
0.1316528329265846
1040
19.686756448588191
1040
0.8719861226175137
1040
0.0
1040
19.731319350327439
1040
0.8719860964744242
1040
-0.4149871171673688
1040
19.73883915299518
1040
0.864486122617513
1040
0.0
1040
19.738839160737641
1040
0.8419753459358393
1040
0.4143528409938331
1040
19.746353495948359
1040
0.8344861363322127
1040
0.0
1040
19.76435349594836
1040
0.8344861363322127
1040
0.414048238330973
1040
19.77183914618195
1040
0.8419962319420397
1040
0.0
1040
19.77183914618195
1040
0.8974962319420821
1040
0.414122795799683
1040
19.764331367967031
1040
0.9049861185770682
1040
0.0
1040
19.701089152995181
1040
0.9049861226175135
1040
-0.4136517284048919
1040
19.69358916679905
1040
0.9124717331104806
1040
0.0
1040
19.69358916679905
1040
1.0297217331104529
1040
-0.4147756196345692
1040
19.701089152995181
1040
1.0372361226175131
1040
0.0
1040
19.70108913682542
1040
1.037236124147052
1040
0.0
1040
19.75534625755536
1040
1.037236124147052
1040
0.4140874542037632
1040
19.771839152995181
1040
1.053736122617513
1040
0.414581593980804
1040
19.75531842281335
1040
1.0702361095950701
1040
0.0
1040
19.701089152995181
1040
1.0702361226175121
1040
-0.4136517284048915
1040
19.69358916679905
1040
1.07772173311048
1040
0.0
1071
        0
1070
     1
1070
     1
1040
0.0
1040
0.0125
1070
     0
1070
     1
1040
0.7853981633974483
1040
9.4770789422713548
1040
0.6929975444538266
1040
-0.001104854345604
1040
0.001104854345604
1070
     0
1040
0.0020574092398509
1071
        2
1040
19.12359428404341
1040
1.044316622677405
1040
0.0
1040
19.67838562747707
1040
1.1585028366041501
1040
0.0
1002
}
  0
ARC
  5
343B1
  8
0
 10
19.731339152995179
 20
1.242986122617513
 30
0.0
 40
0.0075000000000003
 50
270.0000000000008
 51
0.0
  0
ARC
  5
343B2
  8
0
 10
19.74633915299518
 20
1.2654861226175129
 30
0.0
 40
0.0075000000000003
 50
90.0
 51
180.0
  0
ARC
  5
343B3
  8
0
 10
19.764339152995181
 20
1.2654861226175129
 30
0.0
 40
0.0074999999999998
 50
0.0
 51
90.0
  0
ARC
  5
343B4
  8
0
 10
19.764339152995181
 20
1.209986122617513
 30
0.0
 40
0.0074999999999998
 50
270.0000000000008
 51
0.0
  0
ARC
  5
343B5
  8
0
 10
19.701089152995181
 20
1.1949861226175129
 30
0.0
 40
0.0074999999999998
 50
90.0
 51
180.0
  0
ARC
  5
343B6
  8
0
 10
19.701089152995181
 20
1.0777361226175131
 30
0.0
 40
0.0075000000000007
 50
180.0
 51
270.0000000000008
  0
ARC
  5
343B7
  8
0
 10
19.75533915299518
 20
1.053736122617513
 30
0.0
 40
0.0164999999999997
 50
0.0
 51
90.0
  0
ARC
  5
343B8
  8
0
 10
19.75533915299518
 20
1.053736122617513
 30
0.0
 40
0.0165000000000002
 50
270.0000000000008
 51
0.0
  0
ARC
  5
343B9
  8
0
 10
19.701089152995181
 20
1.029736122617513
 30
0.0
 40
0.0075000000000003
 50
90.0
 51
180.0
  0
ARC
  5
343BA
  8
0
 10
19.701089152995181
 20
0.9124861226175134
 30
0.0
 40
0.0074999999999998
 50
180.0
 51
270.0000000000008
  0
ARC
  5
343BB
  8
0
 10
19.764339152995181
 20
0.8974861226175132
 30
0.0
 40
0.0075000000000003
 50
0.0
 51
90.0
  0
ARC
  5
343BC
  8
0
 10
19.764339152995181
 20
0.8419861226175132
 30
0.0
 40
0.0075000000000003
 50
270.0000000000008
 51
0.0
  0
ARC
  5
343BD
  8
0
 10
19.74633915299518
 20
0.8419861226175132
 30
0.0
 40
0.0075000000000003
 50
180.0
 51
270.0000000000008
  0
ARC
  5
343BE
  8
0
 10
19.731339152995179
 20
0.8644861226175135
 30
0.0
 40
0.0074999999999998
 50
0.0
 51
90.0
  0
ARC
  5
343BF
  8
0
 10
19.686756448588191
 20
0.8794861226175134
 30
0.0
 40
0.0074999999999998
 50
239.99999999999861
 51
270.0000000000008
  0
ARC
  5
343C0
  8
0
 10
19.65112728346358
 20
0.8827361226175136
 30
0.0
 40
0.0075000000000002
 50
59.999999999999552
 51
89.999999999996533
  0
LINE
  5
343C1
  8
0
 10
19.645589149632681
 20
0.9307307345064014
 30
0.0
 11
19.605943902617948
 21
0.9251589688719136
 31
0.0
  0
ARC
  5
343C2
  8
0
 10
19.650589152995181
 20
0.9282361226175135
 30
0.0
 40
0.0050000000000003
 50
180.0
 51
270.0000000000008
  0
ARC
  5
343C3
  8
0
 10
19.65558915299518
 20
0.9282361226175135
 30
0.0
 40
0.0050000000000003
 50
270.0000000000008
 51
0.0
  0
ARC
  5
343C4
  8
0
 10
19.65558915299518
 20
0.9732361226175134
 30
0.0
 40
0.0050000000000003
 50
0.0
 51
90.0
  0
ARC
  5
343C5
  8
0
 10
19.650589152995181
 20
0.9732361226175134
 30
0.0
 40
0.0050000000000003
 50
90.0
 51
180.0
  0
LINE
  5
343C6
  8
0
 10
19.60504279302765
 20
0.9764399364698
 30
0.0
 11
19.645589149632681
 21
0.9707415256316615
 31
0.0
  0
ARC
  5
343C7
  8
0
 10
19.607339152995181
 20
0.9927793537914819
 30
0.0
 40
0.0165000000000002
 50
180.0
 51
262.00000000000063
  0
ARC
  5
343C8
  8
0
 10
19.607339152995181
 20
1.011692891443545
 30
0.0
 40
0.0165000000000002
 50
98.000000000000185
 51
180.0
  0
LINE
  5
343C9
  8
0
 10
19.645589149632681
 20
1.033730721308431
 30
0.0
 11
19.60504279302765
 21
1.0280323104702931
 31
0.0
  0
ARC
  5
343CA
  8
0
 10
19.650589152995181
 20
1.0312361226175131
 30
0.0
 40
0.0050000000000003
 50
180.0
 51
270.0000000000008
  0
ARC
  5
343CB
  8
0
 10
19.65558915299518
 20
1.0312361226175131
 30
0.0
 40
0.0049999999999999
 50
270.0000000000008
 51
0.0
  0
ARC
  5
343CC
  8
0
 10
19.65558915299518
 20
1.076236122617513
 30
0.0
 40
0.0049999999999999
 50
0.0
 51
90.0
  0
ARC
  5
343CD
  8
0
 10
19.650589152995181
 20
1.076236122617513
 30
0.0
 40
0.0050000000000003
 50
90.0
 51
180.0
  0
LINE
  5
343CE
  8
0
 10
19.60504279302765
 20
1.079439923271829
 30
0.0
 11
19.645589149632681
 21
1.0737415124336911
 31
0.0
  0
ARC
  5
343CF
  8
0
 10
19.607339152995181
 20
1.0957793537914811
 30
0.0
 40
0.0164999999999997
 50
179.9999999999969
 51
262.0000000000004
  0
ARC
  5
343D0
  8
0
 10
19.607339152995181
 20
1.114692891443545
 30
0.0
 40
0.0164999999999997
 50
97.999999999998721
 51
180.0
  0
LINE
  5
343D1
  8
0
 10
19.645589149632681
 20
1.1367307447767041
 30
0.0
 11
19.60504279302765
 21
1.131032297272323
 31
0.0
  0
ARC
  5
343D2
  8
0
 10
19.650589152995181
 20
1.1342361226175131
 30
0.0
 40
0.0050000000000003
 50
180.0
 51
270.0000000000008
  0
ARC
  5
343D3
  8
0
 10
19.65558915299518
 20
1.1342361226175131
 30
0.0
 40
0.0050000000000003
 50
270.0000000000008
 51
0.0
  0
ARC
  5
343D4
  8
0
 10
19.65558915299518
 20
1.179236122617513
 30
0.0
 40
0.0050000000000003
 50
0.0
 51
90.0
  0
ARC
  5
343D5
  8
0
 10
19.650589152995181
 20
1.179236122617513
 30
0.0
 40
0.0050000000000003
 50
90.0
 51
180.0
  0
LINE
  5
343D6
  8
0
 10
19.605943902617948
 20
1.182313301536452
 30
0.0
 11
19.645589149632681
 21
1.176741499235721
 31
0.0
  0
ARC
  5
343D7
  8
0
 10
19.651127283463591
 20
1.2247361226175131
 30
0.0
 40
0.0074999999999998
 50
270.0000000000008
 51
299.99999999999528
  0
ARC
  5
343D8
  8
0
 10
19.686756448588191
 20
1.2279861226175131
 30
0.0
 40
0.0074999999999998
 50
90.0
 51
119.9999999999991
  0
LINE
  5
343D9
  8
0
 10
19.590839152109321
 20
1.114692902693069
 30
0.0
 11
19.590839152109321
 21
1.0957793545173251
 31
0.0
  0
LINE
  5
343DA
  8
0
 10
19.645589149632681
 20
1.1342361202614859
 30
0.0
 11
19.645589149632681
 21
1.1367307447767041
 31
0.0
  0
LINE
  5
343DB
  8
0
 10
19.65058916020547
 20
1.129236128021823
 30
0.0
 11
19.655589152445121
 21
1.129236128021823
 31
0.0
  0
LINE
  5
343DC
  8
0
 10
19.660589144684788
 20
1.1342361202614859
 30
0.0
 11
19.660589144684788
 21
1.179236123750939
 31
0.0
  0
LINE
  5
343DD
  8
0
 10
19.65058916020547
 20
1.1842361159906021
 30
0.0
 11
19.655589152445121
 21
1.1842361159906021
 31
0.0
  0
LINE
  5
343DE
  8
0
 10
19.645589149632681
 20
1.179236123750939
 30
0.0
 11
19.645589149632681
 21
1.176741499235721
 31
0.0
  0
LINE
  5
343DF
  8
0
 10
19.651127292322251
 20
1.2172361197717421
 30
0.0
 11
19.608385947740569
 21
1.2172361197717421
 31
0.0
  0
LINE
  5
343E0
  8
0
 10
19.654877277335441
 20
1.218240939830642
 30
0.0
 11
19.68300644571822
 21
1.2344813172204161
 31
0.0
  0
LINE
  5
343E1
  8
0
 10
19.731339154041311
 20
1.2354861189461941
 30
0.0
 11
19.686756449064521
 21
1.2354861189461941
 31
0.0
  0
LINE
  5
343E2
  8
0
 10
19.738839160733932
 20
1.2429861256388111
 30
0.0
 11
19.738839160733932
 21
1.2654861273835369
 31
0.0
  0
LINE
  5
343E3
  8
0
 10
19.746339167426541
 20
1.2729861157430311
 30
0.0
 11
19.76433913948933
 21
1.2729861157430311
 31
0.0
  0
LINE
  5
343E4
  8
0
 10
19.77183914618195
 20
1.2654861273835369
 30
0.0
 11
19.77183914618195
 21
1.20998612185767
 31
0.0
  0
LINE
  5
343E5
  8
0
 10
19.76433913948933
 20
1.2024861151650541
 30
0.0
 11
19.70108913682542
 21
1.2024861151650541
 31
0.0
  0
LINE
  5
343E6
  8
0
 10
19.69358916679905
 20
1.077736116287686
 30
0.0
 11
19.69358916679905
 21
1.194986126805559
 31
0.0
  0
LINE
  5
343E7
  8
0
 10
19.70108913682542
 20
1.0702361095950701
 30
0.0
 11
19.755339153457939
 21
1.0702361095950701
 31
0.0
  0
LINE
  5
343E8
  8
0
 10
19.755339153457939
 20
1.037236124147052
 30
0.0
 11
19.70108913682542
 21
1.037236124147052
 31
0.0
  0
LINE
  5
343E9
  8
0
 10
19.69358916679905
 20
0.9124861252696842
 30
0.0
 11
19.69358916679905
 21
1.0297361174544359
 31
0.0
  0
LINE
  5
343EA
  8
0
 10
19.76433913948933
 20
0.9049861185770682
 30
0.0
 11
19.70108913682542
 21
0.9049861185770682
 31
0.0
  0
LINE
  5
343EB
  8
0
 10
19.77183914618195
 20
0.8419861430248287
 30
0.0
 11
19.77183914618195
 21
0.8974861118844525
 31
0.0
  0
LINE
  5
343EC
  8
0
 10
19.746339167426541
 20
0.8344861363322127
 30
0.0
 11
19.76433913948933
 21
0.8344861363322127
 31
0.0
  0
LINE
  5
343ED
  8
0
 10
19.738839160733932
 20
0.8644860897701907
 30
0.0
 11
19.738839160733932
 21
0.8419861430248287
 31
0.0
  0
LINE
  5
343EE
  8
0
 10
19.686756449064521
 20
0.8719860964628063
 30
0.0
 11
19.731339154041311
 21
0.8719860964628063
 31
0.0
  0
LINE
  5
343EF
  8
0
 10
19.654877277335441
 20
0.8892313305777239
 30
0.0
 11
19.68300644571822
 21
0.8729908981885846
 31
0.0
  0
LINE
  5
343F0
  8
0
 10
19.608385947740569
 20
0.8902361323035016
 30
0.0
 11
19.651127292322251
 21
0.8902361323035016
 31
0.0
  0
LINE
  5
343F1
  8
0
 10
19.645589149632681
 20
0.9282361099911838
 30
0.0
 11
19.645589149632681
 21
0.9307307345064014
 31
0.0
  0
LINE
  5
343F2
  8
0
 10
19.655589152445121
 20
0.9232361177515207
 30
0.0
 11
19.65058916020547
 21
0.9232361177515207
 31
0.0
  0
LINE
  5
343F3
  8
0
 10
19.660589144684788
 20
0.9732361134806364
 30
0.0
 11
19.660589144684788
 21
0.9282361099911838
 31
0.0
  0
LINE
  5
343F4
  8
0
 10
19.65058916020547
 20
0.9782361057202994
 30
0.0
 11
19.655589152445121
 21
0.9782361057202994
 31
0.0
  0
LINE
  5
343F5
  8
0
 10
19.645589149632681
 20
0.9732361134806364
 30
0.0
 11
19.645589149632681
 21
0.9707415256316615
 31
0.0
  0
LINE
  5
343F6
  8
0
 10
19.590839152109321
 20
0.992779367715296
 30
0.0
 11
19.590839152109321
 21
1.011692879224797
 31
0.0
  0
LINE
  5
343F7
  8
0
 10
19.645589149632681
 20
1.031236133459456
 30
0.0
 11
19.645589149632681
 21
1.033730721308431
 31
0.0
  0
LINE
  5
343F8
  8
0
 10
19.65058916020547
 20
1.02623610455355
 30
0.0
 11
19.655589152445121
 21
1.02623610455355
 31
0.0
  0
LINE
  5
343F9
  8
0
 10
19.660589144684788
 20
1.031236133459456
 30
0.0
 11
19.660589144684788
 21
1.0762361369489091
 31
0.0
  0
LINE
  5
343FA
  8
0
 10
19.65058916020547
 20
1.0812361291885719
 30
0.0
 11
19.655589152445121
 21
1.0812361291885719
 31
0.0
  0
LINE
  5
343FB
  8
0
 10
19.645589149632681
 20
1.0737415124336911
 30
0.0
 11
19.645589149632681
 21
1.0762361369489091
 31
0.0
  0
ARC
  5
343FC
  8
0
 10
19.60838595271106
 20
0.9077829223333866
 30
0.0
 40
0.0175467997158735
 50
97.999999999999943
 51
270.0000000000008
  0
ARC
  5
343FD
  8
0
 10
19.60838595271106
 20
1.1996893229016401
 30
0.0
 40
0.0175467997158735
 50
90.0
 51
262.00000000000199
  0
ARC
  5
34401
  8
0
 10
19.030598771938411
 20
0.8769861226175139
 30
0.0
 40
0.0075000000000002
 50
270.0000000000008
 51
300.00000000000119
  0
ARC
  5
34402
  8
0
 10
19.000339152995181
 20
0.8619861226175142
 30
0.0
 40
0.0075000000000001
 50
90.0
 51
180.0
  0
ARC
  5
34403
  8
0
 10
18.985339152995181
 20
0.8419861226175143
 30
0.0
 40
0.0075000000000003
 50
270.0000000000008
 51
0.0
  0
ARC
  5
34404
  8
0
 10
18.96733915299518
 20
0.8419861226175143
 30
0.0
 40
0.0075000000000003
 50
180.0
 51
270.0000000000008
  0
ARC
  5
34405
  8
0
 10
18.96733915299518
 20
0.8949861226175141
 30
0.0
 40
0.0074999999999998
 50
90.0
 51
180.0
  0
ARC
  5
34406
  8
0
 10
19.018089152995181
 20
0.9099861226175143
 30
0.0
 40
0.0075000000000003
 50
270.0000000000008
 51
0.0
  0
ARC
  5
34407
  8
0
 10
19.018089152995181
 20
0.9967361226175137
 30
0.0
 40
0.0075000000000003
 50
0.0
 51
90.0
  0
ARC
  5
34408
  8
0
 10
18.97633915299518
 20
1.0207361226175129
 30
0.0
 40
0.0165
 50
180.0
 51
270.0000000000008
  0
ARC
  5
34409
  8
0
 10
18.97633915299518
 20
1.0207361226175129
 30
0.0
 40
0.0165000000000002
 50
90.0
 51
180.0
  0
ARC
  5
3440A
  8
0
 10
19.091339152995179
 20
1.0537361226175139
 30
0.0
 40
0.0165000000000002
 50
270.0000000000008
 51
0.0
  0
ARC
  5
3440B
  8
0
 10
19.091339152995179
 20
1.0537361226175139
 30
0.0
 40
0.0165000000000002
 50
0.0
 51
90.0
  0
ARC
  5
3440C
  8
0
 10
18.97633915299518
 20
1.0867361226175141
 30
0.0
 40
0.0165
 50
179.99999999999841
 51
270.0000000000008
  0
ARC
  5
3440D
  8
0
 10
18.97633915299518
 20
1.0867361226175141
 30
0.0
 40
0.0165000000000002
 50
90.0
 51
179.99999999999841
  0
ARC
  5
3440E
  8
0
 10
19.018089152995181
 20
1.1107361226175141
 30
0.0
 40
0.0075000000000001
 50
270.0000000000008
 51
0.0
  0
ARC
  5
3440F
  8
0
 10
19.018089152995181
 20
1.1974861226175131
 30
0.0
 40
0.0075000000000003
 50
0.0
 51
90.0
  0
ARC
  5
34410
  8
0
 10
18.96733915299518
 20
1.2124861226175141
 30
0.0
 40
0.0074999999999998
 50
180.0
 51
270.0000000000008
  0
ARC
  5
34411
  8
0
 10
18.96733915299518
 20
1.265486122617514
 30
0.0
 40
0.0075000000000003
 50
90.0
 51
180.0
  0
ARC
  5
34412
  8
0
 10
18.985339152995181
 20
1.265486122617514
 30
0.0
 40
0.0075000000000003
 50
0.0
 51
90.0
  0
ARC
  5
34413
  8
0
 10
19.000339152995181
 20
1.245486122617514
 30
0.0
 40
0.0075000000000001
 50
180.0
 51
270.0000000000008
  0
ARC
  5
34414
  8
0
 10
19.030598771938411
 20
1.2304861226175141
 30
0.0
 40
0.0074999999999998
 50
59.999999999999318
 51
90.0
  0
ARC
  5
34415
  8
0
 10
19.051089152995178
 20
1.2186559955985909
 30
0.0
 40
0.0075000000000005
 50
0.0
 51
60.0000000000028
  0
ARC
  5
34416
  8
0
 10
19.066089152995179
 20
1.199486122617514
 30
0.0
 40
0.0075000000000001
 50
180.0
 51
270.0000000000008
  0
LINE
  5
34417
  8
0
 10
19.08747387536129
 20
1.1514861209880061
 30
0.0
 11
19.125642297769751
 21
1.156850355686575
 31
0.0
  0
ARC
  5
34418
  8
0
 10
19.08108915299518
 20
1.1539861226175141
 30
0.0
 40
0.0050000000000003
 50
0.0
 51
90.0
  0
ARC
  5
34419
  8
0
 10
19.063589152995181
 20
1.1539861226175141
 30
0.0
 40
0.0050000000000003
 50
90.0
 51
180.0
  0
ARC
  5
3441A
  8
0
 10
19.063589152995181
 20
1.1089861226175139
 30
0.0
 40
0.0050000000000003
 50
180.0
 51
270.0000000000008
  0
ARC
  5
3441B
  8
0
 10
19.08108915299518
 20
1.1089861226175139
 30
0.0
 40
0.0050000000000003
 50
270.0000000000008
 51
0.0
  0
LINE
  5
3441C
  8
0
 10
19.126635512962711
 20
1.1059823233184261
 30
0.0
 11
19.08747387536129
 21
1.111486109738216
 31
0.0
  0
ARC
  5
3441D
  8
0
 10
19.12433915299518
 20
1.089642891443545
 30
0.0
 40
0.0165000000000002
 50
0.0
 51
81.999999999999829
  0
ARC
  5
3441E
  8
0
 10
19.12433915299518
 20
1.0178293537914831
 30
0.0
 40
0.0165000000000005
 50
278.00000000000063
 51
0.0
  0
LINE
  5
3441F
  8
0
 10
19.08747387536129
 20
0.9959861240039069
 30
0.0
 11
19.126635512962711
 21
1.001489947089939
 31
0.0
  0
ARC
  5
34420
  8
0
 10
19.08108915299518
 20
0.9984861226175141
 30
0.0
 40
0.0050000000000003
 50
0.0
 51
90.0
  0
ARC
  5
34421
  8
0
 10
19.063589152995181
 20
0.9984861226175141
 30
0.0
 40
0.0050000000000003
 50
90.0
 51
180.0
  0
ARC
  5
34422
  8
0
 10
19.063589152995181
 20
0.9534861226175138
 30
0.0
 40
0.0050000000000001
 50
180.0
 51
270.0000000000008
  0
ARC
  5
34423
  8
0
 10
19.08108915299518
 20
0.9534861226175138
 30
0.0
 40
0.0050000000000001
 50
270.0000000000008
 51
0.0
  0
LINE
  5
34424
  8
0
 10
19.125642297769751
 20
0.9506219147217901
 30
0.0
 11
19.08747387536129
 21
0.9559861127541168
 31
0.0
  0
ARC
  5
34425
  8
0
 10
19.066089152995179
 20
0.907986122617514
 30
0.0
 40
0.0075000000000001
 50
90.0
 51
180.0
  0
ARC
  5
34426
  8
0
 10
19.051089152995178
 20
0.8888162496364365
 30
0.0
 40
0.0075000000000005
 50
299.99999999999801
 51
0.0
  0
LINE
  5
34427
  8
0
 10
18.992839145256429
 20
1.2454861217586419
 30
0.0
 11
18.992839145256429
 21
1.2654861273835369
 31
0.0
  0
LINE
  5
34428
  8
0
 10
19.03059877572063
 20
1.2379861150660261
 30
0.0
 11
19.000339151949049
 21
1.2379861150660261
 31
0.0
  0
LINE
  5
34429
  8
0
 10
19.054839159026979
 20
1.2251511883361941
 30
0.0
 11
19.034348779066931
 21
1.2369813133402481
 31
0.0
  0
LINE
  5
3442A
  8
0
 10
19.05858914404017
 20
1.1994861198212561
 30
0.0
 11
19.05858914404017
 21
1.2186560017024779
 31
0.0
  0
LINE
  5
3442B
  8
0
 10
19.12318536615243
 20
1.1919861314617619
 30
0.0
 11
19.066089150732779
 21
1.1919861314617619
 31
0.0
  0
LINE
  5
3442C
  8
0
 10
19.08608915635768
 20
1.1514861209880061
 30
0.0
 11
19.08747387536129
 21
1.1514861209880061
 31
0.0
  0
LINE
  5
3442D
  8
0
 10
19.08608915635768
 20
1.1539861354409591
 30
0.0
 11
19.08608915635768
 21
1.1514861209880061
 31
0.0
  0
LINE
  5
3442E
  8
0
 10
19.063589154612949
 20
1.158986127680621
 30
0.0
 11
19.08108914578489
 21
1.158986127680621
 31
0.0
  0
LINE
  5
3442F
  8
0
 10
19.05858914404017
 20
1.1089861319515051
 30
0.0
 11
19.05858914404017
 21
1.1539861354409591
 31
0.0
  0
LINE
  5
34430
  8
0
 10
19.08108914578489
 20
1.103986139711842
 30
0.0
 11
19.063589154612949
 21
1.103986139711842
 31
0.0
  0
LINE
  5
34431
  8
0
 10
19.08608915635768
 20
1.111486109738216
 30
0.0
 11
19.08608915635768
 21
1.1089861319515051
 31
0.0
  0
LINE
  5
34432
  8
0
 10
19.08747387536129
 20
1.111486109738216
 30
0.0
 11
19.08608915635768
 21
1.111486109738216
 31
0.0
  0
LINE
  5
34433
  8
0
 10
19.140839153881029
 20
1.0178293416691919
 30
0.0
 11
19.140839153881029
 21
1.08964289207293
 31
0.0
  0
LINE
  5
34434
  8
0
 10
19.08608915635768
 20
0.9959861240039069
 30
0.0
 11
19.08747387536129
 21
0.9959861240039069
 31
0.0
  0
LINE
  5
34435
  8
0
 10
19.08608915635768
 20
0.9984861384568599
 30
0.0
 11
19.08608915635768
 21
0.9959861240039069
 31
0.0
  0
LINE
  5
34436
  8
0
 10
19.063589154612949
 20
1.003486130696523
 30
0.0
 11
19.08108914578489
 21
1.003486130696523
 31
0.0
  0
LINE
  5
34437
  8
0
 10
19.05858914404017
 20
0.9534861349674068
 30
0.0
 11
19.05858914404017
 21
0.9984861384568599
 31
0.0
  0
LINE
  5
34438
  8
0
 10
19.08108914578489
 20
0.9484861060615009
 30
0.0
 11
19.063589154612949
 21
0.9484861060615009
 31
0.0
  0
LINE
  5
34439
  8
0
 10
19.08608915635768
 20
0.9559861127541168
 30
0.0
 11
19.08608915635768
 21
0.9534861349674068
 31
0.0
  0
LINE
  5
3443A
  8
0
 10
19.08747387536129
 20
0.9559861127541168
 30
0.0
 11
19.08608915635768
 21
0.9559861127541168
 31
0.0
  0
LINE
  5
3443B
  8
0
 10
19.066089150732779
 20
0.9154861206134823
 30
0.0
 11
19.12318536615243
 21
0.9154861206134823
 31
0.0
  0
LINE
  5
3443C
  8
0
 10
19.05858914404017
 20
0.8888162320396443
 30
0.0
 11
19.05858914404017
 21
0.9079861139208663
 31
0.0
  0
LINE
  5
3443D
  8
0
 10
19.034348779066931
 20
0.8704909204018743
 30
0.0
 11
19.054839159026979
 21
0.8823210637390491
 31
0.0
  0
LINE
  5
3443E
  8
0
 10
19.000339151949049
 20
0.8694861186760967
 30
0.0
 11
19.03059877572063
 21
0.8694861186760967
 31
0.0
  0
LINE
  5
3443F
  8
0
 10
18.992839145256429
 20
0.8419861430248287
 30
0.0
 11
18.992839145256429
 21
0.8619861119834805
 31
0.0
  0
LINE
  5
34440
  8
0
 10
18.967339166501031
 20
0.8344861363322127
 30
0.0
 11
18.98533913856382
 21
0.8344861363322127
 31
0.0
  0
LINE
  5
34441
  8
0
 10
18.959839159808411
 20
0.8949861340977424
 30
0.0
 11
18.959839159808411
 21
0.8419861430248287
 31
0.0
  0
LINE
  5
34442
  8
0
 10
19.018089170232649
 20
0.9024861407903586
 30
0.0
 11
18.967339166501031
 21
0.9024861407903586
 31
0.0
  0
LINE
  5
34443
  8
0
 10
19.025589140259029
 20
0.9967361320064171
 30
0.0
 11
19.025589140259029
 21
0.9099861108167313
 31
0.0
  0
LINE
  5
34444
  8
0
 10
18.976339152532422
 20
1.0042361386990331
 30
0.0
 11
19.018089170232649
 21
1.0042361386990331
 31
0.0
  0
LINE
  5
34445
  8
0
 10
19.091339157375891
 20
1.037236124147052
 30
0.0
 11
18.976339152532422
 21
1.037236124147052
 31
0.0
  0
LINE
  5
34446
  8
0
 10
18.976339152532422
 20
1.0702361095950701
 30
0.0
 11
19.091339157375891
 21
1.0702361095950701
 31
0.0
  0
LINE
  5
34447
  8
0
 10
19.018089170232649
 20
1.103236131709332
 30
0.0
 11
18.976339152532422
 21
1.103236131709332
 31
0.0
  0
LINE
  5
34448
  8
0
 10
19.025589140259029
 20
1.197486122925391
 30
0.0
 11
19.025589140259029
 21
1.1107361384019481
 31
0.0
  0
LINE
  5
34449
  8
0
 10
18.967339166501031
 20
1.2049861296180071
 30
0.0
 11
19.018089170232649
 21
1.2049861296180071
 31
0.0
  0
LINE
  5
3444A
  8
0
 10
18.959839159808411
 20
1.2654861273835369
 30
0.0
 11
18.959839159808411
 21
1.2124861179775019
 31
0.0
  0
LINE
  5
3444B
  8
0
 10
18.98533913856382
 20
1.2729861157430311
 30
0.0
 11
18.967339166501031
 21
1.2729861157430311
 31
0.0
  0
ARC
  5
3444C
  8
0
 10
19.123185360598111
 20
1.174332330220446
 30
0.0
 40
0.0176537923970681
 50
278.00000000000119
 51
90.0
  0
ARC
  5
3444D
  8
0
 10
19.123185360598111
 20
0.9331399150145816
 30
0.0
 40
0.0176537923970677
 50
270.0000000000008
 51
81.999999999999446
  0
LINE
  5
34450
  8
0
 10
19.745089141866941
 20
1.280486122435647
 30
0.0
 11
19.765589165048929
 21
1.280486122435647
 31
0.0
  0
ARC
  5
34451
  8
0
 10
19.745089152995181
 20
1.2679861226175111
 30
0.0
 40
0.0125000000000002
 50
90.0
 51
180.0
  0
LINE
  5
34452
  8
0
 10
19.615848004871591
 20
1.267986123503368
 30
0.0
 11
19.615848004871591
 21
1.264518505228257
 31
0.0
  0
ARC
  5
34453
  8
0
 10
19.608348011449682
 20
1.2645184976057109
 30
0.0
 40
0.0074999999999998
 50
270.0000000000008
 51
359.9999999999805
  0
LINE
  5
34454
  8
0
 10
19.608348016512089
 20
1.257018498535641
 30
0.0
 11
19.581077791540061
 21
1.257018498535641
 31
0.0
  0
ARC
  5
34455
  8
0
 10
19.58107778820667
 20
1.2645184976057109
 30
0.0
 40
0.0074999999999998
 50
229.9999999999998
 51
270.0000000000008
  0
LINE
  5
34456
  8
0
 10
19.365839152995179
 20
1.4479861237113389
 30
0.0
 11
19.36083915273478
 21
1.4429861223051159
 31
0.0
  0
ARC
  5
34457
  8
0
 10
19.15060051778369
 20
1.2645184976057109
 30
0.0
 40
0.0075000000000003
 50
270.0000000000008
 51
309.99999999999972
  0
ARC
  5
34458
  8
0
 10
19.108330294540671
 20
1.267986122617512
 30
0.0
 40
0.0074999999999998
 50
0.0
 51
90.0
  0
ARC
  5
34459
  8
0
 10
18.98658915299518
 20
1.2679861226175111
 30
0.0
 40
0.0125000000000006
 50
0.0000000000040711
 51
90.0
  0
LINE
  5
3445A
  8
0
 10
18.966089140941431
 20
1.280486122435647
 30
0.0
 11
18.986589164123409
 21
1.280486122435647
 31
0.0
  0
ARC
  5
3445B
  8
0
 10
19.765589152995179
 20
1.2679861226175111
 30
0.0
 40
0.0125000000000002
 50
0.0
 51
90.0
  0
LINE
  5
3445C
  8
0
 10
18.985770370248851
 20
0.7825622628278968
 30
0.0
 11
19.144356711579238
 21
0.7881002588524942
 31
0.0
  0
ARC
  5
3445D
  8
0
 10
19.144031887423409
 20
0.7974018451255387
 30
0.0
 40
0.009307265571779
 50
272.00000000000341
 51
82.999999999998735
  0
LINE
  5
3445E
  8
0
 10
19.14516615556181
 20
0.8066397380161821
 30
0.0
 11
19.030675114838751
 21
0.8206975022863565
 31
0.0
  0
ARC
  5
3445F
  8
0
 10
19.031589152995181
 20
0.8281415621016812
 30
0.0
 40
0.0075000000010965
 50
179.99999999255331
 51
262.9999999898202
  0
ARC
  5
34460
  8
0
 10
18.953589152995178
 20
1.3754861226175119
 30
0.0
 40
0.0050000000000003
 50
90.0
 51
270.0000000000008
  0
ARC
  5
34461
  8
0
 10
19.020339152995181
 20
0.8482740537242783
 30
0.0
 40
0.0037499999997672
 50
0.0
 51
60.000000006191073
  0
LINE
  5
34462
  8
0
 10
19.022214159247088
 20
0.8515216395366259
 30
0.0
 11
19.004959355242729
 21
0.8614837111205915
 31
0.0
  0
ARC
  5
34463
  8
0
 10
19.003084343523561
 20
0.8582361226175123
 30
0.0
 40
0.0037500000000055
 50
60.000000006217881
 51
90.000000007090449
  0
LINE
  5
34464
  8
0
 10
19.00308435356958
 20
0.8619861119834805
 30
0.0
 11
19.002839166402001
 21
0.8619861119834805
 31
0.0
  0
ARC
  5
34465
  8
0
 10
19.002839152995179
 20
0.8582361226175123
 30
0.0
 40
0.0037500000000001
 50
90.0
 51
180.0
  0
LINE
  5
34466
  8
0
 10
18.9990891630557
 20
0.8582361086371722
 30
0.0
 11
18.9990891630557
 21
0.8394860919056323
 31
0.0
  0
ARC
  5
34467
  8
0
 10
18.98658915299518
 20
0.8394861226175125
 30
0.0
 40
0.0125000000000002
 50
270.0000000000008
 51
0.0
  0
LINE
  5
34468
  8
0
 10
18.986589164123409
 20
0.8269861296395966
 30
0.0
 11
18.966089140941431
 21
0.8269861296395966
 31
0.0
  0
ARC
  5
34469
  8
0
 10
18.966089152995181
 20
0.8394861226175125
 30
0.0
 40
0.0125000000000006
 50
180.0
 51
270.0000000000008
  0
LINE
  5
3446A
  8
0
 10
19.11583030111877
 20
1.264518505228257
 30
0.0
 11
19.11583030111877
 21
1.267986123503368
 31
0.0
  0
LINE
  5
3446B
  8
0
 10
18.9990891630557
 20
1.267986123503368
 30
0.0
 11
18.9990891630557
 21
1.24923612510495
 31
0.0
  0
ARC
  5
3446C
  8
0
 10
19.002839152995179
 20
1.249236122617511
 30
0.0
 40
0.0037499999999999
 50
180.0
 51
270.0000000000008
  0
LINE
  5
3446D
  8
0
 10
19.002839166402001
 20
1.2454861217586419
 30
0.0
 11
19.00308435356958
 21
1.2454861217586419
 31
0.0
  0
ARC
  5
3446E
  8
0
 10
19.003084343523561
 20
1.249236122617511
 30
0.0
 40
0.0037499999998838
 50
269.99999999289668
 51
299.99999999383078
  0
LINE
  5
3446F
  8
0
 10
19.004959355242729
 20
1.245988522621531
 30
0.0
 11
19.022214159247088
 21
1.2559505942054969
 31
0.0
  0
ARC
  5
34470
  8
0
 10
19.020339152995181
 20
1.259198191510758
 30
0.0
 40
0.0037499999996511
 50
299.99999999383101
 51
0.0
  0
LINE
  5
34471
  8
0
 10
19.370839153255581
 20
1.4429861223051159
 30
0.0
 11
19.365839152995179
 21
1.4479861237113389
 31
0.0
  0
ARC
  5
34472
  8
0
 10
19.031589152995181
 20
1.2679861226175111
 30
0.0
 40
0.0075000000000007
 50
90.0
 51
180.0
  0
LINE
  5
34473
  8
0
 10
19.031589167612861
 20
1.275486130195985
 30
0.0
 11
19.10833029442615
 21
1.275486130195985
 31
0.0
  0
ARC
  5
34474
  8
0
 10
19.123330294540668
 20
1.2645184976057109
 30
0.0
 40
0.0075000000000003
 50
180.0
 51
270.0000000000008
  0
ARC
  5
34475
  8
0
 10
19.235318929752172
 20
1.3160245765024079
 30
0.0
 40
0.0075000000000003
 50
89.999999999996533
 51
129.99999999999889
  0
LINE
  5
34476
  8
0
 10
19.235318932442571
 20
1.3235245735851211
 30
0.0
 11
19.263339156250549
 21
1.3235245735851211
 31
0.0
  0
ARC
  5
34477
  8
0
 10
19.263339152995179
 20
1.3310245765024129
 30
0.0
 40
0.0075000000000003
 50
270.0000000000008
 51
0.0
  0
LINE
  5
34478
  8
0
 10
19.27083915377661
 20
1.3310245802777361
 30
0.0
 11
19.27083915377661
 21
1.353524572855902
 31
0.0
  0
ARC
  5
34479
  8
0
 10
19.263339152995179
 20
1.3535245765024131
 30
0.0
 40
0.0075000000000003
 50
0.0
 51
90.0
  0
LINE
  5
3447A
  8
0
 10
19.263339156250549
 20
1.3610245795485181
 30
0.0
 11
19.20933915756315
 21
1.3610245795485181
 31
0.0
  0
ARC
  5
3447B
  8
0
 10
18.966089152995181
 20
1.2679861226175111
 30
0.0
 40
0.0125000000000006
 50
90.0
 51
180.0
  0
LINE
  5
3447C
  8
0
 10
19.20183915087053
 20
1.3685245770745731
 30
0.0
 11
19.20183915087053
 21
1.43548612477906
 31
0.0
  0
ARC
  5
3447D
  8
0
 10
19.209339152995181
 20
1.435486122617512
 30
0.0
 40
0.0074999999999998
 50
90.0
 51
180.0
  0
LINE
  5
3447E
  8
0
 10
19.370839153255581
 20
1.4429861223051159
 30
0.0
 11
19.522339148427211
 21
1.4429861223051159
 31
0.0
  0
ARC
  5
3447F
  8
0
 10
19.52233915299518
 20
1.435486122617512
 30
0.0
 40
0.0074999999999998
 50
0.0
 51
90.0
  0
LINE
  5
34480
  8
0
 10
19.529839155119831
 20
1.43548612477906
 30
0.0
 11
19.529839155119831
 21
1.3685245770745731
 31
0.0
  0
ARC
  5
34481
  8
0
 10
19.52233915299518
 20
1.3685245765024121
 30
0.0
 40
0.0074999999999998
 50
270.0000000000008
 51
0.0
  0
LINE
  5
34482
  8
0
 10
19.522339148427211
 20
1.3610245795485181
 30
0.0
 11
19.468339149739801
 21
1.3610245795485181
 31
0.0
  0
ARC
  5
34483
  8
0
 10
19.468339152995181
 20
1.3535245765024131
 30
0.0
 40
0.0075000000000003
 50
90.0
 51
180.0
  0
LINE
  5
34484
  8
0
 10
19.460839152213751
 20
1.353524572855902
 30
0.0
 11
19.460839152213751
 21
1.3310245802777361
 31
0.0
  0
ARC
  5
34485
  8
0
 10
19.468339152995181
 20
1.3310245765024129
 30
0.0
 40
0.0075000000000003
 50
180.0
 51
270.0000000000008
  0
LINE
  5
34486
  8
0
 10
19.468339149739801
 20
1.3235245735851211
 30
0.0
 11
19.49635937354779
 21
1.3235245735851211
 31
0.0
  0
ARC
  5
34487
  8
0
 10
19.496359376238189
 20
1.3160245765024079
 30
0.0
 40
0.0075000000000003
 50
50.000000000001059
 51
90.0
  0
LINE
  5
34488
  8
0
 10
19.501180287856169
 20
1.3217699105218039
 30
0.0
 11
19.576256877231671
 21
1.258773161598957
 31
0.0
  0
LINE
  5
34489
  8
0
 10
19.024089160920251
 20
0.8281415562920093
 30
0.0
 11
19.024089160920251
 21
0.848274037053207
 31
0.0
  0
ARC
  5
3448A
  8
0
 10
19.700089152995179
 20
1.2679861226175111
 30
0.0
 40
0.0075000000000007
 50
0.0
 51
90.0
  0
LINE
  5
3448B
  8
0
 10
19.707589145070109
 20
1.267986123503368
 30
0.0
 11
19.707589145070109
 21
1.259198196688915
 31
0.0
  0
ARC
  5
3448C
  8
0
 10
19.71133915299518
 20
1.259198191510758
 30
0.0
 40
0.0037499999999998
 50
180.0
 51
240.0000000000214
  0
LINE
  5
3448D
  8
0
 10
19.709464146743262
 20
1.2559505942054969
 30
0.0
 11
19.726718950747621
 21
1.245988522621531
 31
0.0
  0
ARC
  5
3448E
  8
0
 10
19.7285939624668
 20
1.249236122617511
 30
0.0
 40
0.0037499999999999
 50
239.9999999999911
 51
270.0000000000008
  0
LINE
  5
3448F
  8
0
 10
19.728593952420781
 20
1.2454861217586419
 30
0.0
 11
19.728839139588359
 21
1.2454861217586419
 31
0.0
  0
ARC
  5
34490
  8
0
 10
19.728839152995182
 20
1.249236122617511
 30
0.0
 40
0.0037500000000006
 50
270.0000000000008
 51
0.0
  0
LINE
  5
34491
  8
0
 10
19.732589142934671
 20
1.24923612510495
 30
0.0
 11
19.732589142934671
 21
1.267986123503368
 31
0.0
  0
LINE
  5
34492
  8
0
 10
19.77808916398121
 20
1.267986123503368
 30
0.0
 11
19.77808916398121
 21
0.8394860919056323
 31
0.0
  0
LINE
  5
34493
  8
0
 10
18.95358914200915
 20
0.8394860919056323
 30
0.0
 11
18.95358914200915
 21
1.267986123503368
 31
0.0
  0
LINE
  5
34494
  8
0
 10
19.765589165048929
 20
0.8269861296395966
 30
0.0
 11
19.745089141866941
 21
0.8269861296395966
 31
0.0
  0
ARC
  5
34495
  8
0
 10
19.745089152995181
 20
0.8394861226175125
 30
0.0
 40
0.0125000000000006
 50
180.0
 51
270.0000000000008
  0
LINE
  5
34496
  8
0
 10
19.732589142934671
 20
0.8394860919056323
 30
0.0
 11
19.732589142934671
 21
0.8582361086371722
 31
0.0
  0
ARC
  5
34497
  8
0
 10
19.728839152995182
 20
0.8582361226175123
 30
0.0
 40
0.0037500000000006
 50
0.0
 51
90.0
  0
LINE
  5
34498
  8
0
 10
19.728839139588359
 20
0.8619861119834805
 30
0.0
 11
19.728593952420781
 21
0.8619861119834805
 31
0.0
  0
ARC
  5
34499
  8
0
 10
19.7285939624668
 20
0.8582361226175123
 30
0.0
 40
0.0037500000000003
 50
90.0
 51
120.0000000000061
  0
LINE
  5
3449A
  8
0
 10
19.726718950747621
 20
0.8614837111205915
 30
0.0
 11
19.709464146743262
 21
0.8515216395366259
 31
0.0
  0
ARC
  5
3449B
  8
0
 10
19.71133915299518
 20
0.8482740537242783
 30
0.0
 40
0.0037500000000006
 50
119.9999999999701
 51
180.0
  0
LINE
  5
3449C
  8
0
 10
19.707589145070109
 20
0.848274037053207
 30
0.0
 11
19.707589145070109
 21
0.8281415562920093
 31
0.0
  0
ARC
  5
3449D
  8
0
 10
19.623348011449679
 20
1.267986122617512
 30
0.0
 40
0.0074999999999998
 50
90.0
 51
179.99999999997959
  0
LINE
  5
3449E
  8
0
 10
19.70100319115161
 20
0.8206975022863565
 30
0.0
 11
19.58651215042855
 21
0.8066397380161821
 31
0.0
  0
ARC
  5
3449F
  8
0
 10
19.587646418566941
 20
0.7974018451255387
 30
0.0
 40
0.0093072655717657
 50
96.999999999997186
 51
268.0000000000033
  0
LINE
  5
344A0
  8
0
 10
19.587321594411119
 20
0.7881002588524942
 30
0.0
 11
19.745907935741499
 21
0.7825622628278968
 31
0.0
  0
ARC
  5
344A1
  8
0
 10
19.748089152995181
 20
0.8450242191361888
 30
0.0
 40
0.0625000000000006
 50
268.00000000000051
 51
0.0
  0
LINE
  5
344A2
  8
0
 10
19.810589168538382
 20
0.8450242345952023
 30
0.0
 11
19.810589168538382
 21
1.4304861233728361
 31
0.0
  0
ARC
  5
344A3
  8
0
 10
19.748089152995181
 20
1.4304861226175121
 30
0.0
 40
0.0625
 50
0.0
 51
90.0
  0
LINE
  5
344A4
  8
0
 10
19.748089137210741
 20
1.4929861226175121
 30
0.0
 11
19.715589169319809
 21
1.4929861226175141
 31
0.0
  0
ARC
  5
344A5
  8
0
 10
19.715589152995179
 20
1.485486122617516
 30
0.0
 40
0.0074999999999998
 50
89.999999999993079
 51
180.0
  0
LINE
  5
344A6
  8
0
 10
19.7080891626272
 20
1.485486122799816
 30
0.0
 11
19.7080891626272
 21
1.467986122461314
 31
0.0
  0
ARC
  5
344A7
  8
0
 10
19.715589152995179
 20
1.467986122617511
 30
0.0
 40
0.0074999999999998
 50
180.0
 51
270.0000000000008
  0
LINE
  5
344A8
  8
0
 10
19.715589169319809
 20
1.4604861226436181
 30
0.0
 11
19.748089137210741
 21
1.4604861226436181
 31
0.0
  0
ARC
  5
344A9
  8
0
 10
19.748089152995181
 20
1.4304861226175121
 30
0.0
 40
0.0299999999999998
 50
0.0
 51
90.0
  0
LINE
  5
344AA
  8
0
 10
19.77808916398121
 20
1.4304861233728361
 30
0.0
 11
19.77808916398121
 21
1.3429861262636029
 31
0.0
  0
ARC
  5
344AB
  8
0
 10
19.748089152995181
 20
1.342986122617511
 30
0.0
 40
0.0299999999999998
 50
270.0000000000008
 51
0.0
  0
LINE
  5
344AC
  8
0
 10
19.748089137210741
 20
1.312986126992822
 30
0.0
 11
19.574839158609279
 21
1.312986126992822
 31
0.0
  0
ARC
  5
344AD
  8
0
 10
19.574839152995182
 20
1.3204861226175111
 30
0.0
 40
0.0074999999999998
 50
180.0
 51
270.00000000000409
  0
LINE
  5
344AE
  8
0
 10
19.567339151916659
 20
1.320486115352316
 30
0.0
 11
19.567339151916659
 21
1.43548612477906
 31
0.0
  0
ARC
  5
344AF
  8
0
 10
19.52233915299518
 20
1.435486122617512
 30
0.0
 40
0.0450000000000004
 50
0.0
 51
90.0
  0
LINE
  5
344B0
  8
0
 10
19.522339148427211
 20
1.480486122539413
 30
0.0
 11
19.20933915756315
 21
1.480486122539413
 31
0.0
  0
ARC
  5
344B1
  8
0
 10
19.209339152995181
 20
1.435486122617512
 30
0.0
 40
0.0450000000000004
 50
90.0
 51
180.0
  0
LINE
  5
344B2
  8
0
 10
19.164339154073701
 20
1.43548612477906
 30
0.0
 11
19.164339154073701
 21
1.320486115352316
 31
0.0
  0
ARC
  5
344B3
  8
0
 10
19.156839152995179
 20
1.3204861226175111
 30
0.0
 40
0.0074999999999998
 50
269.99999999999733
 51
0.0
  0
LINE
  5
344B4
  8
0
 10
19.156839147381081
 20
1.312986126992822
 30
0.0
 11
18.98358916877962
 21
1.312986126992822
 31
0.0
  0
ARC
  5
344B5
  8
0
 10
18.983589152995179
 20
1.342986122617511
 30
0.0
 40
0.03
 50
180.0
 51
270.0000000000008
  0
LINE
  5
344B6
  8
0
 10
18.95358914200915
 20
1.3429861262636029
 30
0.0
 11
18.95358914200915
 21
1.3704861202479921
 31
0.0
  0
ARC
  5
344B7
  8
0
 10
18.983589152995179
 20
1.4304861226175121
 30
0.0
 40
0.03
 50
90.0
 51
180.0
  0
LINE
  5
344B8
  8
0
 10
18.98358916877962
 20
1.4604861226436181
 30
0.0
 11
19.016089136670551
 21
1.4604861226436181
 31
0.0
  0
ARC
  5
344B9
  8
0
 10
19.016089152995178
 20
1.467986122617511
 30
0.0
 40
0.0075000000000001
 50
270.0000000000008
 51
0.0
  0
LINE
  5
344BA
  8
0
 10
19.023589143363161
 20
1.467986122461314
 30
0.0
 11
19.023589143363161
 21
1.485486122799816
 31
0.0
  0
ARC
  5
344BB
  8
0
 10
19.016089152995178
 20
1.485486122617512
 30
0.0
 40
0.0075000000000003
 50
0.0
 51
90.0
  0
LINE
  5
344BC
  8
0
 10
19.016089136670551
 20
1.4929861226175121
 30
0.0
 11
18.98358916877962
 21
1.4929861226175121
 31
0.0
  0
ARC
  5
344BD
  8
0
 10
18.983589152995179
 20
1.4304861226175121
 30
0.0
 40
0.0625
 50
90.0
 51
180.0
  0
LINE
  5
344BE
  8
0
 10
18.921089137451979
 20
1.4304861233728361
 30
0.0
 11
18.921089137451979
 21
0.8450242345952023
 31
0.0
  0
ARC
  5
344BF
  8
0
 10
18.983589152995179
 20
0.8450242191361888
 30
0.0
 40
0.0625000000000006
 50
180.0
 51
272.0000000000008
  0
LINE
  5
344C0
  8
0
 10
19.20933915756315
 20
1.4429861223051159
 30
0.0
 11
19.36083915273478
 21
1.4429861223051159
 31
0.0
  0
LINE
  5
344C1
  8
0
 10
18.95358914200915
 20
1.3804861230604399
 30
0.0
 11
18.95358914200915
 21
1.4304861233728361
 31
0.0
  0
LINE
  5
344C2
  8
0
 10
19.024089160920251
 20
1.259198196688915
 30
0.0
 11
19.024089160920251
 21
1.267986123503368
 31
0.0
  0
LINE
  5
344C3
  8
0
 10
19.155421428758689
 20
1.258773161598957
 30
0.0
 11
19.230498018134188
 21
1.3217699105218039
 31
0.0
  0
ARC
  5
344C4
  8
0
 10
19.209339152995181
 20
1.3685245765024121
 30
0.0
 40
0.0074999999999998
 50
180.0
 51
270.0000000000008
  0
LINE
  5
344C5
  8
0
 10
19.1506005144503
 20
1.257018498535641
 30
0.0
 11
19.123330289478261
 21
1.257018498535641
 31
0.0
  0
LINE
  5
344C6
  8
0
 10
19.623348011564211
 20
1.275486130195985
 30
0.0
 11
19.700089138377489
 21
1.275486130195985
 31
0.0
  0
ARC
  5
344C7
  8
0
 10
19.765589152995179
 20
0.8394861226175125
 30
0.0
 40
0.0125000000000006
 50
270.0000000000008
 51
0.0
  0
ARC
  5
344C8
  8
0
 10
19.700089152995179
 20
0.8281415621016812
 30
0.0
 40
0.0074999999999998
 50
277.00000000000313
 51
0.0
  0
LINE
  5
344C9
  8
0
 10
19.083589156357679
 20
1.1089861319515051
 30
0.0
 11
19.083589156357679
 21
1.1539861354409591
 31
0.0
  0
ARC
  5
344CA
  8
0
 10
19.08108915299518
 20
1.1539861226175141
 30
0.0
 40
0.0025000000000003
 50
0.0
 51
90.0
  0
LINE
  5
344CB
  8
0
 10
19.063589154612949
 20
1.1564861276806211
 30
0.0
 11
19.08108914578489
 21
1.1564861276806211
 31
0.0
  0
ARC
  5
344CC
  8
0
 10
19.063589152995181
 20
1.1539861226175141
 30
0.0
 40
0.0025000000000003
 50
90.0
 51
180.0
  0
LINE
  5
344CD
  8
0
 10
19.061089144040171
 20
1.1089861319515051
 30
0.0
 11
19.061089144040171
 21
1.1539861354409591
 31
0.0
  0
ARC
  5
344CE
  8
0
 10
19.063589152995181
 20
1.1089861226175139
 30
0.0
 40
0.0025000000000003
 50
180.0
 51
270.0000000000008
  0
LINE
  5
344CF
  8
0
 10
19.08108914578489
 20
1.106486139711842
 30
0.0
 11
19.063589154612949
 21
1.106486139711842
 31
0.0
  0
ARC
  5
344D0
  8
0
 10
19.08108915299518
 20
1.1089861226175139
 30
0.0
 40
0.0025000000000003
 50
270.0000000000008
 51
0.0
  0
ARC
  5
344D1
  8
0
 10
19.08108915299518
 20
0.9984861226175141
 30
0.0
 40
0.0025000000000003
 50
0.0
 51
90.0
  0
LINE
  5
344D2
  8
0
 10
19.083589156357679
 20
0.9534861349674068
 30
0.0
 11
19.083589156357679
 21
0.9984861384568599
 31
0.0
  0
LINE
  5
344D3
  8
0
 10
19.063589154612949
 20
1.0009861306965231
 30
0.0
 11
19.08108914578489
 21
1.0009861306965231
 31
0.0
  0
LINE
  5
344D4
  8
0
 10
19.061089144040171
 20
0.9534861349674068
 30
0.0
 11
19.061089144040171
 21
0.9984861384568599
 31
0.0
  0
ARC
  5
344D5
  8
0
 10
19.063589152995181
 20
0.9984861226175141
 30
0.0
 40
0.0025000000000003
 50
90.0
 51
180.0
  0
ARC
  5
344D6
  8
0
 10
19.063589152995181
 20
0.9534861226175138
 30
0.0
 40
0.0025000000000001
 50
180.0
 51
270.0000000000008
  0
LINE
  5
344D7
  8
0
 10
19.08108914578489
 20
0.9509861060615008
 30
0.0
 11
19.063589154612949
 21
0.9509861060615008
 31
0.0
  0
ARC
  5
344D8
  8
0
 10
19.08108915299518
 20
0.9534861226175138
 30
0.0
 40
0.0025000000000001
 50
270.0000000000008
 51
0.0
  0
LINE
  5
344D9
  8
0
 10
19.648089149632678
 20
0.9732361134806364
 30
0.0
 11
19.648089149632678
 21
0.9282361099911838
 31
0.0
  0
ARC
  5
344DA
  8
0
 10
19.650589152995181
 20
0.9732361226175134
 30
0.0
 40
0.0025000000000003
 50
90.0
 51
180.0
  0
LINE
  5
344DB
  8
0
 10
19.65058916020547
 20
0.9757361057202995
 30
0.0
 11
19.655589152445121
 21
0.9757361057202995
 31
0.0
  0
ARC
  5
344DC
  8
0
 10
19.65558915299518
 20
0.9732361226175134
 30
0.0
 40
0.0025000000000003
 50
0.0
 51
90.0
  0
LINE
  5
344DD
  8
0
 10
19.658089144684791
 20
0.9732361134806364
 30
0.0
 11
19.658089144684791
 21
0.9282361099911838
 31
0.0
  0
ARC
  5
344DE
  8
0
 10
19.650589152995181
 20
0.9282361226175135
 30
0.0
 40
0.0025000000000003
 50
180.0
 51
270.0000000000008
  0
LINE
  5
344DF
  8
0
 10
19.655589152445121
 20
0.9257361177515207
 30
0.0
 11
19.65058916020547
 21
0.9257361177515207
 31
0.0
  0
ARC
  5
344E0
  8
0
 10
19.65558915299518
 20
0.9282361226175135
 30
0.0
 40
0.0025000000000003
 50
270.0000000000008
 51
0.0
  0
LINE
  5
344E1
  8
0
 10
19.648089149632678
 20
1.0762361369489091
 30
0.0
 11
19.648089149632678
 21
1.031236133459456
 31
0.0
  0
ARC
  5
344E2
  8
0
 10
19.650589152995181
 20
1.076236122617513
 30
0.0
 40
0.0025000000000003
 50
90.0
 51
180.0
  0
LINE
  5
344E3
  8
0
 10
19.65058916020547
 20
1.078736129188572
 30
0.0
 11
19.655589152445121
 21
1.078736129188572
 31
0.0
  0
ARC
  5
344E4
  8
0
 10
19.65558915299518
 20
1.076236122617513
 30
0.0
 40
0.0024999999999999
 50
0.0
 51
90.0
  0
LINE
  5
344E5
  8
0
 10
19.658089144684791
 20
1.031236133459456
 30
0.0
 11
19.658089144684791
 21
1.0762361369489091
 31
0.0
  0
ARC
  5
344E6
  8
0
 10
19.650589152995181
 20
1.0312361226175131
 30
0.0
 40
0.0025000000000003
 50
180.0
 51
270.0000000000008
  0
LINE
  5
344E7
  8
0
 10
19.65058916020547
 20
1.0287361045535499
 30
0.0
 11
19.655589152445121
 21
1.0287361045535499
 31
0.0
  0
ARC
  5
344E8
  8
0
 10
19.65558915299518
 20
1.0312361226175131
 30
0.0
 40
0.0024999999999999
 50
270.0000000000008
 51
0.0
  0
LINE
  5
344E9
  8
0
 10
19.648089149632678
 20
1.179236123750939
 30
0.0
 11
19.648089149632678
 21
1.1342361202614859
 31
0.0
  0
ARC
  5
344EA
  8
0
 10
19.650589152995181
 20
1.179236122617513
 30
0.0
 40
0.0025000000000003
 50
90.0
 51
180.0
  0
LINE
  5
344EB
  8
0
 10
19.65058916020547
 20
1.1817361159906019
 30
0.0
 11
19.655589152445121
 21
1.1817361159906019
 31
0.0
  0
ARC
  5
344EC
  8
0
 10
19.65558915299518
 20
1.179236122617513
 30
0.0
 40
0.0025000000000003
 50
0.0
 51
90.0
  0
LINE
  5
344ED
  8
0
 10
19.658089144684791
 20
1.1342361202614859
 30
0.0
 11
19.658089144684791
 21
1.179236123750939
 31
0.0
  0
ARC
  5
344EE
  8
0
 10
19.65558915299518
 20
1.1342361226175131
 30
0.0
 40
0.0025000000000003
 50
270.0000000000008
 51
0.0
  0
LINE
  5
344EF
  8
0
 10
19.65058916020547
 20
1.131736128021823
 30
0.0
 11
19.655589152445121
 21
1.131736128021823
 31
0.0
  0
ARC
  5
344F0
  8
0
 10
19.650589152995181
 20
1.1342361226175131
 30
0.0
 40
0.0025000000000003
 50
180.0
 51
270.0000000000008
  0
INSERT
  5
3451F
  8
0
  6
CONTINUOUS
  2
*X7
 10
0.0
 20
0.0
 30
0.0
1001
GRADIENTCOLOR1ACI
1070
     5
1001
GRADIENTCOLOR2ACI
1070
     2
1001
ACAD
1000
HATCH
1002
{
1070
    19
1000
ANSI31
1040
0.0125
1040
1.5707963267948959
1000
R14_HATCH_DATA
1000
3451F
1011
1.0
1021
0.0
1031
0.0
1021
0.0
1031
0.0
1011
0.0
1021
0.0
1031
0.0
1021
1.0
1031
0.0
1011
0.0
1021
0.0
1031
0.0
1021
0.0
1031
1.0
1040
0.0
1010
0.0
1020
0.0
1030
1.0
1000
ANSI31
1070
     0
1070
     0
1071
        5
1071
        7
1070
     1
1070
     1
1071
        8
1040
19.083589152995181
1040
1.1539861226175141
1040
0.4142135623730951
1040
19.08108915299518
1040
1.156486122617514
1040
0.0
1040
19.063589153718478
1040
1.156486122617514
1040
0.4142136471130934
1040
19.06108915299518
1040
1.1539861226175141
1040
0.0
1040
19.06108915299518
1040
1.108986123115014
1040
0.4152971659568382
1040
19.063598398067001
1040
1.106486139711842
1040
0.0
1040
19.081098398067009
1040
1.106486139711842
1040
0.4131308466773572
1040
19.083589152995181
1040
1.1089861226175131
1040
0.0
1071
        0
1071
        7
1070
     1
1070
     1
1071
        8
1040
19.083589152995181
1040
0.9984861226175144
1040
0.4142135623730951
1040
19.08108915299518
1040
1.0009861226175141
1040
0.0
1040
19.063589154149319
1040
1.0009861226175141
1040
0.4142136975895029
1040
19.06108915299518
1040
0.9984861226175144
1040
0.0
1040
19.06108915299518
1040
0.953486123115014
1040
0.4142136206589285
1040
19.063589152995181
1040
0.9509861226175136
1040
0.0
1040
19.081089150630032
1040
0.9509861226175146
1040
0.4142138394671746
1040
19.083589152995181
1040
0.9534861226175134
1040
0.0
1071
        0
1071
        7
1070
     1
1070
     1
1071
        8
1040
19.658089144684791
1040
1.179242568691893
1040
0.4141327474989553
1040
19.655583396736549
1040
1.1817361159906019
1040
0.0
1040
19.65058339673655
1040
1.1817361159906019
1040
0.4135393348131171
1040
19.64808915299518
1040
1.179236122617513
1040
0.0
1040
19.64808915299518
1040
1.1342361228043181
1040
0.4148227256284786
1040
19.650594351218189
1040
1.131736128021823
1040
0.0
1040
19.655594351218191
1040
1.131736128021823
1040
0.4143597652112857
1040
19.658089144684791
1040
1.1342425686918991
1040
0.0
1071
        0
1071
        7
1070
     1
1070
     1
1071
        8
1040
19.658089144684791
1040
1.0762425686918931
1040
0.4134585584323851
1040
19.65558915299518
1040
1.0787361226175129
1040
0.0
1040
19.65058915628072
1040
1.078736122617511
1040
0.4142139472974363
1040
19.64808915299518
1040
1.0762361226175139
1040
0.0
1040
19.64808915299518
1040
1.0312361228043181
1040
0.4142135842587472
1040
19.650589152995181
1040
1.028736122617512
1040
0.0
1040
19.655589143963201
1040
1.0287361226175289
1040
0.414970028331384
1040
19.658089144684791
1040
1.0312425686918989
1040
0.0
1071
        0
1071
        7
1070
     1
1070
     1
1071
        8
1040
19.658089144684791
1040
0.9732425686918929
1040
0.4145352606451796
1040
19.655579961380202
1040
0.9757361057202995
1040
0.0
1040
19.650579961380199
1040
0.9757361057202995
1040
0.4131371048043956
1040
19.64808915299518
1040
0.9732361226175139
1040
0.0
1040
19.64808915299518
1040
0.9282361228043187
1040
0.4142135842587342
1040
19.650589152995181
1040
0.9257361226175132
1040
0.0
1040
19.655589150562179
1040
0.9257361226175145
1040
0.4149692547983568
1040
19.658089144684791
1040
0.9282425686918994
1040
0.0
1071
        0
1070
     1
1070
     1
1040
1.5707963267948959
1040
0.0125
1070
     0
1070
     1
1040
2.3561944901923439
1040
9.4770789422713548
1040
0.6929975444538266
1040
-0.001104854345604
1040
-0.001104854345604
1070
     0
1040
0.0014459286141771
1071
        5
1040
19.072815808539989
1040
1.1337652913862779
1040
0.0
1040
19.073539195069142
1040
0.979773891946515
1040
0.0
1040
19.652243954217639
1040
1.1540082869528809
1040
0.0
1040
19.65296734074678
1040
1.051347359406118
1040
0.0
1040
19.652243954217639
1040
0.9494093864171833
1040
0.0
1002
}
  0
TEXT
  5
34525
  8
0
 10
20.898242395094559
 20
1.0843741762854411
 30
0.0
 40
0.125
  1
CONTROL TRACK 120/250 OR 277V 1CKT
 41
0.7500000000000002
 51
15.0
  7
P125
 72
     2
 11
23.907170966523129
 21
1.1468741762854411
 31
0.0
 73
     2
  0
VIEWPORT
  5
1FE31
 67
     1
  8
0
 10
5.3750003604438357
 20
4.124999881729364
 30
0.0
 40
11.637999745766949
 41
9.2053265898804302
 68
     1
 69
     1
1001
ACAD
1000
MVIEW
1002
{
1070
    16
1010
0.0
1020
0.0
1030
0.0
1010
0.0
1020
0.0
1030
1.0
1040
0.0
1040
9.2053265898804302
1040
5.3750003604438357
1040
4.124999881729364
1040
50.0
1040
0.0
1040
0.0
1070
     0
1070
   100
1070
     1
1070
     1
1070
     0
1070
     0
1070
     0
1070
     0
1040
0.0
1040
0.0
1040
0.0
1040
0.5
1040
0.5
1040
0.5
1040
0.5
1070
     0
1002
{
1002
}
1002
}
  0
VIEWPORT
  5
1FE35
 67
     1
  8
0
 10
5.3750001210866012
 20
4.1249998207167371
 30
0.0
 40
8.6000001937385626
 41
6.5999997131467811
 68
     2
 69
     2
1001
ACAD
1000
MVIEW
1002
{
1070
    16
1010
0.0
1020
0.0
1030
0.0
1010
0.0
1020
0.0
1030
1.0
1040
0.0
1040
67.553026373456689
1040
4.2749751275075978
1040
33.547831964243848
1040
50.0
1040
0.0
1040
0.0
1070
     0
1070
   100
1070
     1
1070
     1
1070
     0
1070
     0
1070
     0
1070
     0
1040
0.0
1040
0.0
1040
0.0
1040
0.5
1040
0.5
1040
0.5
1040
0.5
1070
     0
1002
{
1002
}
1002
}
  0
ENDSEC
  0
EOF
