  0
SECTION
  2
HEADER
  9
$ACADVER
  1
AC1009
  9
$INSBASE
 10
0.0
 20
0.0
 30
0.0
  9
$EXTMIN
 10
0.0482483702342052
 20
0.0681458032552058
 30
-0.0015258207003583
  9
$EXTMAX
 10
1.5138550218123179
 20
1.269928005605393
 30
0.0000000349246037
  9
$LIMMIN
 10
0.0
 20
0.0
  9
$LIMMAX
 10
34.0
 20
22.0
  9
$ORTHOMODE
 70
     1
  9
$REGENMODE
 70
     1
  9
$FILLMODE
 70
     1
  9
$QTEXTMODE
 70
     0
  9
$MIRRTEXT
 70
     1
  9
$DRAGMODE
 70
     2
  9
$LTSCALE
 40
1.0
  9
$OSMODE
 70
    39
  9
$ATTMODE
 70
     1
  9
$TEXTSIZE
 40
0.12
  9
$TRACEWID
 40
0.05
  9
$TEXTSTYLE
  7
STANDARD
  9
$CLAYER
  8
0
  9
$CELTYPE
  6
BYLAYER
  9
$CECOLOR
 62
   256
  9
$DIMSCALE
 40
1.0
  9
$DIMASZ
 40
0.156
  9
$DIMEXO
 40
0.05
  9
$DIMDLI
 40
0.38
  9
$DIMRND
 40
0.0
  9
$DIMDLE
 40
0.0
  9
$DIMEXE
 40
0.125
  9
$DIMTP
 40
0.0
  9
$DIMTM
 40
0.0
  9
$DIMTXT
 40
0.14
  9
$DIMCEN
 40
0.09
  9
$DIMTSZ
 40
0.0
  9
$DIMTOL
 70
     0
  9
$DIMLIM
 70
     0
  9
$DIMTIH
 70
     1
  9
$DIMTOH
 70
     1
  9
$DIMSE1
 70
     0
  9
$DIMSE2
 70
     0
  9
$DIMTAD
 70
     0
  9
$DIMZIN
 70
     0
  9
$DIMBLK
  1

  9
$DIMASO
 70
     1
  9
$DIMSHO
 70
     1
  9
$DIMPOST
  1

  9
$DIMAPOST
  1

  9
$DIMALT
 70
     0
  9
$DIMALTD
 70
     2
  9
$DIMALTF
 40
25.399999999999999
  9
$DIMLFAC
 40
1.0
  9
$DIMTOFL
 70
     0
  9
$DIMTVP
 40
0.0
  9
$DIMTIX
 70
     0
  9
$DIMSOXD
 70
     0
  9
$DIMSAH
 70
     0
  9
$DIMBLK1
  1

  9
$DIMBLK2
  1

  9
$DIMSTYLE
  2
STANDARD
  9
$DIMCLRD
 70
     0
  9
$DIMCLRE
 70
     0
  9
$DIMCLRT
 70
     0
  9
$DIMTFAC
 40
1.0
  9
$DIMGAP
 40
0.06
  9
$LUNITS
 70
     2
  9
$LUPREC
 70
     3
  9
$SKETCHINC
 40
0.1
  9
$FILLETRAD
 40
0.5
  9
$AUNITS
 70
     0
  9
$AUPREC
 70
     2
  9
$MENU
  1
.
  9
$ELEVATION
 40
0.0
  9
$PELEVATION
 40
0.0
  9
$THICKNESS
 40
0.0
  9
$LIMCHECK
 70
     0
  9
$BLIPMODE
 70
     0
  9
$CHAMFERA
 40
0.0
  9
$CHAMFERB
 40
0.0
  9
$SKPOLY
 70
     0
  9
$TDCREATE
 40
2457492.7247267128
  9
$TDUPDATE
 40
2457492.5667584841
  9
$TDINDWG
 40
0.0082185185
  9
$TDUSRTIMER
 40
0.0082185185
  9
$USRTIMER
 70
     1
  9
$ANGBASE
 50
0.0
  9
$ANGDIR
 70
     0
  9
$PDMODE
 70
     0
  9
$PDSIZE
 40
-1.0
  9
$PLINEWID
 40
0.0
  9
$COORDS
 70
     1
  9
$SPLFRAME
 70
     0
  9
$SPLINETYPE
 70
     6
  9
$SPLINESEGS
 70
     8
  9
$ATTDIA
 70
     0
  9
$ATTREQ
 70
     1
  9
$HANDLING
 70
     1
  9
$HANDSEED
  5
59C
  9
$SURFTAB1
 70
     6
  9
$SURFTAB2
 70
     6
  9
$SURFTYPE
 70
     6
  9
$SURFU
 70
     6
  9
$SURFV
 70
     6
  9
$UCSNAME
  2

  9
$UCSORG
 10
0.0
 20
0.0
 30
0.0
  9
$UCSXDIR
 10
1.0
 20
0.0
 30
0.0
  9
$UCSYDIR
 10
0.0
 20
1.0
 30
0.0
  9
$PUCSNAME
  2

  9
$PUCSORG
 10
0.0
 20
0.0
 30
0.0
  9
$PUCSXDIR
 10
1.0
 20
0.0
 30
0.0
  9
$PUCSYDIR
 10
0.0
 20
1.0
 30
0.0
  9
$USERI1
 70
     0
  9
$USERI2
 70
     0
  9
$USERI3
 70
     0
  9
$USERI4
 70
     0
  9
$USERI5
 70
     0
  9
$USERR1
 40
0.0
  9
$USERR2
 40
0.0
  9
$USERR3
 40
0.0
  9
$USERR4
 40
0.0
  9
$USERR5
 40
0.0
  9
$WORLDVIEW
 70
     0
  9
$SHADEDGE
 70
     3
  9
$SHADEDIF
 70
    70
  9
$TILEMODE
 70
     1
  9
$MAXACTVP
 70
    64
  9
$PLIMCHECK
 70
     0
  9
$PEXTMIN
 10
1.0000000000000000E+020
 20
1.0000000000000000E+020
 30
1.0000000000000000E+020
  9
$PEXTMAX
 10
-1.0000000000000000E+020
 20
-1.0000000000000000E+020
 30
-1.0000000000000000E+020
  9
$PLIMMIN
 10
0.0
 20
0.0
  9
$PLIMMAX
 10
12.0
 20
9.0
  9
$UNITMODE
 70
     0
  9
$VISRETAIN
 70
     1
  9
$PLINEGEN
 70
     0
  9
$PSLTSCALE
 70
     1
  0
ENDSEC
  0
SECTION
  2
TABLES
  0
TABLE
  2
VPORT
 70
     1
  0
VPORT
  2
*ACTIVE
 70
     0
 10
0.0
 20
0.0
 11
1.0
 21
1.0
 12
0.7810516397350895
 22
0.6690369088105217
 13
0.0
 23
0.0
 14
0.5
 24
0.5
 15
0.5
 25
0.5
 16
0.0
 26
0.0
 36
1.0
 17
0.0
 27
0.0
 37
0.0
 40
1.4526524696076479
 41
2.0328467153284668
 42
50.0
 43
0.0
 44
0.0
 50
0.0
 51
0.0
 71
     0
 72
  2000
 73
     1
 74
     3
 75
     0
 76
     0
 77
     0
 78
     0
  0
ENDTAB
  0
TABLE
  2
LTYPE
 70
     8
  0
LTYPE
  2
CONTINUOUS
 70
     0
  3
Solid line
 72
    65
 73
     0
 40
0.0
  0
ENDTAB
  0
TABLE
  2
LAYER
 70
     2
  0
LAYER
  2
0
 70
     0
 62
     7
  6
CONTINUOUS
  0
ENDTAB
  0
TABLE
  2
STYLE
 70
     4
  0
STYLE
  2
STANDARD
 70
     0
 40
0.0
 41
1.0
 50
0.0
 71
     0
 42
0.12
  3
txt
  4

  0
STYLE
  2
P125
 70
     0
 40
0.125
 41
0.75
 50
15.0
 71
     0
 42
0.125
  3
print
  4

  0
ENDTAB
  0
TABLE
  2
VIEW
 70
     2
  0
ENDTAB
  0
TABLE
  2
UCS
 70
     0
  0
ENDTAB
  0
TABLE
  2
APPID
 70
    19
  0
APPID
  2
ACAD
 70
     0
  0
APPID
  2
ACADANNOTATIVE
 70
     0
  0
APPID
  2
ACAD_NAV_VCDISPLAY
 70
     0
  0
APPID
  2
ACAD_EXEMPT_FROM_CAD_STANDARDS
 70
     0
  0
APPID
  2
ACAD_MLEADERVER
 70
     0
  0
APPID
  2
ACAD_PSEXT
 70
     0
  0
APPID
  2
ACAD_DSTYLE_DIMJAG
 70
     0
  0
APPID
  2
ACAD_DSTYLE_DIMTALN
 70
     0
  0
APPID
  2
ACAECLAYERSTANDARD
 70
     0
  0
APPID
  2
ACAD_EXEMPT_FROM_CAD_STAND
 70
     0
  0
APPID
  2
ACAD_DSTYLE_DIMBREAK
 70
     0
  0
APPID
  2
ACAUTHENVIRON
 70
     0
  0
APPID
  2
ACDBDYNAMICBLOCKTRUENAME
 70
     0
  0
APPID
  2
ACDBDYNAMICBLOCKGUID
 70
     0
  0
APPID
  2
ACDBBLOCKREPETAG
 70
     0
  0
APPID
  2
ACAD_DSTYLE_DIMRADIAL_EXTE
 70
     0
  0
APPID
  2
GRADIENTCOLOR1ACI
 70
     0
  0
APPID
  2
GRADIENTCOLOR2ACI
 70
     0
  0
APPID
  2
ACCMTRANSPARENCY
 70
     0
  0
ENDTAB
  0
TABLE
  2
DIMSTYLE
 70
     4
  0
DIMSTYLE
  2
STANDARD
 70
     0
  3

  4

  5

  6

  7

 40
1.0
 41
0.18
 42
0.0625
 43
0.38
 44
0.18
 45
0.0
 46
0.0
 47
0.0
 48
0.0
140
0.18
141
0.09
142
0.0
143
25.399999999999999
144
1.0
145
0.0
146
1.0
147
0.09
 71
     0
 72
     0
 73
     1
 74
     1
 75
     0
 76
     0
 77
     0
 78
     0
170
     0
171
     2
172
     0
173
     0
174
     0
175
     0
176
     0
177
     0
178
     0
  0
ENDTAB
  0
ENDSEC
  0
SECTION
  2
BLOCKS
  0
BLOCK
  8
0
  2
$MODEL_SPACE
 70
     0
 10
0.0
 20
0.0
 30
0.0
  3
$MODEL_SPACE
  1

  0
ENDBLK
  5
425
  8
0
  0
BLOCK
 67
     1
  8
0
  2
$PAPER_SPACE
 70
     0
 10
0.0
 20
0.0
 30
0.0
  3
$PAPER_SPACE
  1

  0
ENDBLK
  5
423
 67
     1
  8
0
  0
ENDSEC
  0
SECTION
  2
ENTITIES
  0
LINE
  5
12D
  8
0
 62
     5
 10
1.051166900403915
 20
0.6863076391762381
 30
0.0
 11
0.6475005864716201
 21
0.0711970698926903
 31
0.0
  0
LINE
  5
130
  8
0
 62
     5
 10
0.6421042549971684
 20
0.0682838542664057
 30
0.0
 11
0.0582251457251294
 21
0.0682838542664057
 31
0.0
  0
ARC
  5
132
  8
0
 62
     5
 10
1.04577059212783
 20
0.7331020090390124
 30
0.0
 40
0.0064545454545455
 50
0.0
 51
90.0
  0
ARC
  5
135
  8
0
 62
     5
 10
0.642104263696925
 20
0.0747383726753757
 30
0.0
 40
0.0064545454545457
 50
270.0000000000008
 51
326.72511201516892
  0
LINE
  5
137
  8
0
 62
     5
 10
0.0517705591690643
 20
0.0747383802365044
 30
0.0
 11
0.0517705591690643
 21
0.7331020091170166
 31
0.0
  0
LINE
  5
139
  8
0
 62
     5
 10
0.0582251457251294
 20
0.7395565544935576
 30
0.0
 11
1.0457705916491999
 21
0.7395565544935576
 31
0.0
  0
ARC
  5
13C
  8
0
 62
     5
 10
1.04577059212783
 20
0.6898489683796127
 30
0.0
 40
0.0064545454545456
 50
326.72511201516448
 51
0.0
  0
ARC
  5
13D
  8
0
 62
     5
 10
0.0582251375823761
 20
0.0747383726753757
 30
0.0
 40
0.0064545454545455
 50
180.0
 51
270.0000000000008
  0
LINE
  5
13E
  8
0
 62
     5
 10
1.052225136552414
 20
0.7331020091170166
 30
0.0
 11
1.052225136552414
 21
0.6898489684531669
 31
0.0
  0
CIRCLE
  5
14C
  8
0
 62
     5
 10
0.1018578648551022
 20
1.1358656454026479
 30
0.0
 40
0.0254281001837808
  0
ARC
  5
14D
  8
0
 62
     5
 10
0.1018578648551022
 20
1.1358656454026479
 30
0.0
 40
0.0064545454545457
 50
329.80348382066842
 51
29.803483820668141
  0
ARC
  5
14E
  8
0
 62
     5
 10
0.1018578648551022
 20
1.1358656454026479
 30
0.0
 40
0.0064545454545457
 50
89.803483820662933
 51
149.80348382066319
  0
ARC
  5
14F
  8
0
 62
     5
 10
0.1018578648551022
 20
1.1358656454026479
 30
0.0
 40
0.0064545454545457
 50
29.803483820668141
 51
89.803483820662933
  0
ARC
  5
150
  8
0
 62
     5
 10
0.1018578648551022
 20
1.1358656454026479
 30
0.0
 40
0.0064545454545457
 50
269.803483820667
 51
329.80348382066842
  0
ARC
  5
151
  8
0
 62
     5
 10
0.1018578648551022
 20
1.1358656454026479
 30
0.0
 40
0.0064545454545453
 50
209.803483820666
 51
269.803483820667
  0
ARC
  5
152
  8
0
 62
     5
 10
0.1018578648551022
 20
1.1358656454026479
 30
0.0
 40
0.0064545454545456
 50
149.80348382066319
 51
209.803483820666
  0
CIRCLE
  5
160
  8
0
 62
     5
 10
0.1018578648551022
 20
0.7744110999481033
 30
0.0
 40
0.0254281001837805
  0
ARC
  5
161
  8
0
 62
     5
 10
0.1018578648551022
 20
0.7744110999481033
 30
0.0
 40
0.0064545454545457
 50
19.80348382066191
 51
79.803483820662976
  0
ARC
  5
162
  8
0
 62
     5
 10
0.1018578648551022
 20
0.7744110999481033
 30
0.0
 40
0.0064545454545457
 50
79.803483820662976
 51
139.8034838206687
  0
ARC
  5
163
  8
0
 62
     5
 10
0.1018578648551022
 20
0.7744110999481033
 30
0.0
 40
0.0064545454545457
 50
259.803483820667
 51
319.80348382066711
  0
ARC
  5
164
  8
0
 62
     5
 10
0.1018578648551022
 20
0.7744110999481033
 30
0.0
 40
0.0064545454545456
 50
319.80348382066711
 51
19.80348382066191
  0
ARC
  5
165
  8
0
 62
     5
 10
0.1018578648551022
 20
0.7744110999481033
 30
0.0
 40
0.0064545454545457
 50
199.8034838206668
 51
259.803483820667
  0
ARC
  5
166
  8
0
 62
     5
 10
0.1018578648551022
 20
0.7744110999481033
 30
0.0
 40
0.0064545454545453
 50
139.8034838206687
 51
199.8034838206668
  0
ARC
  5
18A
  8
0
 62
     5
 10
0.0801708447266481
 20
0.7429867448409535
 30
0.0
 40
0.0041311830922865
 50
180.00204312436381
 51
236.13128537805531
  0
LINE
  5
18C
  8
0
 62
     5
 10
0.0760396616369882
 20
1.261956568964012
 30
0.0
 11
0.0760396616369882
 21
0.7429865975260745
 31
0.0
  0
ARC
  5
18D
  8
0
 62
     5
 10
0.0719087739460114
 20
1.2619565581684311
 30
0.0
 40
0.0041309090909092
 50
0.0
 51
93.000000000002444
  0
LINE
  5
18F
  8
0
 62
     5
 10
0.0502214971706275
 20
1.264951454473505
 30
0.0
 11
0.0502214971706275
 21
1.2649565436947141
 31
0.0
  0
LINE
  5
190
  8
0
 62
     5
 10
0.0502214971706275
 20
1.2649565436947141
 30
0.0
 11
0.0716925579351012
 21
1.2660818068555779
 31
0.0
  0
LINE
  5
192
  8
0
 62
     5
 10
0.0502214971706275
 20
0.6453201875467767
 30
0.0
 11
0.0502214971706275
 21
1.264951454473505
 31
0.0
  0
ARC
  5
196
  8
0
 62
     5
 10
0.0801705921278294
 20
1.2189265114751491
 30
0.0
 40
0.004130909090909
 50
92.999999999997655
 51
180.0
  0
LINE
  5
198
  8
0
 62
     5
 10
0.1366704014388417
 20
1.2260241226186981
 30
0.0
 11
0.0799544238799873
 21
1.22305174479586
 31
0.0
  0
ARC
  5
19A
  8
0
 62
     5
 10
0.1364542284914659
 20
1.2301493681218769
 30
0.0
 40
0.0041309090909092
 50
273.0000000000033
 51
296.63881499088228
  0
LINE
  5
19C
  8
0
 62
     5
 10
0.1428667706045227
 20
1.2655557389060941
 30
0.0
 11
0.1428667706045227
 21
1.2303658644625259
 31
0.0
  0
LINE
  5
19E
  8
0
 62
     5
 10
0.1424343685596682
 20
1.2303658644625259
 30
0.0
 11
0.1424343685596682
 21
1.2655557389060941
 31
0.0
  0
ARC
  5
19F
  8
0
 62
     5
 10
0.1228567520681025
 20
1.2303780076016211
 30
0.0
 40
0.0200100222209698
 50
348.06713426890991
 51
359.9652298905412
  0
ARC
  5
1A0
  8
0
 62
     5
 10
0.1622139239192635
 20
1.2283032455167431
 30
0.0
 40
0.0198868098783792
 50
174.0466933930328
 51
185.95330660696791
  0
ARC
  5
1A1
  8
0
 62
     5
 10
0.1624611710914527
 20
1.2655418364905371
 30
0.0
 40
0.0200268073572461
 50
168.07213833743651
 51
179.9602258220103
  0
ARC
  5
1A2
  8
0
 62
     5
 10
0.123099197424979
 20
1.2676183578518769
 30
0.0
 40
0.0198748923600638
 50
354.04311071674459
 51
5.956889283256225
  0
LINE
  5
1A5
  8
0
 62
     5
 10
0.2032915181193498
 20
1.223051229815143
 30
0.0
 11
0.1424343685596682
 21
1.22624062657096
 31
0.0
  0
LINE
  5
1A8
  8
0
 62
     5
 10
0.1426505998750791
 20
1.2696923063734471
 30
0.0
 11
0.1428667706045227
 21
1.26968097679766
 31
0.0
  0
LINE
  5
1A9
  8
0
 62
     5
 10
0.0820198600732256
 20
1.2665148147601011
 30
0.0
 11
0.1426499940154111
 21
1.2696923063734471
 31
0.0
  0
LINE
  5
1AE
  8
0
 62
     5
 10
0.1424343685596682
 20
1.22624062657096
 30
0.0
 11
0.0820198600732256
 21
1.2294068189015019
 31
0.0
  0
LINE
  5
1B0
  8
0
 62
     5
 10
0.1428667706045227
 20
1.26968097679766
 30
0.0
 11
0.2290995041432934
 21
1.2651616877782059
 31
0.0
  0
ARC
  5
1B3
  8
0
 62
     5
 10
0.0822360466732842
 20
1.2623895417121811
 30
0.0
 40
0.0041309090909094
 50
93.000000000002927
 51
180.00000000001091
  0
LINE
  5
1B6
  8
0
 62
     5
 10
0.0781051584161934
 20
1.233532056793069
 30
0.0
 11
0.0781051584161934
 21
1.2623895162825669
 31
0.0
  0
ARC
  5
1B7
  8
0
 62
     5
 10
0.0822360466732842
 20
1.2335320520574189
 30
0.0
 40
0.0041309090909094
 50
180.0
 51
266.99999999999829
  0
ARC
  5
1B8
  8
0
 62
     5
 10
0.2030730787886921
 20
1.2189289604816429
 30
0.0
 40
0.0041280528338539
 50
359.95879755662372
 51
86.966729735164805
  0
LINE
  5
1BA
  8
0
 62
     5
 10
0.2071960413339648
 20
0.7429865975260745
 30
0.0
 11
0.2071960413339648
 21
1.218926506904294
 31
0.0
  0
LINE
  5
1BC
  8
0
 62
     5
 10
0.2071960413339648
 20
0.7429865975260745
 30
0.0
 11
0.2072011305551736
 21
0.7429871304932511
 31
0.0
  0
ARC
  5
1BD
  8
0
 62
     5
 10
0.2288833194005567
 20
1.261036468137964
 30
0.0
 40
0.0041309090909088
 50
0.0
 51
87.000000000002345
  0
LINE
  5
1BF
  8
0
 62
     5
 10
0.2330142058003256
 20
1.2610364498866391
 30
0.0
 11
0.2330142058003256
 21
0.7395565544935576
 31
0.0
  0
ARC
  5
1C0
  8
0
 62
     5
 10
0.2030651375823746
 20
1.2189265114751491
 30
0.0
 40
0.0041309090909094
 50
0.0
 51
86.999999999997243
  0
ARC
  5
1C1
  8
0
 62
     5
 10
0.2030651375823746
 20
0.7429865975119651
 30
0.0
 40
0.0041309090909097
 50
303.86671905696443
 51
0.0
  0
LINE
  5
2AB
  8
0
 62
     5
 10
0.054997852447097
 20
0.7395565544935576
 30
0.0
 11
0.0582251457251294
 21
0.7395565544935576
 31
0.0
  0
LINE
  5
2AC
  8
0
 62
     5
 10
1.0457705916491999
 20
0.7395565544935576
 30
0.0
 11
1.0475083562143961
 21
0.7395565544935576
 31
0.0
  0
ARC
  5
2AD
  8
0
 62
     5
 10
0.0549978648551022
 20
0.071511099948103
 30
0.0
 40
0.0032272727272727
 50
180.0
 51
270.0000000000008
  0
LINE
  5
2AE
  8
0
 62
     5
 10
0.6438430116575696
 20
0.0682838542664057
 30
0.0
 11
0.6421042549971684
 21
0.0682838542664057
 31
0.0
  0
LINE
  5
2AF
  8
0
 62
     5
 10
0.0582251457251294
 20
0.0682838542664057
 30
0.0
 11
0.054997852447097
 21
0.0682838542664057
 31
0.0
  0
ARC
  5
2B0
  8
0
 62
     5
 10
1.0475083543655921
 20
0.7363292817662848
 30
0.0
 40
0.0032272727272727
 50
20.535262751763131
 51
90.0
  0
LINE
  5
2B1
  8
0
 62
     5
 10
0.0517705591690643
 20
0.0715110869584716
 30
0.0
 11
0.0517705591690643
 21
0.0747383802365044
 31
0.0
  0
LINE
  5
2B2
  8
0
 62
     5
 10
0.0517705591690643
 20
0.7331020091170166
 30
0.0
 11
0.0517705591690643
 21
0.7363292818052872
 31
0.0
  0
ARC
  5
2B3
  8
0
 62
     5
 10
0.6438430119031534
 20
0.071511099948103
 30
0.0
 40
0.0032272727272728
 50
270.0000000000008
 51
326.8214883406082
  0
LINE
  5
2B4
  8
0
 62
     5
 10
0.6465441461071673
 20
0.0697450060270562
 30
0.0
 11
0.6473509997196589
 21
0.0709789604123099
 31
0.0
  0
ARC
  5
2B5
  8
0
 62
     5
 10
0.054997864855103
 20
0.7363292817662848
 30
0.0
 40
0.0032272727272727
 50
90.0
 51
180.0
  0
LINE
  5
2B6
  8
0
 62
     5
 10
0.0517705591690643
 20
0.6453201875467767
 30
0.0
 11
0.0502214971706275
 21
0.6453201875467767
 31
0.0
  0
ARC
  5
2C1
  8
0
 62
     5
 10
0.2030699143957797
 20
0.742985501512671
 30
0.0
 40
0.0041312164805558
 50
303.90033350702709
 51
0.0225923078629218
  0
LINE
  5
2C4
  8
0
 62
     5
 10
0.1465879000977174
 20
0.7395565544935576
 30
0.0
 11
0.1465653015321113
 21
0.740014236506376
 31
0.0
  0
TEXT
  5
4F0
  8
0
 62
     5
 10
1.148861707640938
 20
0.316252354534466
 30
0.0
 40
0.125
  1
LPW8
 41
0.7500000000000002
 51
15.0
  7
P125
 72
     2
 11
1.4881474219266531
 21
0.378752354534466
 31
0.0
 73
     2
  0
LINE
  5
4F2
  8
0
 62
     5
 10
0.1442536439699099
 20
0.7395565544935576
 30
0.0
 11
0.1450164818775416
 21
0.7397844891806448
 31
0.0
  0
LINE
  5
4F3
  8
0
 62
     5
 10
0.1450164818775416
 20
0.7397844891806448
 30
0.0
 11
0.1465653015321113
 21
0.740014236506376
 31
0.0
  0
LINE
  5
4F4
  8
0
 62
     5
 10
0.2072011305551736
 20
1.218925991923576
 30
0.0
 11
0.2071973136392668
 21
1.21892638573236
 31
0.0
  0
LINE
  5
4F5
  8
0
 62
     5
 10
0.2071973136392668
 20
1.21892638573236
 30
0.0
 11
0.2071960413339648
 21
1.218926506904294
 31
0.0
  0
LINE
  5
4F6
  8
0
 62
     5
 10
0.0820198600732256
 20
1.2665148147601011
 30
0.0
 11
0.0766858715585829
 21
1.266343477646068
 31
0.0
  0
LINE
  5
4F7
  8
0
 62
     5
 10
0.0766858715585829
 20
1.266343477646068
 30
0.0
 11
0.0752843363892368
 21
1.26627004745434
 31
0.0
  0
LINE
  5
4F8
  8
0
 62
     5
 10
0.0752843363892368
 20
1.26627004745434
 30
0.0
 11
0.0740579552498294
 21
1.266205765743595
 31
0.0
  0
LINE
  5
4F9
  8
0
 62
     5
 10
0.0740579552498294
 20
1.266205765743595
 30
0.0
 11
0.0730528946470421
 21
1.2661531165384701
 31
0.0
  0
LINE
  5
4FA
  8
0
 62
     5
 10
0.0730528946470421
 20
1.2661531165384701
 30
0.0
 11
0.0723067784662399
 21
1.266113978003935
 31
0.0
  0
LINE
  5
4FB
  8
0
 62
     5
 10
0.0723067784662399
 20
1.266113978003935
 30
0.0
 11
0.0718475974240717
 21
1.2660899253751261
 31
0.0
  0
LINE
  5
4FC
  8
0
 62
     5
 10
0.0718475974240717
 20
1.2660899253751261
 30
0.0
 11
0.0716925579351012
 21
1.2660818068555779
 31
0.0
  0
LINE
  5
4FD
  8
0
 62
     5
 10
0.0517705591690643
 20
0.628659963047112
 30
0.0
 11
0.0508803089733105
 21
0.634428489261938
 31
0.0
  0
LINE
  5
4FE
  8
0
 62
     5
 10
0.0508803089733105
 20
0.634428489261938
 30
0.0
 11
0.0502214971706275
 21
0.6453201875467767
 31
0.0
  0
LINE
  5
4FF
  8
0
 62
     5
 10
0.097047542685487
 20
0.768718183935926
 30
0.0
 11
0.0983172427911366
 21
0.7684898127074233
 31
0.0
  0
LINE
  5
500
  8
0
 62
     5
 10
0.0983172427911366
 20
0.7684898127074233
 30
0.0
 11
0.1007630376837718
 21
0.7680498980026886
 31
0.0
  0
LINE
  5
501
  8
0
 62
     5
 10
0.1007630376837718
 20
0.7680498980026886
 30
0.0
 11
0.1032923200386194
 21
0.7675949655514404
 31
0.0
  0
LINE
  5
502
  8
0
 62
     5
 10
0.1032923200386194
 20
0.7675949655514404
 30
0.0
 11
0.1043829280264897
 21
0.7673988052308344
 31
0.0
  0
LINE
  5
503
  8
0
 62
     5
 10
0.1066681701071781
 20
0.7801040156858257
 30
0.0
 11
0.1055775621193079
 21
0.7803001741131201
 31
0.0
  0
LINE
  5
504
  8
0
 62
     5
 10
0.1055775621193079
 20
0.7803001741131201
 30
0.0
 11
0.1030482797644603
 21
0.7807551065643683
 31
0.0
  0
LINE
  5
505
  8
0
 62
     5
 10
0.1030482797644603
 20
0.7807551065643683
 30
0.0
 11
0.1006024848718251
 21
0.7811950212691031
 31
0.0
  0
LINE
  5
506
  8
0
 62
     5
 10
0.1006024848718251
 20
0.7811950212691031
 30
0.0
 11
0.0993327847661755
 21
0.7814233924976058
 31
0.0
  0
LINE
  5
507
  8
0
 62
     5
 10
0.0993327847661755
 20
0.7814233924976058
 30
0.0
 11
0.097229906445472
 21
0.778934627008037
 31
0.0
  0
LINE
  5
508
  8
0
 62
     5
 10
0.097229906445472
 20
0.778934627008037
 30
0.0
 11
0.095677633390796
 21
0.777097539323564
 31
0.0
  0
LINE
  5
509
  8
0
 62
     5
 10
0.095677633390796
 20
0.777097539323564
 30
0.0
 11
0.0945225013483136
 21
0.7757304775693114
 31
0.0
  0
LINE
  5
50A
  8
0
 62
     5
 10
0.0945225013483136
 20
0.7757304775693114
 30
0.0
 11
0.0956263776629066
 21
0.7726649185295778
 31
0.0
  0
LINE
  5
50B
  8
0
 62
     5
 10
0.0956263776629066
 20
0.7726649185295778
 30
0.0
 11
0.096441198330029
 21
0.7704020705368576
 31
0.0
  0
LINE
  5
50C
  8
0
 62
     5
 10
0.096441198330029
 20
0.7704020705368576
 30
0.0
 11
0.097047542685487
 21
0.768718183935926
 31
0.0
  0
LINE
  5
50D
  8
0
 62
     5
 10
0.1091932114443516
 20
0.7730917201591288
 30
0.0
 11
0.1080893351297586
 21
0.7761572829854855
 31
0.0
  0
LINE
  5
50E
  8
0
 62
     5
 10
0.1080893351297586
 20
0.7761572829854855
 30
0.0
 11
0.1072745144626362
 21
0.7784201271915828
 31
0.0
  0
LINE
  5
50F
  8
0
 62
     5
 10
0.1072745144626362
 20
0.7784201271915828
 30
0.0
 11
0.1066681701071781
 21
0.7801040156858257
 31
0.0
  0
LINE
  5
510
  8
0
 62
     5
 10
0.1043829280264897
 20
0.7673988052308344
 30
0.0
 11
0.10648586693316
 21
0.7698875745070261
 31
0.0
  0
LINE
  5
511
  8
0
 62
     5
 10
0.10648586693316
 20
0.7698875745070261
 30
0.0
 11
0.1080380794018692
 21
0.771724662191499
 31
0.0
  0
LINE
  5
512
  8
0
 62
     5
 10
0.1080380794018692
 20
0.771724662191499
 30
0.0
 11
0.1091932114443516
 21
0.7730917201591288
 31
0.0
  0
LINE
  5
513
  8
0
 62
     5
 10
0.09810919058124
 20
1.129423918445833
 30
0.0
 11
0.0993992475717249
 21
1.129419495670259
 31
0.0
  0
LINE
  5
514
  8
0
 62
     5
 10
0.0993992475717249
 20
1.129419495670259
 30
0.0
 11
0.1018843021708287
 21
1.129410983341927
 31
0.0
  0
LINE
  5
515
  8
0
 62
     5
 10
0.1018843021708287
 20
1.129410983341927
 30
0.0
 11
0.1044541771234139
 21
1.129402168083762
 31
0.0
  0
LINE
  5
516
  8
0
 62
     5
 10
0.1044541771234139
 20
1.129402168083762
 30
0.0
 11
0.1055622338697145
 21
1.129398351167856
 31
0.0
  0
LINE
  5
517
  8
0
 62
     5
 10
0.1056065222114252
 20
1.142307372815069
 30
0.0
 11
0.104498404879158
 21
1.142311159437992
 31
0.0
  0
LINE
  5
518
  8
0
 62
     5
 10
0.104498404879158
 20
1.142311159437992
 30
0.0
 11
0.1019285905125393
 21
1.1423199746961581
 31
0.0
  0
LINE
  5
519
  8
0
 62
     5
 10
0.1019285905125393
 20
1.1423199746961581
 30
0.0
 11
0.0994435359134355
 21
1.1423285173174731
 31
0.0
  0
LINE
  5
51A
  8
0
 62
     5
 10
0.0994435359134355
 20
1.1423285173174731
 30
0.0
 11
0.0981534789229507
 21
1.1423329400930471
 31
0.0
  0
LINE
  5
51B
  8
0
 62
     5
 10
0.0981534789229507
 20
1.1423329400930471
 30
0.0
 11
0.0965146891077236
 21
1.139516813478515
 31
0.0
  0
LINE
  5
51C
  8
0
 62
     5
 10
0.0965146891077236
 20
1.139516813478515
 30
0.0
 11
0.0953050296951457
 21
1.1374380786655709
 31
0.0
  0
LINE
  5
51D
  8
0
 62
     5
 10
0.0953050296951457
 20
1.1374380786655709
 30
0.0
 11
0.0944048434008414
 21
1.1358911977619379
 31
0.0
  0
LINE
  5
51E
  8
0
 62
     5
 10
0.0944048434008414
 20
1.1358911977619379
 30
0.0
 11
0.096024306292668
 21
1.133063893036536
 31
0.0
  0
LINE
  5
51F
  8
0
 62
     5
 10
0.096024306292668
 20
1.133063893036536
 30
0.0
 11
0.0972196674170875
 21
1.130976918532111
 31
0.0
  0
LINE
  5
520
  8
0
 62
     5
 10
0.0972196674170875
 20
1.130976918532111
 30
0.0
 11
0.09810919058124
 21
1.129423918445833
 31
0.0
  0
LINE
  5
521
  8
0
 62
     5
 10
0.1093108693918239
 20
1.135840093498965
 30
0.0
 11
0.107691467085964
 21
1.138667398224366
 31
0.0
  0
LINE
  5
522
  8
0
 62
     5
 10
0.107691467085964
 20
1.138667398224366
 30
0.0
 11
0.1064960453755777
 21
1.1407543727287921
 31
0.0
  0
LINE
  5
523
  8
0
 62
     5
 10
0.1064960453755777
 20
1.1407543727287921
 30
0.0
 11
0.1056065222114252
 21
1.142307372815069
 31
0.0
  0
LINE
  5
524
  8
0
 62
     5
 10
0.1055622338697145
 20
1.129398351167856
 30
0.0
 11
0.1072010236849416
 21
1.132214477782387
 31
0.0
  0
LINE
  5
525
  8
0
 62
     5
 10
0.1072010236849416
 20
1.132214477782387
 30
0.0
 11
0.1084106830975195
 21
1.134293212595332
 31
0.0
  0
LINE
  5
526
  8
0
 62
     5
 10
0.1084106830975195
 20
1.134293212595332
 30
0.0
 11
0.1093108693918239
 21
1.135840093498965
 31
0.0
  0
ENDSEC
  0
EOF
