  0
SECTION
  2
HEADER
  9
$ACADVER
  1
AC1009
  9
$INSBASE
 10
0.0
 20
0.0
 30
0.0
  9
$EXTMIN
 10
0.2031097810285942
 20
0.1247101087643685
 30
-0.0015258207003583
  9
$EXTMAX
 10
1.6972503879773979
 20
1.4976959374007981
 30
0.0000000349246037
  9
$LIMMIN
 10
0.0
 20
0.0
  9
$LIMMAX
 10
17.0
 20
11.0
  9
$ORTHOMODE
 70
     0
  9
$REGENMODE
 70
     1
  9
$FILLMODE
 70
     1
  9
$QTEXTMODE
 70
     0
  9
$MIRRTEXT
 70
     1
  9
$DRAGMODE
 70
     2
  9
$LTSCALE
 40
1.0
  9
$OSMODE
 70
    39
  9
$ATTMODE
 70
     1
  9
$TEXTSIZE
 40
0.12
  9
$TRACEWID
 40
0.05
  9
$TEXTSTYLE
  7
STANDARD
  9
$CLAYER
  8
0
  9
$CELTYPE
  6
BYLAYER
  9
$CECOLOR
 62
   256
  9
$DIMSCALE
 40
1.0
  9
$DIMASZ
 40
0.156
  9
$DIMEXO
 40
0.05
  9
$DIMDLI
 40
0.38
  9
$DIMRND
 40
0.0
  9
$DIMDLE
 40
0.0
  9
$DIMEXE
 40
0.0625
  9
$DIMTP
 40
0.0
  9
$DIMTM
 40
0.0
  9
$DIMTXT
 40
0.12
  9
$DIMCEN
 40
0.09
  9
$DIMTSZ
 40
0.0
  9
$DIMTOL
 70
     0
  9
$DIMLIM
 70
     0
  9
$DIMTIH
 70
     1
  9
$DIMTOH
 70
     1
  9
$DIMSE1
 70
     0
  9
$DIMSE2
 70
     0
  9
$DIMTAD
 70
     0
  9
$DIMZIN
 70
     0
  9
$DIMBLK
  1

  9
$DIMASO
 70
     1
  9
$DIMSHO
 70
     1
  9
$DIMPOST
  1

  9
$DIMAPOST
  1

  9
$DIMALT
 70
     0
  9
$DIMALTD
 70
     2
  9
$DIMALTF
 40
25.399999999999999
  9
$DIMLFAC
 40
1.0
  9
$DIMTOFL
 70
     0
  9
$DIMTVP
 40
0.0
  9
$DIMTIX
 70
     0
  9
$DIMSOXD
 70
     0
  9
$DIMSAH
 70
     0
  9
$DIMBLK1
  1

  9
$DIMBLK2
  1

  9
$DIMSTYLE
  2
STANDARD
  9
$DIMCLRD
 70
     0
  9
$DIMCLRE
 70
     0
  9
$DIMCLRT
 70
     0
  9
$DIMTFAC
 40
1.0
  9
$DIMGAP
 40
0.06
  9
$LUNITS
 70
     2
  9
$LUPREC
 70
     3
  9
$SKETCHINC
 40
0.1
  9
$FILLETRAD
 40
0.5
  9
$AUNITS
 70
     0
  9
$AUPREC
 70
     2
  9
$MENU
  1
.
  9
$ELEVATION
 40
0.0
  9
$PELEVATION
 40
0.0
  9
$THICKNESS
 40
0.0
  9
$LIMCHECK
 70
     0
  9
$BLIPMODE
 70
     0
  9
$CHAMFERA
 40
0.0
  9
$CHAMFERB
 40
0.0
  9
$SKPOLY
 70
     0
  9
$TDCREATE
 40
2457492.7407239471
  9
$TDUPDATE
 40
2457492.576036945
  9
$TDINDWG
 40
0.0016602083
  9
$TDUSRTIMER
 40
0.0016602083
  9
$USRTIMER
 70
     1
  9
$ANGBASE
 50
0.0
  9
$ANGDIR
 70
     0
  9
$PDMODE
 70
     0
  9
$PDSIZE
 40
-1.0
  9
$PLINEWID
 40
0.0
  9
$COORDS
 70
     1
  9
$SPLFRAME
 70
     0
  9
$SPLINETYPE
 70
     6
  9
$SPLINESEGS
 70
     8
  9
$ATTDIA
 70
     0
  9
$ATTREQ
 70
     1
  9
$HANDLING
 70
     1
  9
$HANDSEED
  5
9B7
  9
$SURFTAB1
 70
     6
  9
$SURFTAB2
 70
     6
  9
$SURFTYPE
 70
     6
  9
$SURFU
 70
     6
  9
$SURFV
 70
     6
  9
$UCSNAME
  2

  9
$UCSORG
 10
0.0
 20
0.0
 30
0.0
  9
$UCSXDIR
 10
1.0
 20
0.0
 30
0.0
  9
$UCSYDIR
 10
0.0
 20
1.0
 30
0.0
  9
$PUCSNAME
  2

  9
$PUCSORG
 10
0.0
 20
0.0
 30
0.0
  9
$PUCSXDIR
 10
1.0
 20
0.0
 30
0.0
  9
$PUCSYDIR
 10
0.0
 20
1.0
 30
0.0
  9
$USERI1
 70
     0
  9
$USERI2
 70
     0
  9
$USERI3
 70
     0
  9
$USERI4
 70
     0
  9
$USERI5
 70
     0
  9
$USERR1
 40
0.0
  9
$USERR2
 40
0.0
  9
$USERR3
 40
0.0
  9
$USERR4
 40
0.0
  9
$USERR5
 40
0.0
  9
$WORLDVIEW
 70
     0
  9
$SHADEDGE
 70
     3
  9
$SHADEDIF
 70
    70
  9
$TILEMODE
 70
     1
  9
$MAXACTVP
 70
    64
  9
$PLIMCHECK
 70
     0
  9
$PEXTMIN
 10
1.0000000000000000E+020
 20
1.0000000000000000E+020
 30
1.0000000000000000E+020
  9
$PEXTMAX
 10
-1.0000000000000000E+020
 20
-1.0000000000000000E+020
 30
-1.0000000000000000E+020
  9
$PLIMMIN
 10
0.0
 20
0.0
  9
$PLIMMAX
 10
12.0
 20
9.0
  9
$UNITMODE
 70
     0
  9
$VISRETAIN
 70
     1
  9
$PLINEGEN
 70
     0
  9
$PSLTSCALE
 70
     1
  0
ENDSEC
  0
SECTION
  2
TABLES
  0
TABLE
  2
VPORT
 70
     1
  0
VPORT
  2
*ACTIVE
 70
     0
 10
0.0
 20
0.0
 11
1.0
 21
1.0
 12
0.9501800619817753
 22
0.8112030125286988
 13
0.0
 23
0.0
 14
0.5
 24
0.5
 15
0.5
 25
0.5
 16
0.0
 26
0.0
 36
1.0
 17
0.0
 27
0.0
 37
0.0
 40
1.7287443030554961
 41
2.0328467153284668
 42
50.0
 43
0.0
 44
0.0
 50
0.0
 51
0.0
 71
     0
 72
  2000
 73
     1
 74
     3
 75
     0
 76
     0
 77
     0
 78
     0
  0
ENDTAB
  0
TABLE
  2
LTYPE
 70
     7
  0
LTYPE
  2
CONTINUOUS
 70
     0
  3
Solid line
 72
    65
 73
     0
 40
0.0
  0
ENDTAB
  0
TABLE
  2
LAYER
 70
     2
  0
LAYER
  2
0
 70
     0
 62
     7
  6
CONTINUOUS
  0
ENDTAB
  0
TABLE
  2
STYLE
 70
     3
  0
STYLE
  2
STANDARD
 70
     0
 40
0.0
 41
1.0
 50
0.0
 71
     0
 42
0.12
  3
txt
  4

  0
STYLE
  2
P125
 70
     0
 40
0.125
 41
0.75
 50
15.0
 71
     0
 42
0.125
  3
print
  4

  0
ENDTAB
  0
TABLE
  2
VIEW
 70
     1
  0
ENDTAB
  0
TABLE
  2
UCS
 70
     0
  0
ENDTAB
  0
TABLE
  2
APPID
 70
    19
  0
APPID
  2
ACAD
 70
     0
  0
APPID
  2
ACADANNOTATIVE
 70
     0
  0
APPID
  2
ACAD_EXEMPT_FROM_CAD_STANDARDS
 70
     0
  0
APPID
  2
ACAD_NAV_VCDISPLAY
 70
     0
  0
APPID
  2
ACAD_MLEADERVER
 70
     0
  0
APPID
  2
ACAD_PSEXT
 70
     0
  0
APPID
  2
ACAD_DSTYLE_DIMJAG
 70
     0
  0
APPID
  2
ACAD_DSTYLE_DIMTALN
 70
     0
  0
APPID
  2
ACAECLAYERSTANDARD
 70
     0
  0
APPID
  2
ACAD_EXEMPT_FROM_CAD_STAND
 70
     0
  0
APPID
  2
ACAD_DSTYLE_DIMBREAK
 70
     0
  0
APPID
  2
ACAUTHENVIRON
 70
     0
  0
APPID
  2
ACDBDYNAMICBLOCKTRUENAME
 70
     0
  0
APPID
  2
ACDBDYNAMICBLOCKGUID
 70
     0
  0
APPID
  2
ACDBBLOCKREPETAG
 70
     0
  0
APPID
  2
ACAD_DSTYLE_DIMRADIAL_EXTE
 70
     0
  0
APPID
  2
GRADIENTCOLOR1ACI
 70
     0
  0
APPID
  2
GRADIENTCOLOR2ACI
 70
     0
  0
APPID
  2
ACCMTRANSPARENCY
 70
     0
  0
ENDTAB
  0
TABLE
  2
DIMSTYLE
 70
     2
  0
DIMSTYLE
  2
STANDARD
 70
     0
  3

  4

  5

  6

  7

 40
1.0
 41
0.18
 42
0.0625
 43
0.38
 44
0.18
 45
0.0
 46
0.0
 47
0.0
 48
0.0
140
0.18
141
0.09
142
0.0
143
25.399999999999999
144
1.0
145
0.0
146
1.0
147
0.09
 71
     0
 72
     0
 73
     1
 74
     1
 75
     0
 76
     0
 77
     0
 78
     0
170
     0
171
     2
172
     0
173
     0
174
     0
175
     0
176
     0
177
     0
178
     0
  0
ENDTAB
  0
ENDSEC
  0
SECTION
  2
BLOCKS
  0
BLOCK
  8
0
  2
$MODEL_SPACE
 70
     0
 10
0.0
 20
0.0
 30
0.0
  3
$MODEL_SPACE
  1

  0
ENDBLK
  5
895
  8
0
  0
BLOCK
 67
     1
  8
0
  2
$PAPER_SPACE
 70
     0
 10
0.0
 20
0.0
 30
0.0
  3
$PAPER_SPACE
  1

  0
ENDBLK
  5
893
 67
     1
  8
0
  0
ENDSEC
  0
SECTION
  2
ENTITIES
  0
LINE
  5
1EC
  8
0
 62
     5
 10
0.7610478678077044
 20
0.1253036750209322
 30
0.0
 11
0.7610478678077044
 21
0.1376964133522946
 31
0.0
  0
LINE
  5
1ED
  8
0
 62
     5
 10
0.2033751275841205
 20
0.1376964133522946
 30
0.0
 11
0.2033751275841205
 21
0.1253036750209322
 31
0.0
  0
LINE
  5
1EE
  8
0
 62
     5
 10
0.3892660435163968
 20
1.496765515403387
 30
0.0
 11
0.3899510436032178
 21
1.457521894509044
 31
0.0
  0
LINE
  5
1EF
  8
0
 62
     5
 10
0.5744719517886079
 20
1.457521894509044
 30
0.0
 11
0.5751569518754282
 21
1.496765515403387
 31
0.0
  0
LINE
  5
1F0
  8
0
 62
     5
 10
0.3996881248262909
 20
1.457521894509044
 30
0.0
 11
0.4031519911580786
 21
1.3914273304657541
 31
0.0
  0
LINE
  5
1F1
  8
0
 62
     5
 10
0.5612710042337464
 20
1.3914273304657541
 30
0.0
 11
0.564734870565534
 21
1.457521894509044
 31
0.0
  0
LINE
  5
1F2
  8
0
 62
     5
 10
0.42736093554762
 20
1.496765515403387
 30
0.0
 11
0.42736093554762
 21
1.4970237025007871
 31
0.0
  0
LINE
  5
1F3
  8
0
 62
     5
 10
0.4156608879342354
 20
1.4970237025007871
 30
0.0
 11
0.4156608879342354
 21
1.496765515403387
 31
0.0
  0
LINE
  5
1F4
  8
0
 62
     5
 10
0.4433985635062401
 20
1.496765515403387
 30
0.0
 11
0.4433985635062401
 21
1.4970237025007871
 31
0.0
  0
LINE
  5
1F5
  8
0
 62
     5
 10
0.4318592656091944
 20
1.4970237025007871
 30
0.0
 11
0.4318592656091944
 21
1.496765515403387
 31
0.0
  0
LINE
  5
1F6
  8
0
 62
     5
 10
0.4351492918691964
 20
1.496765515403387
 30
0.0
 11
0.4351492918691964
 21
1.4970237025007871
 31
0.0
  0
LINE
  5
1F7
  8
0
 62
     5
 10
0.7563384903175017
 20
0.1376964133522946
 30
0.0
 11
0.7563384903175017
 21
1.015514611068234
 31
0.0
  0
LINE
  5
1F8
  8
0
 62
     5
 10
0.2080845050743232
 20
1.0155146110682369
 30
0.0
 11
0.2080845050743232
 21
0.1376964133522946
 31
0.0
  0
LINE
  5
1F9
  8
0
 62
     5
 10
0.4370296795867974
 20
1.3914273304657541
 30
0.0
 11
0.4370296795867974
 21
1.015514611068234
 31
0.0
  0
LINE
  5
1FA
  8
0
 62
     5
 10
0.5273933158050275
 20
1.0155146110682329
 30
0.0
 11
0.5273933158050275
 21
1.3914273304657541
 31
0.0
  0
LINE
  5
286
  8
0
 62
     5
 10
0.7610478678077044
 20
0.1376964133522946
 30
0.0
 11
0.2033751275841205
 21
0.1376964133522946
 31
0.0
  0
LINE
  5
287
  8
0
 62
     5
 10
0.7610478678077044
 20
0.1253036750209322
 30
0.0
 11
0.2033751275841205
 21
0.1253036750209322
 31
0.0
  0
LINE
  5
288
  8
0
 62
     5
 10
0.542275171781891
 20
1.457521894509044
 30
0.0
 11
0.3899510436032178
 21
1.457521894509044
 31
0.0
  0
LINE
  5
289
  8
0
 62
     5
 10
0.5744719517886079
 20
1.457521894509044
 30
0.0
 11
0.542275171781891
 21
1.457521894509044
 31
0.0
  0
LINE
  5
28A
  8
0
 62
     5
 10
0.5427211223635649
 20
1.496765515403387
 30
0.0
 11
0.3892660435163968
 21
1.496765515403387
 31
0.0
  0
LINE
  5
28B
  8
0
 62
     5
 10
0.5751569518754282
 20
1.496765515403387
 30
0.0
 11
0.5427211223635649
 21
1.496765515403387
 31
0.0
  0
LINE
  5
28C
  8
0
 62
     5
 10
0.4222007454519101
 20
1.3914273304657541
 30
0.0
 11
0.5612710042337464
 21
1.3914273304657541
 31
0.0
  0
LINE
  5
28D
  8
0
 62
     5
 10
0.4031519911580786
 20
1.3914273304657541
 30
0.0
 11
0.4222007454519101
 21
1.3914273304657541
 31
0.0
  0
LINE
  5
28E
  8
0
 62
     5
 10
0.7563384903175017
 20
1.015514611068234
 30
0.0
 11
0.2080845050743232
 21
1.0155146110682369
 31
0.0
  0
TEXT
  5
93F
  8
0
 62
     5
 10
1.1782464706290601
 20
0.5076876016874327
 30
0.0
 40
0.125
  1
LX2020
 41
0.7500000000000002
 51
15.0
  7
P125
 72
     2
 11
1.673782184914774
 21
0.5701876016874327
 31
0.0
 73
     2
  0
ENDSEC
  0
EOF
