  0
SECTION
  2
HEADER
  9
$ACADVER
  1
AC1027
  9
$ACADMAINTVER
 70
    55
  9
$DWGCODEPAGE
  3
ANSI_1252
  9
$LASTSAVEDBY
  1
aarena
  9
$REQUIREDVERSIONS
160
                 0
  9
$INSBASE
 10
0.0
 20
0.0
 30
0.0
  9
$EXTMIN
 10
-7.796939338165586
 20
11.50771478340576
 30
0.0
  9
$EXTMAX
 10
-5.929873594867849
 20
12.79528714860815
 30
0.0000000000000152
  9
$LIMMIN
 10
0.0
 20
0.0
  9
$LIMMAX
 10
12.0
 20
9.0
  9
$ORTHOMODE
 70
     1
  9
$REGENMODE
 70
     1
  9
$FILLMODE
 70
     1
  9
$QTEXTMODE
 70
     0
  9
$MIRRTEXT
 70
     1
  9
$LTSCALE
 40
1.0
  9
$ATTMODE
 70
     1
  9
$TEXTSIZE
 40
0.125
  9
$TRACEWID
 40
0.05
  9
$TEXTSTYLE
  7
STANDARD
  9
$CLAYER
  8
0
  9
$CELTYPE
  6
BYLAYER
  9
$CECOLOR
 62
   256
  9
$CELTSCALE
 40
1.0
  9
$DISPSILH
 70
     0
  9
$DIMSCALE
 40
1.0
  9
$DIMASZ
 40
0.18
  9
$DIMEXO
 40
0.0625
  9
$DIMDLI
 40
0.38
  9
$DIMRND
 40
0.0
  9
$DIMDLE
 40
0.0
  9
$DIMEXE
 40
0.18
  9
$DIMTP
 40
0.0
  9
$DIMTM
 40
0.0
  9
$DIMTXT
 40
0.18
  9
$DIMCEN
 40
0.09
  9
$DIMTSZ
 40
0.0
  9
$DIMTOL
 70
     0
  9
$DIMLIM
 70
     0
  9
$DIMTIH
 70
     1
  9
$DIMTOH
 70
     1
  9
$DIMSE1
 70
     0
  9
$DIMSE2
 70
     0
  9
$DIMTAD
 70
     0
  9
$DIMZIN
 70
     0
  9
$DIMBLK
  1

  9
$DIMASO
 70
     1
  9
$DIMSHO
 70
     1
  9
$DIMPOST
  1

  9
$DIMAPOST
  1

  9
$DIMALT
 70
     0
  9
$DIMALTD
 70
     2
  9
$DIMALTF
 40
25.4
  9
$DIMLFAC
 40
1.0
  9
$DIMTOFL
 70
     0
  9
$DIMTVP
 40
0.0
  9
$DIMTIX
 70
     0
  9
$DIMSOXD
 70
     0
  9
$DIMSAH
 70
     0
  9
$DIMBLK1
  1

  9
$DIMBLK2
  1

  9
$DIMSTYLE
  2
STANDARD
  9
$DIMCLRD
 70
     0
  9
$DIMCLRE
 70
     0
  9
$DIMCLRT
 70
     0
  9
$DIMTFAC
 40
1.0
  9
$DIMGAP
 40
0.09
  9
$DIMJUST
 70
     0
  9
$DIMSD1
 70
     0
  9
$DIMSD2
 70
     0
  9
$DIMTOLJ
 70
     1
  9
$DIMTZIN
 70
     0
  9
$DIMALTZ
 70
     0
  9
$DIMALTTZ
 70
     0
  9
$DIMUPT
 70
     0
  9
$DIMDEC
 70
     4
  9
$DIMTDEC
 70
     4
  9
$DIMALTU
 70
     2
  9
$DIMALTTD
 70
     2
  9
$DIMTXSTY
  7
STANDARD
  9
$DIMAUNIT
 70
     0
  9
$DIMADEC
 70
     0
  9
$DIMALTRND
 40
0.0
  9
$DIMAZIN
 70
     0
  9
$DIMDSEP
 70
    46
  9
$DIMATFIT
 70
     3
  9
$DIMFRAC
 70
     0
  9
$DIMLDRBLK
  1

  9
$DIMLUNIT
 70
     2
  9
$DIMLWD
 70
    -2
  9
$DIMLWE
 70
    -2
  9
$DIMTMOVE
 70
     0
  9
$DIMFXL
 40
1.0
  9
$DIMFXLON
 70
     0
  9
$DIMJOGANG
 40
0.7853981633974483
  9
$DIMTFILL
 70
     0
  9
$DIMTFILLCLR
 70
     0
  9
$DIMARCSYM
 70
     0
  9
$DIMLTYPE
  6

  9
$DIMLTEX1
  6

  9
$DIMLTEX2
  6

  9
$DIMTXTDIRECTION
 70
     0
  9
$LUNITS
 70
     2
  9
$LUPREC
 70
     4
  9
$SKETCHINC
 40
0.1
  9
$FILLETRAD
 40
0.0
  9
$AUNITS
 70
     0
  9
$AUPREC
 70
     0
  9
$MENU
  1
.
  9
$ELEVATION
 40
0.0
  9
$PELEVATION
 40
0.0
  9
$THICKNESS
 40
0.0
  9
$LIMCHECK
 70
     0
  9
$CHAMFERA
 40
0.5
  9
$CHAMFERB
 40
0.5
  9
$CHAMFERC
 40
0.0
  9
$CHAMFERD
 40
0.0
  9
$SKPOLY
 70
     0
  9
$TDCREATE
 40
2451269.348973264
  9
$TDUCREATE
 40
2451269.557306597
  9
$TDUPDATE
 40
2457063.427743611
  9
$TDUUPDATE
 40
2457063.636076945
  9
$TDINDWG
 40
1.9997113657
  9
$TDUSRTIMER
 40
2456087.830032778
  9
$USRTIMER
 70
     1
  9
$ANGBASE
 50
0.0
  9
$ANGDIR
 70
     0
  9
$PDMODE
 70
     0
  9
$PDSIZE
 40
0.0
  9
$PLINEWID
 40
0.0
  9
$SPLFRAME
 70
     0
  9
$SPLINETYPE
 70
     6
  9
$SPLINESEGS
 70
     8
  9
$HANDSEED
  5
33A3B
  9
$SURFTAB1
 70
     6
  9
$SURFTAB2
 70
     6
  9
$SURFTYPE
 70
     6
  9
$SURFU
 70
     6
  9
$SURFV
 70
     6
  9
$UCSBASE
  2

  9
$UCSNAME
  2

  9
$UCSORG
 10
0.0
 20
0.0
 30
0.0
  9
$UCSXDIR
 10
1.0
 20
0.0
 30
0.0
  9
$UCSYDIR
 10
0.0
 20
1.0
 30
0.0
  9
$UCSORTHOREF
  2

  9
$UCSORTHOVIEW
 70
     0
  9
$UCSORGTOP
 10
0.0
 20
0.0
 30
0.0
  9
$UCSORGBOTTOM
 10
0.0
 20
0.0
 30
0.0
  9
$UCSORGLEFT
 10
0.0
 20
0.0
 30
0.0
  9
$UCSORGRIGHT
 10
0.0
 20
0.0
 30
0.0
  9
$UCSORGFRONT
 10
0.0
 20
0.0
 30
0.0
  9
$UCSORGBACK
 10
0.0
 20
0.0
 30
0.0
  9
$PUCSBASE
  2

  9
$PUCSNAME
  2

  9
$PUCSORG
 10
0.0
 20
0.0
 30
0.0
  9
$PUCSXDIR
 10
1.0
 20
0.0
 30
0.0
  9
$PUCSYDIR
 10
0.0
 20
1.0
 30
0.0
  9
$PUCSORTHOREF
  2

  9
$PUCSORTHOVIEW
 70
     0
  9
$PUCSORGTOP
 10
0.0
 20
0.0
 30
0.0
  9
$PUCSORGBOTTOM
 10
0.0
 20
0.0
 30
0.0
  9
$PUCSORGLEFT
 10
0.0
 20
0.0
 30
0.0
  9
$PUCSORGRIGHT
 10
0.0
 20
0.0
 30
0.0
  9
$PUCSORGFRONT
 10
0.0
 20
0.0
 30
0.0
  9
$PUCSORGBACK
 10
0.0
 20
0.0
 30
0.0
  9
$USERI1
 70
     0
  9
$USERI2
 70
     0
  9
$USERI3
 70
     0
  9
$USERI4
 70
     0
  9
$USERI5
 70
     0
  9
$USERR1
 40
0.0
  9
$USERR2
 40
0.0
  9
$USERR3
 40
0.0
  9
$USERR4
 40
0.0
  9
$USERR5
 40
0.0
  9
$WORLDVIEW
 70
     1
  9
$SHADEDGE
 70
     3
  9
$SHADEDIF
 70
    70
  9
$TILEMODE
 70
     1
  9
$MAXACTVP
 70
    48
  9
$PINSBASE
 10
0.0
 20
0.0
 30
0.0
  9
$PLIMCHECK
 70
     0
  9
$PEXTMIN
 10
1.075000024217318
 20
0.8249999641433474
 30
0.0
  9
$PEXTMAX
 10
9.675000217955883
 20
7.424999677290128
 30
0.0
  9
$PLIMMIN
 10
-0.1249995194082185
 20
-0.1249999981226883
  9
$PLIMMAX
 10
10.87500024029589
 20
8.374999761581422
  9
$UNITMODE
 70
     0
  9
$VISRETAIN
 70
     1
  9
$PLINEGEN
 70
     0
  9
$PSLTSCALE
 70
     1
  9
$TREEDEPTH
 70
  3020
  9
$CMLSTYLE
  2
STANDARD
  9
$CMLJUST
 70
     0
  9
$CMLSCALE
 40
1.0
  9
$PROXYGRAPHICS
 70
     1
  9
$MEASUREMENT
 70
     0
  9
$CELWEIGHT
370
    -1
  9
$ENDCAPS
280
     0
  9
$JOINSTYLE
280
     0
  9
$LWDISPLAY
290
     0
  9
$INSUNITS
 70
     0
  9
$HYPERLINKBASE
  1

  9
$STYLESHEET
  1

  9
$XEDIT
290
     1
  9
$CEPSNTYPE
380
     0
  9
$PSTYLEMODE
290
     1
  9
$FINGERPRINTGUID
  2
{C1F432E3-D498-48E8-AE0D-342858390930}
  9
$VERSIONGUID
  2
{D065AD47-774A-4FE5-82C6-ACCCF506A62C}
  9
$EXTNAMES
290
     1
  9
$PSVPSCALE
 40
0.0
  9
$OLESTARTUP
290
     0
  9
$SORTENTS
280
   127
  9
$INDEXCTL
280
     0
  9
$HIDETEXT
280
     0
  9
$XCLIPFRAME
280
     2
  9
$HALOGAP
280
     0
  9
$OBSCOLOR
 70
   257
  9
$OBSLTYPE
280
     0
  9
$INTERSECTIONDISPLAY
280
     0
  9
$INTERSECTIONCOLOR
 70
   257
  9
$DIMASSOC
280
     1
  9
$PROJECTNAME
  1

  9
$CAMERADISPLAY
290
     0
  9
$LENSLENGTH
 40
50.0
  9
$CAMERAHEIGHT
 40
0.0
  9
$STEPSPERSEC
 40
2.0
  9
$STEPSIZE
 40
6.0
  9
$3DDWFPREC
 40
2.0
  9
$PSOLWIDTH
 40
0.25
  9
$PSOLHEIGHT
 40
4.0
  9
$LOFTANG1
 40
1.570796326794896
  9
$LOFTANG2
 40
1.570796326794896
  9
$LOFTMAG1
 40
0.0
  9
$LOFTMAG2
 40
0.0
  9
$LOFTPARAM
 70
     7
  9
$LOFTNORMALS
280
     1
  9
$LATITUDE
 40
37.795
  9
$LONGITUDE
 40
-122.394
  9
$NORTHDIRECTION
 40
0.0
  9
$TIMEZONE
 70
 -8000
  9
$LIGHTGLYPHDISPLAY
280
     1
  9
$TILEMODELIGHTSYNCH
280
     1
  9
$CMATERIAL
347
32D18
  9
$SOLIDHIST
280
     0
  9
$SHOWHIST
280
     1
  9
$DWFFRAME
280
     2
  9
$DGNFRAME
280
     0
  9
$REALWORLDSCALE
290
     1
  9
$INTERFERECOLOR
 62
     1
  9
$INTERFEREOBJVS
345
32D3A
  9
$INTERFEREVPVS
346
32D37
  9
$CSHADOW
280
     0
  9
$SHADOWPLANELOCATION
 40
0.0
  0
ENDSEC
  0
SECTION
  2
CLASSES
  0
CLASS
  1
ACDBDICTIONARYWDFLT
  2
AcDbDictionaryWithDefault
  3
ObjectDBX Classes
 90
        0
 91
        1
280
     0
281
     0
  0
CLASS
  1
MATERIAL
  2
AcDbMaterial
  3
ObjectDBX Classes
 90
     1153
 91
        3
280
     0
281
     0
  0
CLASS
  1
VISUALSTYLE
  2
AcDbVisualStyle
  3
ObjectDBX Classes
 90
     4095
 91
       24
280
     0
281
     0
  0
CLASS
  1
SCALE
  2
AcDbScale
  3
ObjectDBX Classes
 90
     1153
 91
       17
280
     0
281
     0
  0
CLASS
  1
TABLESTYLE
  2
AcDbTableStyle
  3
ObjectDBX Classes
 90
     4095
 91
        1
280
     0
281
     0
  0
CLASS
  1
MLEADERSTYLE
  2
AcDbMLeaderStyle
  3
ACDB_MLEADERSTYLE_CLASS
 90
     4095
 91
        1
280
     0
281
     0
  0
CLASS
  1
SORTENTSTABLE
  2
AcDbSortentsTable
  3
ObjectDBX Classes
 90
        0
 91
        2
280
     0
281
     0
  0
CLASS
  1
CELLSTYLEMAP
  2
AcDbCellStyleMap
  3
ObjectDBX Classes
 90
     1152
 91
        2
280
     0
281
     0
  0
CLASS
  1
DICTIONARYVAR
  2
AcDbDictionaryVar
  3
ObjectDBX Classes
 90
        0
 91
       10
280
     0
281
     0
  0
CLASS
  1
DIMASSOC
  2
AcDbDimAssoc
  3
"AcDbDimAssoc|Product Desc:     AcDim ARX App For Dimension|Company:          Autodesk, Inc.|WEB Address:      www.autodesk.com"
 90
        0
 91
        0
280
     0
281
     0
  0
CLASS
  1
ACAD_EVALUATION_GRAPH
  2
AcDbEvalGraph
  3
ObjectDBX Classes
 90
     1153
 91
        0
280
     0
281
     0
  0
CLASS
  1
ACAECUSTOBJ
  2
AcAeEditorObj
  3
AcAeEditorObj
 90
     1024
 91
        0
280
     1
281
     0
  0
CLASS
  1
ACDB_DYNAMICBLOCKPURGEPREVENTER_VERSION
  2
AcDbDynamicBlockPurgePreventer
  3
ObjectDBX Classes
 90
     1153
 91
        0
280
     0
281
     0
  0
CLASS
  1
MULTILEADER
  2
AcDbMLeader
  3
ACDB_MLEADER_CLASS
 90
     1025
 91
        0
280
     0
281
     1
  0
CLASS
  1
RASTERVARIABLES
  2
AcDbRasterVariables
  3
ISM
 90
        0
 91
        1
280
     0
281
     0
  0
CLASS
  1
ACDBSECTIONVIEWSTYLE
  2
AcDbSectionViewStyle
  3
ObjectDBX Classes
 90
     1025
 91
        1
280
     0
281
     0
  0
CLASS
  1
ACDBDETAILVIEWSTYLE
  2
AcDbDetailViewStyle
  3
ObjectDBX Classes
 90
     1025
 91
        1
280
     0
281
     0
  0
ENDSEC
  0
SECTION
  2
TABLES
  0
TABLE
  2
VPORT
  5
8204
330
0
100
AcDbSymbolTable
 70
     1
  0
VPORT
  5
8274
330
8204
100
AcDbSymbolTableRecord
100
AcDbViewportTableRecord
  2
*ACTIVE
 70
     0
 10
0.0
 20
0.0
 11
1.0
 21
1.0
 12
-6.863406466516718
 22
12.15150096600696
 13
0.0
 23
0.0
 14
0.5
 24
0.5
 15
0.5
 25
0.5
 16
0.0
 26
0.0
 36
1.0
 17
0.0
 27
0.0
 37
0.0
 40
1.297193080259937
 41
2.088528678304239
 42
50.0
 43
0.0
 44
0.0
 50
0.0
 51
0.0
 71
    16
 72
   100
 73
     1
 74
     1
 75
     0
 76
     0
 77
     0
 78
     0
281
     0
 65
     1
110
0.0
120
0.0
130
0.0
111
1.0
121
0.0
131
0.0
112
0.0
122
1.0
132
0.0
 79
     0
146
0.0
348
32D36
 60
     3
 61
     5
292
     1
282
     1
141
0.0
142
0.0
 63
   250
421
  3355443
1001
ACAD_NAV_VCDISPLAY
1070
     3
  0
ENDTAB
  0
TABLE
  2
LTYPE
  5
8201
330
0
100
AcDbSymbolTable
 70
     2
  0
LTYPE
  5
825E
330
8201
100
AcDbSymbolTableRecord
100
AcDbLinetypeTableRecord
  2
BYBLOCK
 70
     0
  3

 72
    65
 73
     0
 40
0.0
  0
LTYPE
  5
825F
330
8201
100
AcDbSymbolTableRecord
100
AcDbLinetypeTableRecord
  2
BYLAYER
 70
     0
  3

 72
    65
 73
     0
 40
0.0
  0
LTYPE
  5
8260
330
8201
100
AcDbSymbolTableRecord
100
AcDbLinetypeTableRecord
  2
CONTINUOUS
 70
     0
  3
Solid line
 72
    65
 73
     0
 40
0.0
  0
LTYPE
  5
33929
330
8201
100
AcDbSymbolTableRecord
100
AcDbLinetypeTableRecord
  2
ACAD_DYNDIM_LINETYPE
 70
     0
  3
Dot (.5x) .....................................
 72
    83
 73
     2
 40
0.125
 49
0.0
 74
     0
 49
-0.125
 74
     0
1001
ACAD_EXEMPT_FROM_CAD_STANDARDS
1070
     1
  0
ENDTAB
  0
TABLE
  2
LAYER
  5
81FE
102
{ACAD_XDICTIONARY
360
8308
102
}
330
0
100
AcDbSymbolTable
 70
     2
  0
LAYER
  5
8258
102
{ACAD_XDICTIONARY
360
C8D7
102
}
330
81FE
100
AcDbSymbolTableRecord
100
AcDbLayerTableRecord
  2
0
 70
     0
 62
     5
  6
CONTINUOUS
370
    -3
390
32D16
347
32D28
348
0
  0
LAYER
  5
8301
330
81FE
100
AcDbSymbolTableRecord
100
AcDbLayerTableRecord
  2
DEFPOINTS
 70
     0
 62
     7
  6
CONTINUOUS
290
     0
370
    -3
390
32D16
347
32D28
348
0
  0
ENDTAB
  0
TABLE
  2
STYLE
  5
81FF
330
0
100
AcDbSymbolTable
 70
     3
  0
STYLE
  5
8259
330
81FF
100
AcDbSymbolTableRecord
100
AcDbTextStyleTableRecord
  2
STANDARD
 70
     0
 40
0.0
 41
1.0
 50
0.0
 71
     0
 42
0.125
  3
txt
  4

  0
STYLE
  5
827A
330
81FF
100
AcDbSymbolTableRecord
100
AcDbTextStyleTableRecord
  2
P125
 70
     0
 40
0.125
 41
0.75
 50
15.0
 71
     0
 42
0.125
  3
print
  4

  0
STYLE
  5
D307
330
81FF
100
AcDbSymbolTableRecord
100
AcDbTextStyleTableRecord
  2
P250
 70
     0
 40
0.25
 41
0.75
 50
15.0
 71
     0
 42
0.25
  3
print
  4

  0
ENDTAB
  0
TABLE
  2
VIEW
  5
8202
330
0
100
AcDbSymbolTable
 70
     0
  0
ENDTAB
  0
TABLE
  2
UCS
  5
8203
330
0
100
AcDbSymbolTable
 70
     0
  0
ENDTAB
  0
TABLE
  2
APPID
  5
8205
330
0
100
AcDbSymbolTable
 70
    19
  0
APPID
  5
825A
330
8205
100
AcDbSymbolTableRecord
100
AcDbRegAppTableRecord
  2
ACAD
 70
     0
  0
APPID
  5
8261
330
8205
100
AcDbSymbolTableRecord
100
AcDbRegAppTableRecord
  2
ACADANNOTATIVE
 70
     0
  0
APPID
  5
826B
330
8205
100
AcDbSymbolTableRecord
100
AcDbRegAppTableRecord
  2
ACAD_MLEADERVER
 70
     0
  0
APPID
  5
8306
330
8205
100
AcDbSymbolTableRecord
100
AcDbRegAppTableRecord
  2
ACAD_PSEXT
 70
     0
  0
APPID
  5
BBDB
330
8205
100
AcDbSymbolTableRecord
100
AcDbRegAppTableRecord
  2
ACAD_DSTYLE_DIMJAG
 70
     0
  0
APPID
  5
BBDC
330
8205
100
AcDbSymbolTableRecord
100
AcDbRegAppTableRecord
  2
ACAD_DSTYLE_DIMTALN
 70
     0
  0
APPID
  5
C436
330
8205
100
AcDbSymbolTableRecord
100
AcDbRegAppTableRecord
  2
ACAECLAYERSTANDARD
 70
     0
  0
APPID
  5
C903
330
8205
100
AcDbSymbolTableRecord
100
AcDbRegAppTableRecord
  2
ACAD_EXEMPT_FROM_CAD_STAND
 70
     0
  0
APPID
  5
D294
330
8205
100
AcDbSymbolTableRecord
100
AcDbRegAppTableRecord
  2
ACAD_DSTYLE_DIMBREAK
 70
     0
  0
APPID
  5
243D9
330
8205
100
AcDbSymbolTableRecord
100
AcDbRegAppTableRecord
  2
ACAUTHENVIRON
 70
     0
  0
APPID
  5
2A24B
330
8205
100
AcDbSymbolTableRecord
100
AcDbRegAppTableRecord
  2
ACDBDYNAMICBLOCKTRUENAME
 70
     0
  0
APPID
  5
2A24C
330
8205
100
AcDbSymbolTableRecord
100
AcDbRegAppTableRecord
  2
ACDBDYNAMICBLOCKGUID
 70
     0
  0
APPID
  5
2A24E
330
8205
100
AcDbSymbolTableRecord
100
AcDbRegAppTableRecord
  2
ACDBBLOCKREPETAG
 70
     0
  0
APPID
  5
2E552
330
8205
100
AcDbSymbolTableRecord
100
AcDbRegAppTableRecord
  2
ACAD_DSTYLE_DIMRADIAL_EXTE
 70
     0
  0
APPID
  5
2E5BB
330
8205
100
AcDbSymbolTableRecord
100
AcDbRegAppTableRecord
  2
ACAD_NAV_VCDISPLAY
 70
     0
  0
APPID
  5
2E84C
330
8205
100
AcDbSymbolTableRecord
100
AcDbRegAppTableRecord
  2
GRADIENTCOLOR1ACI
 70
     0
  0
APPID
  5
2E84D
330
8205
100
AcDbSymbolTableRecord
100
AcDbRegAppTableRecord
  2
GRADIENTCOLOR2ACI
 70
     0
  0
APPID
  5
332C2
330
8205
100
AcDbSymbolTableRecord
100
AcDbRegAppTableRecord
  2
ACAD_EXEMPT_FROM_CAD_STANDARDS
 70
     0
  0
APPID
  5
332C3
330
8205
100
AcDbSymbolTableRecord
100
AcDbRegAppTableRecord
  2
AcCmTransparency
 70
     0
  0
ENDTAB
  0
TABLE
  2
DIMSTYLE
  5
8206
330
0
100
AcDbSymbolTable
 70
     1
100
AcDbDimStyleTable
 71
     1
340
825B
  0
DIMSTYLE
105
825B
330
8206
100
AcDbSymbolTableRecord
100
AcDbDimStyleTableRecord
  2
STANDARD
 70
     0
340
8259
  0
ENDTAB
  0
TABLE
  2
BLOCK_RECORD
  5
81FD
330
0
100
AcDbSymbolTable
 70
     4
  0
BLOCK_RECORD
  5
8270
102
{ACAD_XDICTIONARY
360
98DA
102
}
330
81FD
100
AcDbSymbolTableRecord
100
AcDbBlockTableRecord
  2
*MODEL_SPACE
340
32D61
 70
     0
280
     1
281
     0
  0
BLOCK_RECORD
  5
826C
330
81FD
100
AcDbSymbolTableRecord
100
AcDbBlockTableRecord
  2
*PAPER_SPACE
340
32D62
 70
     0
280
     1
281
     0
  0
BLOCK_RECORD
  5
8293
330
81FD
100
AcDbSymbolTableRecord
100
AcDbBlockTableRecord
  2
A$C0B673CA8
340
0
 70
     0
280
     1
281
     0
  0
BLOCK_RECORD
  5
333DC
102
{ACAD_XDICTIONARY
360
334E7
102
}
330
81FD
100
AcDbSymbolTableRecord
100
AcDbBlockTableRecord
  2
SSL238
340
0
 70
     0
280
     1
281
     0
  0
BLOCK_RECORD
  5
3356C
330
81FD
100
AcDbSymbolTableRecord
100
AcDbBlockTableRecord
  2
LX2060
340
0
 70
     0
280
     1
281
     0
  0
BLOCK_RECORD
  5
337EE
330
81FD
100
AcDbSymbolTableRecord
100
AcDbBlockTableRecord
  2
LP3
340
0
 70
     0
280
     1
281
     0
  0
ENDTAB
  0
ENDSEC
  0
SECTION
  2
BLOCKS
  0
BLOCK
  5
8271
330
8270
100
AcDbEntity
  8
0
100
AcDbBlockBegin
  2
*MODEL_SPACE
 70
     0
 10
0.0
 20
0.0
 30
0.0
  3
*MODEL_SPACE
  1

  0
ENDBLK
  5
8272
330
8270
100
AcDbEntity
  8
0
100
AcDbBlockEnd
  0
BLOCK
  5
826D
330
826C
100
AcDbEntity
 67
     1
  8
0
100
AcDbBlockBegin
  2
*PAPER_SPACE
 70
     0
 10
0.0
 20
0.0
 30
0.0
  3
*PAPER_SPACE
  1

  0
ENDBLK
  5
826E
330
826C
100
AcDbEntity
 67
     1
  8
0
100
AcDbBlockEnd
  0
BLOCK
  5
8294
330
8293
100
AcDbEntity
  8
0
100
AcDbBlockBegin
  2
A$C0B673CA8
 70
     0
 10
0.0
 20
0.0
 30
0.0
  3
A$C0B673CA8
  1

  0
LWPOLYLINE
  5
888
330
8293
100
AcDbEntity
  8
0
100
AcDbPolyline
 90
      174
 70
     0
 43
0.0
 10
-0.4534638018143406
 20
0.5292338006494042
 42
-0.8847252645562793
 10
-0.4482913354059729
 20
0.4871074423326231
 10
-0.6884638018143149
 20
0.4576179715037103
 10
-0.6884638018143149
 20
0.3461179715037428
 42
-0.9999999999999998
 10
-0.7354638018143193
 20
0.3461179715037428
 10
-0.7354638018143263
 20
0.394617971503715
 42
0.4142135623730841
 10
-0.7514638018143174
 20
0.4106179715037153
 10
-0.8184638018143246
 20
0.4106179715037134
 42
0.4142135623730925
 10
-0.8344638018143227
 20
0.394617971503715
 10
-0.8344638018143156
 20
0.2116179715037116
 42
0.4142135623731005
 10
-0.8184638018143246
 20
0.1956179715037116
 10
-0.7604638018143035
 20
0.1956179715037134
 42
-0.4142135623730951
 10
-0.7444638018143053
 20
0.1796179715037152
 10
-0.7444638018143124
 20
0.1066179715037148
 42
-0.4142135623730831
 10
-0.7604638018143178
 20
0.0906179715037148
 10
-0.8184638018143246
 20
0.090617971503713
 42
0.414213562373078
 10
-0.8344638018143227
 20
0.0746179715037148
 10
-0.8344638018143156
 20
-0.0693820284962836
 42
0.4142135623730951
 10
-0.8184638018143246
 20
-0.0853820284962836
 10
-0.8184638018143211
 20
-0.0853820284962819
 10
-0.7604638018143035
 20
-0.0853820284962801
 42
-0.4142135623730951
 10
-0.7444638018143124
 20
-0.1013820284962801
 10
-0.7444638018143124
 20
-0.1538109606844156
 10
-0.7444638018143124
 20
-0.2403820284962759
 10
-0.7020373949431118
 20
-0.2828084353674693
 10
-0.6383977846363181
 20
-0.346448045674256
 10
-0.5747581743294994
 20
-0.2828084353674356
 42
-0.6681786379192986
 10
-0.5406160387057711
 20
-0.2969505709911662
 10
-0.5401441192377554
 20
-0.3547120837828555
 10
-0.5549010014359901
 20
-0.3694689659810919
 10
-0.5399010014359824
 20
-0.3844689659810978
 10
-0.5394028352702165
 20
-0.4454429950403826
 10
-0.3555550721616996
 20
-0.6292907581488853
 10
-0.3155550721617075
 20
-0.6292907581488853
 10
-0.2555550721617052
 20
-0.6292907581488834
 42
0.4142135623730951
 10
-0.2455550721617001
 20
-0.6192907581488836
 10
-0.2455550721617037
 20
-0.4592907581488799
 42
-0.4142135623730951
 10
-0.2255550721617041
 20
-0.4392907581488803
 10
-0.2255550721617041
 20
-0.4392907581488803
 42
-0.4142135623730951
 10
-0.2055550721617081
 20
-0.4592907581488799
 10
-0.2055550721617187
 20
-0.6192907581488836
 42
0.4142135623731014
 10
-0.1955550721617172
 20
-0.6292907581488853
 10
-0.0149638018143108
 20
-0.6292907581488816
 10
0.1656274685330956
 20
-0.6292907581488834
 42
0.4142135623731011
 10
0.1756274685330865
 20
-0.6192907581488836
 10
0.175627468533083
 20
-0.4592907581488799
 42
-0.4142135623730951
 10
0.1956274685330967
 20
-0.4392907581488803
 42
-0.4142135623730952
 10
0.2156274685330786
 20
-0.4592907581488799
 10
0.2156274685330963
 20
-0.6192907581488836
 42
0.4142135623730953
 10
0.2256274685330979
 20
-0.6292907581488853
 10
0.2856274685330859
 20
-0.6292907581488853
 10
0.3214853329093543
 20
-0.6292907581488834
 42
0.1989123673796321
 10
0.3285564007212187
 20
-0.6263618259607479
 10
0.5065462994534542
 20
-0.4483719272285171
 42
0.1989123673796605
 10
0.509475231641595
 20
-0.441300859416652
 10
0.5106884350771317
 20
-0.2969505709911555
 42
-0.6681786379192986
 10
0.5448305707008601
 20
-0.2828084353674196
 10
0.6084701810076965
 20
-0.346448045674256
 10
0.7145361981856908
 20
-0.2403820284962794
 10
0.7145361981856837
 20
-0.1013820284962801
 42
-0.4142135623730951
 10
0.7305361981856821
 20
-0.0853820284962819
 10
0.7885361981857031
 20
-0.0853820284962836
 42
0.4142135623730951
 10
0.8045361981856942
 20
-0.0693820284962836
 10
0.8045361981857013
 20
0.0746179715037148
 42
0.4142135623730784
 10
0.7885361981857031
 20
0.090617971503713
 10
0.7305361981856962
 20
0.0906179715037148
 42
-0.4142135623730835
 10
0.7145361981856908
 20
0.1066179715037148
 10
0.7145361981856837
 20
0.1796179715037152
 42
-0.4142135623730951
 10
0.7305361981856821
 20
0.1956179715037134
 10
0.7885361981857031
 20
0.1956179715037116
 42
0.4142135623731
 10
0.8045361981856942
 20
0.2116179715037116
 10
0.8045361981857013
 20
0.394617971503715
 42
0.4142135623730927
 10
0.7885361981857031
 20
0.4106179715037134
 10
0.7215361981856958
 20
0.4106179715037153
 42
0.4142135623730839
 10
0.7055361981857047
 20
0.394617971503715
 10
0.7055361981856905
 20
0.3461179715037117
 42
-1.000000000000019
 10
0.6585361981856935
 20
0.3461179715037108
 10
0.6585361981856935
 20
0.4576179715037103
 10
0.420098811317601
 20
0.4868944013531423
 42
-0.3788661086953136
 10
0.4025361981857074
 20
0.5067453243859692
 10
0.402536198185704
 20
0.5091866889939292
 42
-0.4040262258351576
 10
0.4218382082516501
 20
0.5291745055343125
 10
0.7495361981857016
 20
0.540617971503708
 42
-0.4142135623730952
 10
0.8745361981857016
 20
0.4156179715037088
 10
0.8745361981856978
 20
0.1766752690668571
 42
0.3888787318529922
 10
0.8882288620444851
 20
0.1617323485954811
 10
1.224082067098659
 20
0.1323490005443961
 42
-0.3888787318528166
 10
1.235036198185686
 20
0.1203946641673026
 10
1.235036198185686
 20
0.1156179715037178
 42
-0.4142135623732795
 10
1.223036198185686
 20
0.1036179715037102
 10
0.8895361981857019
 20
0.1036179715037067
 42
0.414213562373103
 10
0.8745361981857016
 20
0.088617971503707
 10
0.8745361981857087
 20
-0.1403820284962887
 42
-0.4142135623731356
 10
0.8595361981857044
 20
-0.1553820284962892
 10
0.7845361981856911
 20
-0.1553820284962803
 42
0.4142135623731255
 10
0.7745361981856897
 20
-0.1653820284962801
 10
0.7745361981856859
 20
-0.4263820284962865
 42
0.4142135623730824
 10
0.7845361981856877
 20
-0.4363820284962864
 10
0.814536198185678
 20
-0.4363820284962864
 42
0.41421356237313
 10
0.8245361981856794
 20
-0.4263820284962865
 10
0.8245361981863297
 20
-0.3153822059492866
 42
-1.000966607614417
 10
0.8745361482081149
 20
-0.3154301543880411
 10
0.8745358505367127
 20
-0.476382056237978
 10
0.8745358505367093
 20
-0.4763820586816803
 42
-0.4142129729667877
 10
0.8595358505367407
 20
-0.491382028496289
 10
0.7295361981856808
 20
-0.4913820284962842
 42
-0.4142135623730808
 10
0.7145361981856802
 20
-0.4763820284962847
 10
0.7145361981856873
 20
-0.3642764727990002
 42
0.6681786379193115
 10
0.6889295964678901
 20
-0.3536698710812018
 10
0.3694680889666593
 20
-0.6731313785824478
 42
-0.1989123673796575
 10
0.3256274685330922
 20
-0.6912907581488819
 10
0.2570361981856948
 20
-0.6912907581488838
 42
0.4142135623730951
 10
0.2420361981856942
 20
-0.7062907581488834
 10
0.2420361981855699
 20
-0.8432907581488784
 42
-0.999999999999949
 10
0.1720361981855625
 20
-0.8432907581488764
 10
0.1720361981856939
 20
-0.7062907581488834
 42
0.4142135623730951
 10
0.1570361981856934
 20
-0.6912907581488838
 10
0.0551212523341569
 20
-0.6915525442454431
 42
0.409110801427706
 10
0.0401235369068118
 20
-0.7062907581488842
 10
0.0250361981856955
 20
-1.570643814592846
 42
0.4142135623730919
 10
0.040036198185696
 20
-1.585643814592843
 10
0.140874679854754
 20
-1.585382028496286
 42
0.4040262258351638
 10
0.1558655422600417
 20
-1.570905520946823
 10
0.1606358076508307
 20
-1.434302992989163
 42
-0.9999999999999753
 10
0.232521527474848
 20
-1.434302992989163
 10
0.2261981048312798
 20
-1.615382028496288
 42
-0.4142135623730961
 10
0.1941981048312797
 20
-1.647382028496284
 10
-0.2241257084598871
 20
-1.647382028496284
 42
-0.4142135623730962
 10
-0.2561257084598871
 20
-1.615382028496288
 10
-0.2624498947773475
 20
-1.434281124230011
 10
-0.2624498947773475
 20
-1.434281124230004
 42
-0.9999999999999998
 10
-0.1905641749533373
 20
-1.434281124230004
 10
-0.185793145888649
 20
-1.570905520946823
 42
0.404026225835157
 10
-0.1708022834833613
 20
-1.58538202849629
 10
-0.0699638018143176
 20
-1.585643814592839
 42
0.4142135623730919
 10
-0.0549638018143028
 20
-1.570643814592846
 10
-0.0700511405354369
 20
-0.7062907581488798
 42
0.4091108014277103
 10
-0.085048855962782
 20
-0.6915525442454396
 10
-0.1869638018143078
 20
-0.6912907581488838
 42
0.4142135623731125
 10
-0.2019638018143084
 20
-0.7062907581488834
 10
-0.2019638018143013
 20
-0.8432907581488802
 42
-0.999999999999949
 10
-0.2719638018143087
 20
-0.8432907581488784
 10
-0.2719638018143158
 20
-0.7062907581488789
 42
0.4142135623729736
 10
-0.2869638018143128
 20
-0.6912907581488811
 10
-0.3155550721617075
 20
-0.6912907581488828
 10
-0.3555550721617138
 20
-0.6912907581488819
 42
-0.1989123673796578
 10
-0.3993956925952702
 20
-0.6731313785824487
 10
-0.7188572000965153
 20
-0.3536698710812018
 42
0.6681786379193114
 10
-0.744463801814309
 20
-0.3642764727990002
 10
-0.7444638018143053
 20
-0.4763820284962847
 42
-0.4142135623730808
 10
-0.759463801814306
 20
-0.4913820284962851
 10
-0.8894634541653656
 20
-0.491382028496288
 42
-0.4142129729667876
 10
-0.9044634541653342
 20
-0.4763820586816803
 10
-0.9044635887728167
 20
-0.3154301543880669
 42
-1.000966607614417
 10
-0.8544636387510314
 20
-0.3153822059493123
 10
-0.8544638018143011
 20
-0.4213820284962866
 42
0.4142135623732512
 10
-0.8444638018142994
 20
-0.4313820284962864
 10
-0.8144638018143124
 20
-0.4313820284962864
 42
0.4142135623730824
 10
-0.8044638018143075
 20
-0.4213820284962866
 10
-0.8044638018143109
 20
-0.1653820284962801
 42
0.4142135623731257
 10
-0.8144638018143124
 20
-0.1553820284962803
 10
-0.8894638018143259
 20
-0.1553820284962883
 42
-0.4142135623731357
 10
-0.9044638018143299
 20
-0.1403820284962887
 10
-0.9044638018143231
 20
0.088617971503707
 42
0.4142135623730951
 10
-0.9194638018143235
 20
0.1036179715037075
 10
-1.252963801814312
 20
0.1036179715037084
 42
-0.4142135623730864
 10
-1.264963801814311
 20
0.115617971503708
 10
-1.264963801814311
 20
0.1203946641672928
 42
-0.3888787318529996
 10
-1.254009670727284
 20
0.1323490005443935
 10
-0.9181564656731103
 20
0.1617323485954811
 42
0.3888787318529902
 10
-0.9044638018143231
 20
0.1766752690668571
 10
-0.9044638018143231
 20
0.4156179715037088
 42
-0.4142135623730951
 10
-0.7794638018143232
 20
0.5406179715037088
 10
-0.4519723575764484
 20
0.5291817182689629
  0
ARC
  5
889
330
8293
100
AcDbEntity
  8
0
100
AcDbCircle
 10
-0.1708022834833613
 20
-1.570382028496289
 30
0.0
 40
0.015
100
AcDbArc
 50
182.0000000000007
 51
270.0
  0
LINE
  5
88A
330
8293
100
AcDbEntity
  8
0
100
AcDbLine
 10
-0.4904899243570995
 20
-0.5820371468206158
 30
0.0
 11
-0.4489474009623893
 21
-0.6235796702153227
 31
0.0
  0
LINE
  5
88B
330
8293
100
AcDbEntity
  8
0
100
AcDbLine
 10
0.1956274685330967
 20
-0.4392907581488803
 30
0.0
 11
0.1956274685330825
 21
-0.4392907581488803
 31
0.0
  0
LINE
  5
88C
330
8293
100
AcDbEntity
  8
0
100
AcDbLine
 10
0.7885361981857031
 20
-0.0853820284962854
 30
0.0
 11
0.7305361981856962
 21
-0.0853820284962819
 31
0.0
  0
ENDBLK
  5
88D
330
8293
100
AcDbEntity
  8
0
100
AcDbBlockEnd
  0
BLOCK
  5
334E9
330
333DC
100
AcDbEntity
  8
0
100
AcDbBlockBegin
  2
SSL238
 70
     0
 10
0.0
 20
0.0
 30
0.0
  3
SSL238
  1

  0
LINE
  5
333DD
330
333DC
100
AcDbEntity
  8
0
100
AcDbLine
 10
7.588503191229751
 20
0.6050050484093365
 30
0.0
 11
7.958503130292213
 21
0.6050050484093365
 31
0.0
  0
LINE
  5
333DE
330
333DC
100
AcDbEntity
  8
0
100
AcDbLine
 10
7.958503130292213
 20
6.655004971627292
 30
0.0
 11
7.522302142656581
 21
6.655004971627292
 31
0.0
  0
ARC
  5
333DF
330
333DC
100
AcDbEntity
  8
0
100
AcDbCircle
 10
7.958503362193293
 20
0.6700050299636482
 30
0.0
 40
0.0650000000000013
100
AcDbArc
 50
270.0000000000008
 51
0.000000000000229
  0
ARC
  5
333E0
330
333DC
100
AcDbEntity
  8
0
100
AcDbCircle
 10
7.958503362193293
 20
6.590005029963644
 30
0.0
 40
0.0650000000000013
100
AcDbArc
 50
0.0
 51
90.0
  0
ARC
  5
333E1
330
333DC
100
AcDbEntity
  8
0
100
AcDbCircle
 10
8.038503362193296
 20
0.9600050299636482
 30
0.0
 40
0.0150000000000006
100
AcDbArc
 50
90.0
 51
180.0
  0
ARC
  5
333E2
330
333DC
100
AcDbEntity
  8
0
100
AcDbCircle
 10
8.038503362193289
 20
6.300005029963646
 30
0.0
 40
0.0150000000000006
100
AcDbArc
 50
179.9999999999989
 51
270.0000000000008
  0
ARC
  5
333E3
330
333DC
100
AcDbEntity
  8
0
100
AcDbCircle
 10
10.70850336219329
 20
1.040005029963649
 30
0.0
 40
0.0650000000000048
100
AcDbArc
 50
270.0000000000008
 51
0.000000000000229
  0
ARC
  5
333E4
330
333DC
100
AcDbEntity
  8
0
100
AcDbCircle
 10
10.70850336219329
 20
6.220005029963648
 30
0.0
 40
0.0650000000000013
100
AcDbArc
 50
0.000000000000229
 51
90.0
  0
LINE
  5
333E5
330
333DC
100
AcDbEntity
  8
0
100
AcDbLine
 10
8.038503592786714
 20
0.9750049874718003
 30
0.0
 11
10.70850362871845
 21
0.9750049874718003
 31
0.0
  0
LINE
  5
333E6
330
333DC
100
AcDbEntity
  8
0
100
AcDbLine
 10
10.70850362871845
 20
6.285005032564827
 30
0.0
 11
8.038503592786714
 21
6.285005032564827
 31
0.0
  0
ARC
  5
333E7
330
333DC
100
AcDbEntity
  8
0
100
AcDbCircle
 10
7.222503362193292
 20
6.649188487456751
 30
0.0
 40
0.0780000000000031
100
AcDbArc
 50
359.8775212125017
 51
180.0132677018312
  0
LINE
  5
333E8
330
333DC
100
AcDbEntity
  8
0
100
AcDbLine
 10
5.719384250117922
 20
6.010905505652619
 30
0.0
 11
5.719384250117922
 21
5.990905536693967
 31
0.0
  0
LINE
  5
333E9
330
333DC
100
AcDbEntity
  8
0
100
AcDbLine
 10
6.063384009536682
 20
5.990905536693967
 30
0.0
 11
6.063384009536682
 21
6.010905505652619
 31
0.0
  0
ARC
  5
333EA
330
333DC
100
AcDbEntity
  8
0
100
AcDbCircle
 10
1.817836461184636
 20
3.473953032948725
 30
0.0
 40
0.0035474999999998
100
AcDbArc
 50
270.0000000000008
 51
0.0000000000017811
  0
ARC
  5
333EB
330
333DC
100
AcDbEntity
  8
0
100
AcDbCircle
 10
1.817836461184636
 20
3.787858032948725
 30
0.0
 40
0.0035475000000007
100
AcDbArc
 50
0.0000000000143507
 51
90.0
  0
LINE
  5
333EC
330
333DC
100
AcDbEntity
  8
0
100
AcDbLine
 10
1.817836534463399
 20
3.791405540505611
 30
0.0
 11
1.797733900024081
 21
3.791405540505611
 31
0.0
  0
LINE
  5
333ED
330
333DC
100
AcDbEntity
  8
0
100
AcDbLine
 10
1.797733900024081
 20
3.470405525391845
 30
0.0
 11
1.817836534463399
 21
3.470405525391845
 31
0.0
  0
ARC
  5
333EE
330
333DC
100
AcDbEntity
  8
0
100
AcDbCircle
 10
1.973136747872685
 20
3.630905532948725
 30
0.0
 40
0.2377527866880534
100
AcDbArc
 50
189.5671913782119
 51
222.4596602602751
  0
ARC
  5
333EF
330
333DC
100
AcDbEntity
  8
0
100
AcDbCircle
 10
1.973136747872685
 20
3.630905532948725
 30
0.0
 40
0.2377527866880528
100
AcDbArc
 50
137.5403397397259
 51
170.4328086217891
  0
LINE
  5
333F0
330
333DC
100
AcDbEntity
  8
0
100
AcDbLine
 10
1.821592331076113
 20
3.578217379106779
 30
0.0
 11
1.823920050852765
 21
3.582203004314496
 31
0.0
  0
LINE
  5
333F1
330
333DC
100
AcDbEntity
  8
0
100
AcDbLine
 10
6.07888415047773
 20
6.010905505652619
 30
0.0
 11
6.07888415047773
 21
6.073906764523366
 31
0.0
  0
ARC
  5
333F2
330
333DC
100
AcDbEntity
  8
0
100
AcDbCircle
 10
6.559383961184632
 20
6.052905532948735
 30
0.0
 40
0.0620000000000013
100
AcDbArc
 50
270.0000000000008
 51
294.8957001669519
  0
ARC
  5
333F3
330
333DC
100
AcDbEntity
  8
0
100
AcDbCircle
 10
6.559383961184632
 20
1.208905532948734
 30
0.0
 40
0.0620000000000013
100
AcDbArc
 50
65.10429983304899
 51
90.0
  0
LINE
  5
333F4
330
333DC
100
AcDbEntity
  8
0
100
AcDbLine
 10
5.719384250117922
 20
5.990905536693967
 30
0.0
 11
5.706383866966127
 21
5.990905536693967
 31
0.0
  0
LINE
  5
333F5
330
333DC
100
AcDbEntity
  8
0
100
AcDbLine
 10
4.706383952383807
 20
5.990905536693967
 30
0.0
 11
4.323216725430973
 21
5.990905536693967
 31
0.0
  0
LINE
  5
333F6
330
333DC
100
AcDbEntity
  8
0
100
AcDbLine
 10
6.559383826371138
 20
5.990905536693967
 30
0.0
 11
6.063384009536682
 21
5.990905536693967
 31
0.0
  0
LINE
  5
333F7
330
333DC
100
AcDbEntity
  8
0
100
AcDbLine
 10
4.323216725430973
 20
1.270905529203491
 30
0.0
 11
6.559383826371138
 21
1.270905529203491
 31
0.0
  0
ARC
  5
333F8
330
333DC
100
AcDbEntity
  8
0
100
AcDbCircle
 10
4.323216690141292
 20
5.878905532948734
 30
0.0
 40
0.1120000000000007
100
AcDbArc
 50
90.0
 51
102.0617813067802
  0
ARC
  5
333F9
330
333DC
100
AcDbEntity
  8
0
100
AcDbCircle
 10
4.323216690141292
 20
1.382905532948734
 30
0.0
 40
0.1119999999999992
100
AcDbArc
 50
257.9382186932205
 51
270.0000000000008
  0
LINE
  5
333FA
330
333DC
100
AcDbEntity
  8
0
100
AcDbLine
 10
4.299812515798403
 20
5.988432911924606
 30
0.0
 11
1.959814827651374
 21
5.488413301527145
 31
0.0
  0
LINE
  5
333FB
330
333DC
100
AcDbEntity
  8
0
100
AcDbLine
 10
1.959814827651374
 20
1.773397764370311
 30
0.0
 11
4.299812515798403
 21
1.273378153972853
 31
0.0
  0
ARC
  5
333FC
330
333DC
100
AcDbEntity
  8
0
100
AcDbCircle
 10
1.996383961184637
 20
5.317276754920198
 30
0.0
 40
0.1750000000000008
100
AcDbArc
 50
102.0617813067812
 51
179.9999999999998
  0
ARC
  5
333FD
330
333DC
100
AcDbEntity
  8
0
100
AcDbCircle
 10
1.996383961184637
 20
1.94453431097727
 30
0.0
 40
0.1750000000000008
100
AcDbArc
 50
179.9999999999998
 51
257.9382186932195
  0
ARC
  5
333FE
330
333DC
100
AcDbEntity
  8
0
100
AcDbCircle
 10
7.105503362193292
 20
0.642165269325349
 30
0.0
 40
0.1481602393617034
100
AcDbArc
 50
223.0609435949079
 51
316.9390564050947
  0
LINE
  5
333FF
330
333DC
100
AcDbEntity
  8
0
100
AcDbLine
 10
6.997253274732575
 20
0.5420051095233398
 30
0.0
 11
6.997253274732575
 21
0.5410051477416502
 31
0.0
  0
LINE
  5
33400
330
333DC
100
AcDbEntity
  8
0
100
AcDbLine
 10
7.213753653701722
 20
0.5410051477416502
 30
0.0
 11
7.213753653701722
 21
0.5420051095233398
 31
0.0
  0
LINE
  5
33401
330
333DC
100
AcDbEntity
  8
0
100
AcDbLine
 10
7.015970658507758
 20
0.6928928597885067
 30
0.0
 11
6.997253274732575
 21
0.6760049748787944
 31
0.0
  0
LINE
  5
33402
330
333DC
100
AcDbEntity
  8
0
100
AcDbLine
 10
6.997253274732575
 20
0.6760049748787944
 30
0.0
 11
6.997253274732575
 21
0.6750050130971044
 31
0.0
  0
ARC
  5
33403
330
333DC
100
AcDbEntity
  8
0
100
AcDbCircle
 10
7.335503362193295
 20
0.642165269325349
 30
0.0
 40
0.1481602393617034
100
AcDbArc
 50
223.060943594907
 51
316.9390564050938
  0
LINE
  5
33404
330
333DC
100
AcDbEntity
  8
0
100
AcDbLine
 10
7.227253284419499
 20
0.5420051095233398
 30
0.0
 11
7.227253284419499
 21
0.5410051477416502
 31
0.0
  0
LINE
  5
33405
330
333DC
100
AcDbEntity
  8
0
100
AcDbLine
 10
7.443753076728761
 20
0.5410051477416502
 30
0.0
 11
7.443753076728761
 21
0.5420051095233398
 31
0.0
  0
LWPOLYLINE
  5
33406
330
333DC
100
AcDbEntity
  8
0
100
AcDbPolyline
 90
        3
 70
     0
 43
0.0
 10
7.001832741830177
 20
0.6750050130971044
 10
7.020070824475624
 20
0.6598099352986067
 10
7.023503371489216
 20
0.6574594824512383
  0
LINE
  5
33407
330
333DC
100
AcDbEntity
  8
0
100
AcDbLine
 10
6.997233914956217
 20
0.6807117471724258
 30
0.0
 11
6.997233914956217
 21
0.6797117853907359
 31
0.0
  0
LINE
  5
33408
330
333DC
100
AcDbEntity
  8
0
100
AcDbLine
 10
7.460983864343897
 20
6.760555645630232
 30
0.0
 11
7.460983864343897
 21
7.260555602921392
 31
0.0
  0
LINE
  5
33409
330
333DC
100
AcDbEntity
  8
0
100
AcDbLine
 10
7.085983823043039
 20
7.260555602921392
 30
0.0
 11
7.085983823043039
 21
6.760555645630232
 31
0.0
  0
LINE
  5
3340A
330
333DC
100
AcDbEntity
  8
0
100
AcDbLine
 10
7.085983823043039
 20
6.760555645630232
 30
0.0
 11
7.117234022038076
 21
6.729305446635197
 31
0.0
  0
LINE
  5
3340B
330
333DC
100
AcDbEntity
  8
0
100
AcDbLine
 10
7.429734252008753
 20
6.729305446635197
 30
0.0
 11
7.460983864343897
 21
6.760555645630232
 31
0.0
  0
LINE
  5
3340C
330
333DC
100
AcDbEntity
  8
0
100
AcDbLine
 10
7.460983864343897
 20
7.260555602921392
 30
0.0
 11
7.429734252008753
 21
7.291805508586481
 31
0.0
  0
LINE
  5
3340D
330
333DC
100
AcDbEntity
  8
0
100
AcDbLine
 10
7.117234022038076
 20
7.291805508586481
 30
0.0
 11
7.085983823043039
 21
7.260555602921392
 31
0.0
  0
LINE
  5
3340E
330
333DC
100
AcDbEntity
  8
0
100
AcDbLine
 10
7.355984063977217
 20
6.653551815080946
 30
0.0
 11
7.355984063977217
 21
6.729305446635197
 31
0.0
  0
LINE
  5
3340F
330
333DC
100
AcDbEntity
  8
0
100
AcDbLine
 10
7.19098421006961
 20
6.729305446635197
 30
0.0
 11
7.19098421006961
 21
6.720536347936573
 31
0.0
  0
ARC
  5
33410
330
333DC
100
AcDbEntity
  8
0
100
AcDbCircle
 10
7.055483961184633
 20
0.7879055329487353
 30
0.0
 40
0.0678999999999997
100
AcDbArc
 50
179.9999999999998
 51
218.4430583997889
  0
ARC
  5
33411
330
333DC
100
AcDbEntity
  8
0
100
AcDbCircle
 10
7.055483961184633
 20
6.473905532948736
 30
0.0
 40
0.0678999999999981
100
AcDbArc
 50
118.0989403587479
 51
180.0000000000023
  0
ARC
  5
33412
330
333DC
100
AcDbEntity
  8
0
100
AcDbCircle
 10
6.955583961184633
 20
0.9380055329487344
 30
0.0
 40
0.0320000000000036
100
AcDbArc
 50
0.0000000000015776
 51
90.0
  0
ARC
  5
33413
330
333DC
100
AcDbEntity
  8
0
100
AcDbCircle
 10
6.955583961184633
 20
6.323805532948735
 30
0.0
 40
0.0320000000000036
100
AcDbArc
 50
270.0000000000008
 51
0.0000000000004834
  0
LINE
  5
33414
330
333DC
100
AcDbEntity
  8
0
100
AcDbLine
 10
6.65338375380929
 20
0.9700054718932982
 30
0.0
 11
6.955583996099638
 21
0.9700054718932982
 31
0.0
  0
LINE
  5
33415
330
333DC
100
AcDbEntity
  8
0
100
AcDbLine
 10
6.955583996099638
 20
6.291805594004161
 30
0.0
 11
6.65338375380929
 21
6.291805594004161
 31
0.0
  0
ARC
  5
33416
330
333DC
100
AcDbEntity
  8
0
100
AcDbCircle
 10
6.653383961184637
 20
1.037905532948734
 30
0.0
 40
0.0679000000000016
100
AcDbArc
 50
179.9999999999992
 51
270.0000000000008
  0
ARC
  5
33417
330
333DC
100
AcDbEntity
  8
0
100
AcDbCircle
 10
6.653383961184637
 20
6.223905532948736
 30
0.0
 40
0.0679000000000016
100
AcDbArc
 50
90.0
 51
180.0
  0
ARC
  5
33418
330
333DC
100
AcDbEntity
  8
0
100
AcDbCircle
 10
5.206383961184633
 20
3.630905532948689
 30
0.0
 40
0.5
100
AcDbArc
 50
180.0
 51
0.0
  0
LINE
  5
33419
330
333DC
100
AcDbEntity
  8
0
100
AcDbLine
 10
4.706383952383807
 20
3.630905532948689
 30
0.0
 11
4.706383952383807
 21
4.630905520863535
 31
0.0
  0
LINE
  5
3341A
330
333DC
100
AcDbEntity
  8
0
100
AcDbLine
 10
5.706383866966127
 20
3.630905532948689
 30
0.0
 11
5.706383866966127
 21
4.630905520863535
 31
0.0
  0
LINE
  5
3341B
330
333DC
100
AcDbEntity
  8
0
100
AcDbLine
 10
4.706383952383807
 20
4.630905520863535
 30
0.0
 11
4.706383952383807
 21
4.669548881118806
 31
0.0
  0
LINE
  5
3341C
330
333DC
100
AcDbEntity
  8
0
100
AcDbLine
 10
5.706383866966127
 20
4.630905520863535
 30
0.0
 11
5.706383866966127
 21
4.669548881118806
 31
0.0
  0
LINE
  5
3341D
330
333DC
100
AcDbEntity
  8
0
100
AcDbLine
 10
4.706383952383807
 20
4.669548881118806
 30
0.0
 11
4.706383952383807
 21
7.983548797508979
 31
0.0
  0
LINE
  5
3341E
330
333DC
100
AcDbEntity
  8
0
100
AcDbLine
 10
5.706383866966127
 20
4.669548881118806
 30
0.0
 11
5.706383866966127
 21
7.983548797508979
 31
0.0
  0
LINE
  5
3341F
330
333DC
100
AcDbEntity
  8
0
100
AcDbLine
 10
4.706383952383807
 20
7.983548797508979
 30
0.0
 11
4.706383952383807
 21
8.130905441899116
 31
0.0
  0
LINE
  5
33420
330
333DC
100
AcDbEntity
  8
0
100
AcDbLine
 10
4.706383952383807
 20
8.130905441899116
 30
0.0
 11
5.706383866966127
 21
8.130905441899116
 31
0.0
  0
LINE
  5
33421
330
333DC
100
AcDbEntity
  8
0
100
AcDbLine
 10
5.706383866966127
 20
7.983548797508979
 30
0.0
 11
5.706383866966127
 21
8.130905441899116
 31
0.0
  0
ARC
  5
33422
330
333DC
100
AcDbEntity
  8
0
100
AcDbCircle
 10
7.429732823965959
 20
9.679643561546043
 30
0.0
 40
3.026091746536498
100
AcDbArc
 50
270.0003935949088
 51
271.7529735586924
  0
LINE
  5
33423
330
333DC
100
AcDbEntity
  8
0
100
AcDbLine
 10
7.023503371489216
 20
0.6148236816503144
 30
0.0
 11
7.588503191229751
 21
0.6148236816503144
 31
0.0
  0
LINE
  5
33424
330
333DC
100
AcDbEntity
  8
0
100
AcDbLine
 10
7.023503371489216
 20
0.6148236816503144
 30
0.0
 11
7.023503371489216
 21
6.653551815080946
 31
0.0
  0
LINE
  5
33425
330
333DC
100
AcDbEntity
  8
0
100
AcDbLine
 10
7.023503371489216
 20
6.653551815080946
 30
0.0
 11
7.144625758939727
 21
6.653551815080946
 31
0.0
  0
LINE
  5
33426
330
333DC
100
AcDbEntity
  8
0
100
AcDbLine
 10
7.300381026308254
 20
6.653551815080946
 30
0.0
 11
7.429753611785105
 21
6.653551815080946
 31
0.0
  0
ARC
  5
33427
330
333DC
100
AcDbEntity
  8
0
100
AcDbCircle
 10
7.244886341030659
 20
6.859726974892589
 30
0.0
 40
0.2175312336608858
100
AcDbArc
 50
264.0940012254421
 51
284.5415589938363
  0
LWPOLYLINE
  5
33428
330
333DC
100
AcDbEntity
  8
0
100
AcDbPolyline
 90
        7
 70
     0
 43
0.0
 10
7.14465978521332
 20
6.649193812091636
 10
7.144507253642043
 20
6.64913866606202
 10
7.149167093144511
 20
6.647425325854673
 10
7.162090037190893
 20
6.645728998784122
 10
7.181822929234839
 20
6.644333041577004
 10
7.206144674934628
 20
6.643502037843497
 10
7.222503099294043
 20
6.643350386262056
  0
LINE
  5
33429
330
333DC
100
AcDbEntity
  8
0
100
AcDbLine
 10
7.742253255095893
 20
6.130005089804058
 30
0.0
 11
7.742253255095893
 21
1.130004930232567
 31
0.0
  0
ARC
  5
3342A
330
333DC
100
AcDbEntity
  8
0
100
AcDbCircle
 10
7.648503244770678
 20
6.130004984785434
 30
0.0
 40
0.0937500103252715
100
AcDbArc
 50
0.0000641826486945
 51
179.9999358173513
  0
LINE
  5
3342B
330
333DC
100
AcDbEntity
  8
0
100
AcDbLine
 10
7.554753234445468
 20
1.130004930232567
 30
0.0
 11
7.554753234445468
 21
6.130005089804058
 31
0.0
  0
ARC
  5
3342C
330
333DC
100
AcDbEntity
  8
0
100
AcDbCircle
 10
7.648503244770678
 20
1.130005035251193
 30
0.0
 40
0.0937500103252715
100
AcDbArc
 50
180.0000641826495
 51
359.9999358173521
  0
LINE
  5
3342D
330
333DC
100
AcDbEntity
  8
0
100
AcDbLine
 10
8.023503286071536
 20
3.63000502999855
 30
0.0
 11
8.023503286071536
 21
6.590005109177916
 31
0.0
  0
LINE
  5
3342E
330
333DC
100
AcDbEntity
  8
0
100
AcDbLine
 10
8.023503286071536
 20
0.6700049108587125
 30
0.0
 11
8.023503286071536
 21
3.63000502999855
 31
0.0
  0
LINE
  5
3342F
330
333DC
100
AcDbEntity
  8
0
100
AcDbLine
 10
10.77350319783789
 20
3.63000502999855
 30
0.0
 11
10.77350319783789
 21
6.220005170115451
 31
0.0
  0
LINE
  5
33430
330
333DC
100
AcDbEntity
  8
0
100
AcDbLine
 10
10.77350319783789
 20
1.040005143251121
 30
0.0
 11
10.77350319783789
 21
3.63000502999855
 31
0.0
  0
LINE
  5
33431
330
333DC
100
AcDbEntity
  8
0
100
AcDbLine
 10
7.588503191229751
 20
0.6148236816503144
 30
0.0
 11
7.588503191229751
 21
0.5420051095233398
 31
0.0
  0
LINE
  5
33432
330
333DC
100
AcDbEntity
  8
0
100
AcDbLine
 10
7.588503191229751
 20
0.5420051095233398
 30
0.0
 11
7.023503371489216
 21
0.5420051095233398
 31
0.0
  0
LINE
  5
33433
330
333DC
100
AcDbEntity
  8
0
100
AcDbLine
 10
6.845004473523714
 20
0.5933258233287413
 30
0.0
 11
6.844873648368352
 21
0.5983241655874654
 31
0.0
  0
ARC
  5
33434
330
333DC
100
AcDbEntity
  8
0
100
AcDbCircle
 10
6.843237306169149
 20
0.6608026792358804
 30
0.0
 40
0.0674999999999996
100
AcDbArc
 50
268.5
 51
271.5000000000017
  0
LINE
  5
33435
330
333DC
100
AcDbEntity
  8
0
100
AcDbLine
 10
6.84147043434924
 20
0.5933258233287413
 30
0.0
 11
6.841601259504601
 21
0.5983241655874654
 31
0.0
  0
ARC
  5
33436
330
333DC
100
AcDbEntity
  8
0
100
AcDbCircle
 10
6.843237306169149
 20
0.6608026792358804
 30
0.0
 40
0.0625000000000001
100
AcDbArc
 50
256.5000000000022
 51
268.5000000000013
  0
LINE
  5
33437
330
333DC
100
AcDbEntity
  8
0
100
AcDbLine
 10
6.827479769303927
 20
0.5951676420518944
 30
0.0
 11
6.828647222484074
 21
0.6000295858863041
 31
0.0
  0
ARC
  5
33438
330
333DC
100
AcDbEntity
  8
0
100
AcDbCircle
 10
6.843237306169149
 20
0.6608026792358804
 30
0.0
 40
0.0674999999999997
100
AcDbArc
 50
253.5000000000018
 51
256.5000000000014
  0
LINE
  5
33439
330
333DC
100
AcDbEntity
  8
0
100
AcDbLine
 10
6.824065995406805
 20
0.5960822448196588
 30
0.0
 11
6.825486298999332
 21
0.6008764294368289
 31
0.0
  0
ARC
  5
3343A
330
333DC
100
AcDbEntity
  8
0
100
AcDbCircle
 10
6.843237306169149
 20
0.6608026792358804
 30
0.0
 40
0.0624999999999992
100
AcDbArc
 50
241.5000000000034
 51
253.5000000000018
  0
LINE
  5
3343B
330
333DC
100
AcDbEntity
  8
0
100
AcDbLine
 10
6.811029239341856
 20
0.6014824491027042
 30
0.0
 11
6.813414598452648
 21
0.6058765316752206
 31
0.0
  0
ARC
  5
3343C
330
333DC
100
AcDbEntity
  8
0
100
AcDbCircle
 10
6.843237306169149
 20
0.6608026792358804
 30
0.0
 40
0.0675000000000003
100
AcDbArc
 50
238.500000000004
 51
241.5
  0
LINE
  5
3343D
330
333DC
100
AcDbEntity
  8
0
100
AcDbLine
 10
6.807968634698219
 20
0.6032494686899437
 30
0.0
 11
6.810581031186258
 21
0.6075127261070961
 31
0.0
  0
ARC
  5
3343E
330
333DC
100
AcDbEntity
  8
0
100
AcDbCircle
 10
6.843237306169149
 20
0.6608026792358804
 30
0.0
 40
0.0624999999999991
100
AcDbArc
 50
226.5000000000023
 51
238.5000000000014
  0
LINE
  5
3343F
330
333DC
100
AcDbEntity
  8
0
100
AcDbLine
 10
6.79677340402648
 20
0.6118399294522076
 30
0.0
 11
6.800215337598302
 21
0.6154666608892301
 31
0.0
  0
ARC
  5
33440
330
333DC
100
AcDbEntity
  8
0
100
AcDbCircle
 10
6.843237306169149
 20
0.6608026792358804
 30
0.0
 40
0.0675000000000006
100
AcDbArc
 50
223.5000000000017
 51
226.5000000000009
  0
LINE
  5
33441
330
333DC
100
AcDbEntity
  8
0
100
AcDbLine
 10
6.794274819557009
 20
0.6143388072516247
 30
0.0
 11
6.79790155099403
 21
0.6177804474935025
 31
0.0
  0
ARC
  5
33442
330
333DC
100
AcDbEntity
  8
0
100
AcDbCircle
 10
6.843237306169149
 20
0.6608026792358804
 30
0.0
 40
0.0624999999999988
100
AcDbArc
 50
211.5000000000024
 51
223.5000000000016
  0
LINE
  5
33443
330
333DC
100
AcDbEntity
  8
0
100
AcDbLine
 10
6.785684358794741
 20
0.6255340379233651
 30
0.0
 11
6.789947029552005
 21
0.628146434411404
 31
0.0
  0
ARC
  5
33444
330
333DC
100
AcDbEntity
  8
0
100
AcDbCircle
 10
6.843237306169149
 20
0.6608026792358804
 30
0.0
 40
0.0674999999999999
100
AcDbArc
 50
208.500000000001
 51
211.5000000000015
  0
LINE
  5
33445
330
333DC
100
AcDbEntity
  8
0
100
AcDbLine
 10
6.783917339207505
 20
0.6285943492370542
 30
0.0
 11
6.788311421780022
 21
0.6309802950077385
 31
0.0
  0
ARC
  5
33446
330
333DC
100
AcDbEntity
  8
0
100
AcDbCircle
 10
6.843237306169149
 20
0.6608026792358804
 30
0.0
 40
0.0625000000000008
100
AcDbArc
 50
196.500000000002
 51
208.5000000000007
  0
LINE
  5
33447
330
333DC
100
AcDbEntity
  8
0
100
AcDbLine
 10
6.778517134924459
 20
0.6416316919618918
 30
0.0
 11
6.78331131954163
 21
0.6430517022244784
 31
0.0
  0
ARC
  5
33448
330
333DC
100
AcDbEntity
  8
0
100
AcDbCircle
 10
6.843237306169149
 20
0.6608026792358804
 30
0.0
 40
0.067499999999999
100
AcDbArc
 50
193.5000000000011
 51
196.5000000000016
  0
LINE
  5
33449
330
333DC
100
AcDbEntity
  8
0
100
AcDbLine
 10
6.777602532156695
 20
0.6450451725290725
 30
0.0
 11
6.782464182661161
 21
0.6462123323792755
 31
0.0
  0
ARC
  5
3344A
330
333DC
100
AcDbEntity
  8
0
100
AcDbCircle
 10
6.843237306169149
 20
0.6608026792358804
 30
0.0
 40
0.0624999999999992
100
AcDbArc
 50
181.5000000000011
 51
193.5000000000015
  0
LINE
  5
3344B
330
333DC
100
AcDbEntity
  8
0
100
AcDbLine
 10
6.775760420103597
 20
0.6590358375743826
 30
0.0
 11
6.780758762362321
 21
0.6591666627297466
 31
0.0
  0
ARC
  5
3344C
330
333DC
100
AcDbEntity
  8
0
100
AcDbCircle
 10
6.843237306169149
 20
0.6608026792358804
 30
0.0
 40
0.0675000000000004
100
AcDbArc
 50
178.5
 51
181.5000000000008
  0
LINE
  5
3344D
330
333DC
100
AcDbEntity
  8
0
100
AcDbLine
 10
6.775760420103597
 20
0.6625695834189163
 30
0.0
 11
6.780758762362321
 21
0.6624387582635523
 31
0.0
  0
ARC
  5
3344E
330
333DC
100
AcDbEntity
  8
0
100
AcDbCircle
 10
6.843237306169149
 20
0.6608026792358804
 30
0.0
 40
0.0624999999999992
100
AcDbArc
 50
166.4999999999992
 51
178.5000000000005
  0
LINE
  5
3344F
330
333DC
100
AcDbEntity
  8
0
100
AcDbLine
 10
6.777602532156695
 20
0.6765602484642264
 30
0.0
 11
6.782464182661161
 21
0.6753930886140234
 31
0.0
  0
ARC
  5
33450
330
333DC
100
AcDbEntity
  8
0
100
AcDbCircle
 10
6.843237306169149
 20
0.6608026792358804
 30
0.0
 40
0.067499999999999
100
AcDbArc
 50
163.4999999999998
 51
166.4999999999997
  0
LINE
  5
33451
330
333DC
100
AcDbEntity
  8
0
100
AcDbLine
 10
6.778517134924459
 20
0.6799737290314072
 30
0.0
 11
6.78331131954163
 21
0.6785537187688206
 31
0.0
  0
ARC
  5
33452
330
333DC
100
AcDbEntity
  8
0
100
AcDbCircle
 10
6.843237306169149
 20
0.6608026792358804
 30
0.0
 40
0.0625000000000004
100
AcDbArc
 50
151.5000000000008
 51
163.4999999999994
  0
LINE
  5
33453
330
333DC
100
AcDbEntity
  8
0
100
AcDbLine
 10
6.783917339207505
 20
0.6930107784263006
 30
0.0
 11
6.788311421780022
 21
0.6906251259855605
 31
0.0
  0
ARC
  5
33454
330
333DC
100
AcDbEntity
  8
0
100
AcDbCircle
 10
6.843237306169149
 20
0.6608026792358804
 30
0.0
 40
0.0674999999999999
100
AcDbArc
 50
148.4999999999999
 51
151.4999999999998
  0
LINE
  5
33455
330
333DC
100
AcDbEntity
  8
0
100
AcDbLine
 10
6.785684358794741
 20
0.6960713830699339
 30
0.0
 11
6.789947029552005
 21
0.6934586932519498
 31
0.0
  0
ARC
  5
33456
330
333DC
100
AcDbEntity
  8
0
100
AcDbCircle
 10
6.843237306169149
 20
0.6608026792358804
 30
0.0
 40
0.0624999999999988
100
AcDbArc
 50
136.4999999999992
 51
148.4999999999991
  0
LINE
  5
33457
330
333DC
100
AcDbEntity
  8
0
100
AcDbLine
 10
6.794274819557009
 20
0.7072666137416741
 30
0.0
 11
6.79790155099403
 21
0.7038249734997965
 31
0.0
  0
ARC
  5
33458
330
333DC
100
AcDbEntity
  8
0
100
AcDbCircle
 10
6.843237306169149
 20
0.6608026792358804
 30
0.0
 40
0.0675000000000006
100
AcDbArc
 50
133.4999999999998
 51
136.499999999999
  0
LINE
  5
33459
330
333DC
100
AcDbEntity
  8
0
100
AcDbLine
 10
6.79677340402648
 20
0.7097654915410914
 30
0.0
 11
6.800215337598302
 21
0.7061384667741244
 31
0.0
  0
ARC
  5
3345A
330
333DC
100
AcDbEntity
  8
0
100
AcDbCircle
 10
6.843237306169149
 20
0.6608026792358804
 30
0.0
 40
0.0624999999999991
100
AcDbArc
 50
121.4999999999993
 51
133.4999999999983
  0
LINE
  5
3345B
330
333DC
100
AcDbEntity
  8
0
100
AcDbLine
 10
6.807968634698219
 20
0.7183559523033553
 30
0.0
 11
6.810581031186258
 21
0.7140926948862028
 31
0.0
  0
ARC
  5
3345C
330
333DC
100
AcDbEntity
  8
0
100
AcDbCircle
 10
6.843237306169149
 20
0.6608026792358804
 30
0.0
 40
0.0675000000000003
100
AcDbArc
 50
118.5000000000007
 51
121.4999999999993
  0
LINE
  5
3345D
330
333DC
100
AcDbEntity
  8
0
100
AcDbLine
 10
6.811029239341856
 20
0.7201229718905946
 30
0.0
 11
6.813414598452648
 21
0.7157288893180782
 31
0.0
  0
ARC
  5
3345E
330
333DC
100
AcDbEntity
  8
0
100
AcDbCircle
 10
6.843237306169149
 20
0.6608026792358804
 30
0.0
 40
0.0625000000000001
100
AcDbArc
 50
106.4999999999988
 51
118.5000000000002
  0
LINE
  5
3345F
330
333DC
100
AcDbEntity
  8
0
100
AcDbLine
 10
6.824065995406805
 20
0.7255228828436957
 30
0.0
 11
6.825486298999332
 21
0.7207289915564701
 31
0.0
  0
ARC
  5
33460
330
333DC
100
AcDbEntity
  8
0
100
AcDbCircle
 10
6.843237306169149
 20
0.6608026792358804
 30
0.0
 40
0.0675000000000005
100
AcDbArc
 50
103.4999999999992
 51
106.4999999999988
  0
LINE
  5
33461
330
333DC
100
AcDbEntity
  8
0
100
AcDbLine
 10
6.827479769303927
 20
0.7264377789414045
 30
0.0
 11
6.828647222484074
 21
0.7215758351069948
 31
0.0
  0
ARC
  5
33462
330
333DC
100
AcDbEntity
  8
0
100
AcDbCircle
 10
6.843237306169149
 20
0.6608026792358804
 30
0.0
 40
0.0625000000000001
100
AcDbArc
 50
91.49999999999948
 51
103.4999999999984
  0
LINE
  5
33463
330
333DC
100
AcDbEntity
  8
0
100
AcDbLine
 10
6.841549633434325
 20
0.7252480326854549
 30
0.0
 11
6.841601259504601
 21
0.7232812554058336
 31
0.0
  0
LINE
  5
33464
330
333DC
100
AcDbEntity
  8
0
100
AcDbLine
 10
6.844896528104044
 20
0.7241606585802263
 30
0.0
 11
6.844873648368352
 21
0.7232812554058336
 31
0.0
  0
LWPOLYLINE
  5
33465
330
333DC
100
AcDbEntity
  8
0
100
AcDbPolyline
 90
        3
 70
     0
 43
0.0
 10
6.848126090795862
 20
0.7231111240378727
 10
6.846508082820558
 20
0.7232170161479309
 10
6.844873648368352
 20
0.7232812554058336
  0
ARC
  5
33466
330
333DC
100
AcDbEntity
  8
0
100
AcDbCircle
 10
6.843237306169149
 20
0.6608026792358804
 30
0.0
 40
0.0625000000000013
100
AcDbArc
 50
46.49999999999914
 51
58.50000000000115
  0
LINE
  5
33467
330
333DC
100
AcDbEntity
  8
0
100
AcDbLine
 10
6.889582998548792
 20
0.7096408263145682
 30
0.0
 11
6.886259570274652
 21
0.7061384667741244
 31
0.0
  0
ARC
  5
33468
330
333DC
100
AcDbEntity
  8
0
100
AcDbCircle
 10
6.843237306169149
 20
0.6608026792358804
 30
0.0
 40
0.0675000000000006
100
AcDbArc
 50
43.50000000000136
 51
46.50000000000019
  0
LINE
  5
33469
330
333DC
100
AcDbEntity
  8
0
100
AcDbLine
 10
6.892200088315949
 20
0.7072666137416741
 30
0.0
 11
6.888573356878924
 21
0.7038249734997965
 31
0.0
  0
ARC
  5
3346A
330
333DC
100
AcDbEntity
  8
0
100
AcDbCircle
 10
6.843237306169149
 20
0.6608026792358804
 30
0.0
 40
0.062500000000002
100
AcDbArc
 50
31.5000000000016
 51
43.49999999999917
  0
LINE
  5
3346B
330
333DC
100
AcDbEntity
  8
0
100
AcDbLine
 10
6.900790549078212
 20
0.6960713830699339
 30
0.0
 11
6.896527291661057
 21
0.6934586932519498
 31
0.0
  0
ARC
  5
3346C
330
333DC
100
AcDbEntity
  8
0
100
AcDbCircle
 10
6.843237306169149
 20
0.6608026792358804
 30
0.0
 40
0.067500000000003
100
AcDbArc
 50
28.49999999999869
 51
31.49999999999974
  0
LINE
  5
3346D
330
333DC
100
AcDbEntity
  8
0
100
AcDbLine
 10
6.902557568665449
 20
0.6930107784263006
 30
0.0
 11
6.898163486092932
 21
0.6906251259855605
 31
0.0
  0
ARC
  5
3346E
330
333DC
100
AcDbEntity
  8
0
100
AcDbCircle
 10
6.843237306169149
 20
0.6608026792358804
 30
0.0
 40
0.0625000000000012
100
AcDbArc
 50
16.50000000000033
 51
28.50000000000062
  0
LINE
  5
3346F
330
333DC
100
AcDbEntity
  8
0
100
AcDbLine
 10
6.907957772948496
 20
0.6799737290314072
 30
0.0
 11
6.903163588331327
 21
0.6785537187688206
 31
0.0
  0
ARC
  5
33470
330
333DC
100
AcDbEntity
  8
0
100
AcDbCircle
 10
6.843237306169149
 20
0.6608026792358804
 30
0.0
 40
0.0675000000000027
100
AcDbArc
 50
13.5000000000003
 51
16.50000000000085
  0
LINE
  5
33471
330
333DC
100
AcDbEntity
  8
0
100
AcDbLine
 10
6.908872375716259
 20
0.6765602484642264
 30
0.0
 11
6.904010138551907
 21
0.6753930886140234
 31
0.0
  0
ARC
  5
33472
330
333DC
100
AcDbEntity
  8
0
100
AcDbCircle
 10
6.843237306169149
 20
0.6608026792358804
 30
0.0
 40
0.0625000000000028
100
AcDbArc
 50
1.500000000001012
 51
13.50000000000153
  0
LINE
  5
33473
330
333DC
100
AcDbEntity
  8
0
100
AcDbLine
 10
6.91071390110947
 20
0.6625695834189163
 30
0.0
 11
6.905716145510634
 21
0.6624387582635523
 31
0.0
  0
ARC
  5
33474
330
333DC
100
AcDbEntity
  8
0
100
AcDbCircle
 10
6.843237306169149
 20
0.6608026792358804
 30
0.0
 40
0.0675000000000004
100
AcDbArc
 50
358.5000000000015
 51
1.500000000000783
  0
LINE
  5
33475
330
333DC
100
AcDbEntity
  8
0
100
AcDbLine
 10
6.91071390110947
 20
0.6590358375743826
 30
0.0
 11
6.905716145510634
 21
0.6591666627297466
 31
0.0
  0
ARC
  5
33476
330
333DC
100
AcDbEntity
  8
0
100
AcDbCircle
 10
6.843237306169149
 20
0.6608026792358804
 30
0.0
 40
0.0625000000000036
100
AcDbArc
 50
346.5000000000024
 51
358.5000000000014
  0
LINE
  5
33477
330
333DC
100
AcDbEntity
  8
0
100
AcDbLine
 10
6.908872375716259
 20
0.6450451725290725
 30
0.0
 11
6.904010138551907
 21
0.6462123323792755
 31
0.0
  0
ARC
  5
33478
330
333DC
100
AcDbEntity
  8
0
100
AcDbCircle
 10
6.843237306169149
 20
0.6608026792358804
 30
0.0
 40
0.0675000000000023
100
AcDbArc
 50
343.5000000000007
 51
346.500000000002
  0
LINE
  5
33479
330
333DC
100
AcDbEntity
  8
0
100
AcDbLine
 10
6.907957772948496
 20
0.6416316919618918
 30
0.0
 11
6.903163588331327
 21
0.6430517022244784
 31
0.0
  0
ARC
  5
3347A
330
333DC
100
AcDbEntity
  8
0
100
AcDbCircle
 10
6.843237306169149
 20
0.6608026792358804
 30
0.0
 40
0.0625000000000004
100
AcDbArc
 50
331.5000000000016
 51
343.5000000000012
  0
LINE
  5
3347B
330
333DC
100
AcDbEntity
  8
0
100
AcDbLine
 10
6.902557568665449
 20
0.6285943492370542
 30
0.0
 11
6.898163486092932
 21
0.6309802950077385
 31
0.0
  0
ARC
  5
3347C
330
333DC
100
AcDbEntity
  8
0
100
AcDbCircle
 10
6.843237306169149
 20
0.6608026792358804
 30
0.0
 40
0.0675000000000026
100
AcDbArc
 50
328.5000000000023
 51
331.5000000000027
  0
LINE
  5
3347D
330
333DC
100
AcDbEntity
  8
0
100
AcDbLine
 10
6.900790549078212
 20
0.6255340379233651
 30
0.0
 11
6.896527291661057
 21
0.628146434411404
 31
0.0
  0
ARC
  5
3347E
330
333DC
100
AcDbEntity
  8
0
100
AcDbCircle
 10
6.843237306169149
 20
0.6608026792358804
 30
0.0
 40
0.0625000000000014
100
AcDbArc
 50
316.5000000000024
 51
328.5000000000005
  0
LINE
  5
3347F
330
333DC
100
AcDbEntity
  8
0
100
AcDbLine
 10
6.892200088315949
 20
0.6143388072516247
 30
0.0
 11
6.888573356878924
 21
0.6177804474935025
 31
0.0
  0
ARC
  5
33480
330
333DC
100
AcDbEntity
  8
0
100
AcDbCircle
 10
6.843237306169149
 20
0.6608026792358804
 30
0.0
 40
0.0675
100
AcDbArc
 50
313.5000000000011
 51
316.5000000000004
  0
LINE
  5
33481
330
333DC
100
AcDbEntity
  8
0
100
AcDbLine
 10
6.889701503846473
 20
0.6118399294522076
 30
0.0
 11
6.886259570274652
 21
0.6154666608892301
 31
0.0
  0
ARC
  5
33482
330
333DC
100
AcDbEntity
  8
0
100
AcDbCircle
 10
6.843237306169149
 20
0.6608026792358804
 30
0.0
 40
0.0625000000000009
100
AcDbArc
 50
301.5000000000028
 51
313.5000000000021
  0
LINE
  5
33483
330
333DC
100
AcDbEntity
  8
0
100
AcDbLine
 10
6.878505686514844
 20
0.6032494686899437
 30
0.0
 11
6.875893290026803
 21
0.6075127261070961
 31
0.0
  0
ARC
  5
33484
330
333DC
100
AcDbEntity
  8
0
100
AcDbCircle
 10
6.843237306169149
 20
0.6608026792358804
 30
0.0
 40
0.0675000000000003
100
AcDbArc
 50
298.5000000000017
 51
301.5000000000005
  0
LINE
  5
33485
330
333DC
100
AcDbEntity
  8
0
100
AcDbLine
 10
6.875445668531103
 20
0.6014824491027042
 30
0.0
 11
6.873059722760416
 21
0.6058765316752206
 31
0.0
  0
ARC
  5
33486
330
333DC
100
AcDbEntity
  8
0
100
AcDbCircle
 10
6.843237306169149
 20
0.6608026792358804
 30
0.0
 40
0.0624999999999992
100
AcDbArc
 50
286.4999999999999
 51
298.5000000000013
  0
LINE
  5
33487
330
333DC
100
AcDbEntity
  8
0
100
AcDbLine
 10
6.862408325806264
 20
0.5960822448196588
 30
0.0
 11
6.860988022213732
 21
0.6008764294368289
 31
0.0
  0
ARC
  5
33488
330
333DC
100
AcDbEntity
  8
0
100
AcDbCircle
 10
6.843237306169149
 20
0.6608026792358804
 30
0.0
 40
0.0675000000000003
100
AcDbArc
 50
283.5
 51
286.5000000000026
  0
LINE
  5
33489
330
333DC
100
AcDbEntity
  8
0
100
AcDbLine
 10
6.858995138569027
 20
0.5951676420518944
 30
0.0
 11
6.85782768538888
 21
0.6000295858863041
 31
0.0
  0
ARC
  5
3348A
330
333DC
100
AcDbEntity
  8
0
100
AcDbCircle
 10
6.843237306169149
 20
0.6608026792358804
 30
0.0
 40
0.0625000000000001
100
AcDbArc
 50
271.5000000000003
 51
283.5000000000026
  0
LINE
  5
3348B
330
333DC
100
AcDbEntity
  8
0
100
AcDbLine
 10
5.801992415821344
 20
5.990905536693967
 30
0.0
 11
5.719384250117922
 21
5.990905536693967
 31
0.0
  0
LINE
  5
3348C
330
333DC
100
AcDbEntity
  8
0
100
AcDbLine
 10
6.063384009536682
 20
5.990905536693967
 30
0.0
 11
5.801992415821344
 21
5.990905536693967
 31
0.0
  0
LINE
  5
3348D
330
333DC
100
AcDbEntity
  8
0
100
AcDbLine
 10
1.797733900024081
 20
3.52022614985974
 30
0.0
 11
1.797733900024081
 21
3.791405540505611
 31
0.0
  0
LINE
  5
3348E
330
333DC
100
AcDbEntity
  8
0
100
AcDbLine
 10
1.797733900024081
 20
3.470405525391845
 30
0.0
 11
1.797733900024081
 21
3.52022614985974
 31
0.0
  0
ARC
  5
3348F
330
333DC
100
AcDbEntity
  8
0
100
AcDbCircle
 10
1.948165786892364
 20
3.644080511064188
 30
0.0
 40
0.2100190114411465
100
AcDbArc
 50
183.858311187854
 51
189.2035362403872
  0
ARC
  5
33490
330
333DC
100
AcDbEntity
  8
0
100
AcDbCircle
 10
1.879531745915482
 20
3.648295971694206
 30
0.0
 40
0.1437421790164089
100
AcDbArc
 50
195.2490353267271
 51
202.7962125314057
  0
ARC
  5
33491
330
333DC
100
AcDbEntity
  8
0
100
AcDbCircle
 10
1.770418414396051
 20
3.597522852687631
 30
0.0
 40
0.0323051902963369
100
AcDbArc
 50
190.1899284705341
 51
203.7560511269423
  0
ARC
  5
33492
330
333DC
100
AcDbEntity
  8
0
100
AcDbCircle
 10
1.856113411573353
 20
3.618818814003915
 30
0.0
 40
0.1202610193763326
100
AcDbArc
 50
196.576495410569
 51
210.7063194308956
  0
LINE
  5
33493
330
333DC
100
AcDbEntity
  8
0
100
AcDbLine
 10
1.75271347343722
 20
3.557408997403646
 30
0.0
 11
1.75271347343722
 21
3.584180983131382
 31
0.0
  0
ARC
  5
33494
330
333DC
100
AcDbEntity
  8
0
100
AcDbCircle
 10
1.873273897181205
 20
3.650944317025381
 30
0.0
 40
0.1378120405696499
100
AcDbArc
 50
196.0752681227289
 51
208.9765824105865
  0
ARC
  5
33495
330
333DC
100
AcDbEntity
  8
0
100
AcDbCircle
 10
1.940304238536064
 20
3.645742688646274
 30
0.0
 40
0.2021585181955538
100
AcDbArc
 50
183.9369935945676
 51
189.3829872635464
  0
ARC
  5
33496
330
333DC
100
AcDbEntity
  8
0
100
AcDbCircle
 10
1.948165786892295
 20
3.617730554833276
 30
0.0
 40
0.2100190114410787
100
AcDbArc
 50
170.7964637596125
 51
176.1416888121472
  0
ARC
  5
33497
330
333DC
100
AcDbEntity
  8
0
100
AcDbCircle
 10
1.883488323863389
 20
3.612182644465763
 30
0.0
 40
0.1479101097567069
100
AcDbArc
 50
152.147206040144
 51
164.6560990332346
  0
LINE
  5
33498
330
333DC
100
AcDbEntity
  8
0
100
AcDbLine
 10
1.75271347343722
 20
3.681286472610481
 30
0.0
 11
1.75271347343722
 21
3.706779086034303
 31
0.0
  0
ARC
  5
33499
330
333DC
100
AcDbEntity
  8
0
100
AcDbCircle
 10
1.866417843191019
 20
3.642773038290223
 30
0.0
 40
0.1304816379760985
100
AcDbArc
 50
150.6241287055901
 51
164.2251555177451
  0
ARC
  5
3349A
330
333DC
100
AcDbEntity
  8
0
100
AcDbCircle
 10
1.77828947517418
 20
3.663704283331187
 30
0.0
 40
0.0401637286872226
100
AcDbArc
 50
158.7739706505139
 51
170.9767371689001
  0
LINE
  5
3349B
330
333DC
100
AcDbEntity
  8
0
100
AcDbLine
 10
1.752075334142395
 20
3.585354825404388
 30
0.0
 11
1.740850477146235
 21
3.584508921426345
 31
0.0
  0
LINE
  5
3349C
330
333DC
100
AcDbEntity
  8
0
100
AcDbLine
 10
1.750799788877603
 20
3.677519836539649
 30
0.0
 11
1.740850477146235
 21
3.678245484406903
 31
0.0
  0
LINE
  5
3349D
330
333DC
100
AcDbEntity
  8
0
100
AcDbLine
 10
1.748369990280178
 20
3.592730451033866
 30
0.0
 11
1.738622782880749
 21
3.591807685443732
 31
0.0
  0
LINE
  5
3349E
330
333DC
100
AcDbEntity
  8
0
100
AcDbLine
 10
1.747017445904887
 20
3.669208669425962
 30
0.0
 11
1.738622782880749
 21
3.670003380453724
 31
0.0
  0
LINE
  5
3349F
330
333DC
100
AcDbEntity
  8
0
100
AcDbLine
 10
1.738763434589261
 20
3.629948794150797
 30
0.0
 11
1.738622782880749
 21
3.629948468164979
 31
0.0
  0
LINE
  5
334A0
330
333DC
100
AcDbEntity
  8
0
100
AcDbLine
 10
1.741537015881949
 20
3.61045685854856
 30
0.0
 11
1.740850477146235
 21
3.610489626711686
 31
0.0
  0
LINE
  5
334A1
330
333DC
100
AcDbEntity
  8
0
100
AcDbLine
 10
5.706383866966127
 20
6.010905505652619
 30
0.0
 11
6.07888415047773
 21
6.010905505652619
 31
0.0
  0
ARC
  5
334A2
330
333DC
100
AcDbEntity
  8
0
100
AcDbCircle
 10
5.703994142346857
 20
6.19881068718929
 30
0.0
 40
0.1248896255969365
100
AcDbArc
 50
270.2062825532958
 51
0.0435679894093245
  0
LINE
  5
334A3
330
333DC
100
AcDbEntity
  8
0
100
AcDbLine
 10
5.828883731837231
 20
6.448905485839471
 30
0.0
 11
5.828883731837231
 21
6.198905653858862
 31
0.0
  0
LINE
  5
334A4
330
333DC
100
AcDbEntity
  8
0
100
AcDbLine
 10
5.828883731837231
 20
6.448905485839471
 30
0.0
 11
5.953883941157481
 21
6.448905485839471
 31
0.0
  0
LINE
  5
334A5
330
333DC
100
AcDbEntity
  8
0
100
AcDbLine
 10
5.953883941157481
 20
6.198905653858862
 30
0.0
 11
5.953883941157481
 21
6.448905485839471
 31
0.0
  0
LWPOLYLINE
  5
334A6
330
333DC
100
AcDbEntity
  8
0
100
AcDbPolyline
 90
       10
 70
     0
 43
0.0
 10
6.07884895088436
 20
6.073906764523366
 10
6.078883563817843
 20
6.073905591203589
 10
6.068299632750981
 20
6.074354532684044
 10
6.055660632091129
 20
6.076081806063768
 10
6.038038542329681
 20
6.080767165271431
 10
6.010043132401713
 20
6.094569659157177
 10
5.981953270231532
 20
6.119978778962192
 10
5.963170767208608
 20
6.151625266712597
 10
5.954344469170756
 20
6.188182977728133
 10
5.953883941157481
 20
6.198905653858862
  0
ARC
  5
334A7
330
333DC
100
AcDbEntity
  8
0
100
AcDbCircle
 10
5.891311303593838
 20
8.345166464671789
 30
0.0
 40
2.355828337663298
100
AcDbArc
 50
267.9365063873893
 51
270.0017711968872
  0
LWPOLYLINE
  5
334A8
330
333DC
100
AcDbEntity
  8
0
100
AcDbPolyline
 90
        7
 70
     0
 43
0.0
 10
5.977245911278012
 20
5.990900696749879
 10
5.977379669732822
 20
5.990905390028995
 10
5.972260475536856
 20
5.990724405453077
 10
5.958035146535737
 20
5.99027971725682
 10
5.936291771050398
 20
5.989765509863655
 10
5.909476720820148
 20
5.989407500666072
 10
5.891384129827303
 20
5.989338128134137
  0
LINE
  5
334A9
330
333DC
100
AcDbEntity
  8
0
100
AcDbLine
 10
1.821383920150363
 20
5.317276691845196
 30
0.0
 11
1.821383920150363
 21
1.944534374052261
 31
0.0
  0
LINE
  5
334AA
330
333DC
100
AcDbEntity
  8
0
100
AcDbLine
 10
7.213753653701722
 20
0.5410051477416502
 30
0.0
 11
6.997253274732575
 21
0.5410051477416502
 31
0.0
  0
LINE
  5
334AB
330
333DC
100
AcDbEntity
  8
0
100
AcDbLine
 10
7.023503371489216
 20
0.5420051095233398
 30
0.0
 11
6.997253274732575
 21
0.5420051095233398
 31
0.0
  0
LINE
  5
334AC
330
333DC
100
AcDbEntity
  8
0
100
AcDbLine
 10
6.997253274732575
 20
0.6760049748787944
 30
0.0
 11
7.023503371489216
 21
0.6760049748787944
 31
0.0
  0
LINE
  5
334AD
330
333DC
100
AcDbEntity
  8
0
100
AcDbLine
 10
6.997253274732575
 20
0.6750050130971044
 30
0.0
 11
7.023503371489216
 21
0.6750050130971044
 31
0.0
  0
LINE
  5
334AE
330
333DC
100
AcDbEntity
  8
0
100
AcDbLine
 10
7.227253284419499
 20
0.5410051477416502
 30
0.0
 11
7.443753076728761
 21
0.5410051477416502
 31
0.0
  0
LINE
  5
334AF
330
333DC
100
AcDbEntity
  8
0
100
AcDbLine
 10
7.000840113297106
 20
0.6797117853907359
 30
0.0
 11
6.997233914956217
 21
0.6797117853907359
 31
0.0
  0
LINE
  5
334B0
330
333DC
100
AcDbEntity
  8
0
100
AcDbLine
 10
6.945503419217986
 20
0.6420051009815717
 30
0.0
 11
7.023503371489216
 21
0.6420051009815717
 31
0.0
  0
LINE
  5
334B1
330
333DC
100
AcDbEntity
  8
0
100
AcDbLine
 10
6.945503419217986
 20
0.5920049585874834
 30
0.0
 11
7.023503371489216
 21
0.5920049585874834
 31
0.0
  0
ARC
  5
334B2
330
333DC
100
AcDbEntity
  8
0
100
AcDbCircle
 10
6.843237306169149
 20
0.6608026792358812
 30
0.0
 40
0.1125000000000024
100
AcDbArc
 50
181.0000000000005
 51
316.0000000000018
  0
ARC
  5
334B3
330
333DC
100
AcDbEntity
  8
0
100
AcDbCircle
 10
6.843237306169149
 20
0.6608026792358812
 30
0.0
 40
0.0625000000000008
100
AcDbArc
 50
181.0000000000001
 51
315.9999999999989
  0
ARC
  5
334B4
330
333DC
100
AcDbEntity
  8
0
100
AcDbCircle
 10
6.945503362193296
 20
0.5630050299636454
 30
0.0
 40
0.0790000000000006
100
AcDbArc
 50
90.0
 51
135.9999999999994
  0
ARC
  5
334B5
330
333DC
100
AcDbEntity
  8
0
100
AcDbCircle
 10
6.945503362193296
 20
0.5630050299636454
 30
0.0
 40
0.0290000000000015
100
AcDbArc
 50
90.0
 51
135.9999999999997
  0
LINE
  5
334B6
330
333DC
100
AcDbEntity
  8
0
100
AcDbLine
 10
6.924163079076752
 20
0.5826535999485101
 30
0.0
 11
6.924642380206487
 21
0.58315020754499
 31
0.0
  0
LINE
  5
334B7
330
333DC
100
AcDbEntity
  8
0
100
AcDbLine
 10
6.888196134569962
 20
0.6173865053776888
 30
0.0
 11
6.888675435699702
 21
0.6178831129741697
 31
0.0
  0
LINE
  5
334B8
330
333DC
100
AcDbEntity
  8
0
100
AcDbLine
 10
6.956517371983862
 20
0.6611419465777653
 30
0.0
 11
6.956517371983862
 21
0.6596714835646793
 31
0.0
  0
LINE
  5
334B9
330
333DC
100
AcDbEntity
  8
0
100
AcDbLine
 10
6.906517522919719
 20
0.6611419465777653
 30
0.0
 11
6.906517522919719
 21
0.6596714835646793
 31
0.0
  0
ARC
  5
334BA
330
333DC
100
AcDbEntity
  8
0
100
AcDbCircle
 10
6.8440175609412
 20
0.6611419436663894
 30
0.0
 40
0.1124999999999972
100
AcDbArc
 50
0.0
 51
14.35494793923248
  0
ARC
  5
334BB
330
333DC
100
AcDbEntity
  8
0
100
AcDbCircle
 10
6.8440175609412
 20
0.6611419436663894
 30
0.0
 40
0.0624999999999984
100
AcDbArc
 50
0.0
 51
46.000000000001
  0
ARC
  5
334BC
330
333DC
100
AcDbEntity
  8
0
100
AcDbCircle
 10
6.843217905160492
 20
0.6619141622775251
 30
0.0
 40
0.1125000000000029
100
AcDbArc
 50
129.9383787459371
 51
181.0000000000005
  0
LINE
  5
334BD
330
333DC
100
AcDbEntity
  8
0
100
AcDbLine
 10
6.886633859284168
 20
0.7068729649558057
 30
0.0
 11
6.879207331742713
 21
0.7130123606996488
 31
0.0
  0
ARC
  5
334BE
330
333DC
100
AcDbEntity
  8
0
100
AcDbCircle
 10
6.843217905160492
 20
0.6619141622775251
 30
0.0
 40
0.0625000000000005
100
AcDbArc
 50
89.15780972697914
 51
181.0000000000002
  0
LINE
  5
334BF
330
333DC
100
AcDbEntity
  8
0
100
AcDbLine
 10
6.886633859284168
 20
0.7068729649558057
 30
0.0
 11
6.887433476713584
 21
0.7061006272112503
 31
0.0
  0
LINE
  5
334C0
330
333DC
100
AcDbEntity
  8
0
100
AcDbLine
 10
6.730754220019061
 20
0.6588393065113936
 30
0.0
 11
6.730734860242709
 21
0.6599507336720915
 31
0.0
  0
LINE
  5
334C1
330
333DC
100
AcDbEntity
  8
0
100
AcDbLine
 10
6.78074702916453
 20
0.6597119630970562
 30
0.0
 11
6.780727669388177
 21
0.6608233902577548
 31
0.0
  0
LINE
  5
334C2
330
333DC
100
AcDbEntity
  8
0
100
AcDbLine
 10
6.970483983973704
 20
0.7307118895665142
 30
0.0
 11
6.948128722223597
 21
0.7307118895665142
 31
0.0
  0
LINE
  5
334C3
330
333DC
100
AcDbEntity
  8
0
100
AcDbLine
 10
7.001852101606535
 20
0.6807117471724258
 30
0.0
 11
6.954802565126793
 21
0.6807117471724258
 31
0.0
  0
LINE
  5
334C4
330
333DC
100
AcDbEntity
  8
0
100
AcDbLine
 10
6.906498163143368
 20
0.6626992352545003
 30
0.0
 11
6.906498163143368
 21
0.662459291359686
 31
0.0
  0
ARC
  5
334C5
330
333DC
100
AcDbEntity
  8
0
100
AcDbCircle
 10
6.843998159932539
 20
0.661574897847027
 30
0.0
 40
0.0624999999999988
100
AcDbArc
 50
316.6191480890727
 51
327.5319123135488
  0
ARC
  5
334C6
330
333DC
100
AcDbEntity
  8
0
100
AcDbCircle
 10
6.843998159932539
 20
0.661574897847027
 30
0.0
 40
0.0624999999999992
100
AcDbArc
 50
330.5450075121261
 51
342.6230996172844
  0
ARC
  5
334C7
330
333DC
100
AcDbEntity
  8
0
100
AcDbCircle
 10
6.843998159932539
 20
0.661574897847027
 30
0.0
 40
0.0625
100
AcDbArc
 50
345.6487826482282
 51
357.7740468814049
  0
LWPOLYLINE
  5
334C8
330
333DC
100
AcDbEntity
  8
0
100
AcDbPolyline
 90
        3
 70
     0
 43
0.0
 10
6.954783205350437
 20
0.6420051009815717
 10
6.955931885414122
 20
0.6503036984487994
 10
6.956498012207511
 20
0.6615749015762323
  0
LINE
  5
334C9
330
333DC
100
AcDbEntity
  8
0
100
AcDbLine
 10
6.888656075923345
 20
0.704833735179828
 30
0.0
 11
6.889969020756097
 21
0.7035061238498406
 31
0.0
  0
LINE
  5
334CA
330
333DC
100
AcDbEntity
  8
0
100
AcDbLine
 10
6.730715500466352
 20
0.6627661144819053
 30
0.0
 11
6.730734860242709
 21
0.6638775416426041
 31
0.0
  0
LINE
  5
334CB
330
333DC
100
AcDbEntity
  8
0
100
AcDbLine
 10
7.023503371489216
 20
0.7092729905638377
 30
0.0
 11
6.973741706340216
 21
0.7013915082780608
 31
0.0
  0
LINE
  5
334CC
330
333DC
100
AcDbEntity
  8
0
100
AcDbLine
 10
7.023503371489216
 20
0.6940858326738484
 30
0.0
 11
6.976088345898303
 21
0.6865759994280829
 31
0.0
  0
ARC
  5
334CD
330
333DC
100
AcDbEntity
  8
0
100
AcDbCircle
 10
6.969205389404897
 20
0.7300344220445272
 30
0.0
 40
0.0440000000000004
100
AcDbArc
 50
252.0000000000004
 51
279.0000000000031
  0
ARC
  5
334CE
330
333DC
100
AcDbEntity
  8
0
100
AcDbCircle
 10
6.969205389404897
 20
0.7300344220445272
 30
0.0
 40
0.0290000000000006
100
AcDbArc
 50
251.9999999999988
 51
278.9999999999986
  0
LINE
  5
334CF
330
333DC
100
AcDbEntity
  8
0
100
AcDbLine
 10
6.955608635814995
 20
0.6881878474745431
 30
0.0
 11
6.800550320395219
 21
0.738569318796821
 31
0.0
  0
LINE
  5
334D0
330
333DC
100
AcDbEntity
  8
0
100
AcDbLine
 10
6.960243835602105
 20
0.7024536560080393
 30
0.0
 11
6.805186106842222
 21
0.7528351273303171
 31
0.0
  0
LINE
  5
334D1
330
333DC
100
AcDbEntity
  8
0
100
AcDbLine
 10
6.752998016390161
 20
0.7540201803071504
 30
0.0
 11
6.757633216177271
 21
0.7682859888406464
 31
0.0
  0
LWPOLYLINE
  5
334D2
330
333DC
100
AcDbEntity
  8
0
100
AcDbPolyline
 90
        9
 70
     0
 43
0.0
 10
6.800550320395219
 20
0.738569318796821
 10
6.791273467562215
 20
0.741583577309183
 10
6.782352717282151
 20
0.7444822638233087
 10
6.774131852250285
 20
0.7471533263003006
 10
6.766925908827293
 20
0.7494946859193812
 10
6.761011790481023
 20
0.7514162903875086
 10
6.756617707908509
 20
0.7528442205586039
 10
6.753911445838144
 20
0.7537233304030524
 10
6.752998016390161
 20
0.7540201803071504
  0
LWPOLYLINE
  5
334D3
330
333DC
100
AcDbEntity
  8
0
100
AcDbPolyline
 90
        9
 70
     0
 43
0.0
 10
6.757633216177271
 20
0.7682859888406464
 10
6.758546645625255
 20
0.7679891389365486
 10
6.761252907695619
 20
0.7671100290921001
 10
6.765646990268133
 20
0.7656820989210047
 10
6.771561108614402
 20
0.7637604944528765
 10
6.778767052037394
 20
0.7614191348337968
 10
6.786987917069262
 20
0.7587480723568048
 10
6.795908667349326
 20
0.7558493858426783
 10
6.805186106842222
 20
0.7528351273303171
  0
LWPOLYLINE
  5
334D4
330
333DC
100
AcDbEntity
  8
0
100
AcDbPolyline
 90
        9
 70
     0
 43
0.0
 10
6.76072315381538
 20
0.7777966256396251
 10
6.76012006744895
 20
0.7759413137390129
 10
6.759540447478106
 20
0.774156987685033
 10
6.759006586978642
 20
0.7725128733446489
 10
6.758537845726912
 20
0.771071743326039
 10
6.758153583499275
 20
0.7698887436588189
 10
6.757868466792969
 20
0.7690099271443156
 10
6.757692468826112
 20
0.7684687333962322
 10
6.757633216177271
 20
0.7682859888406464
  0
LINE
  5
334D5
330
333DC
100
AcDbEntity
  8
0
100
AcDbLine
 10
6.953823429771182
 20
0.7150545237750725
 30
0.0
 11
6.76072315381538
 21
0.7777966256396251
 31
0.0
  0
LWPOLYLINE
  5
334D6
330
333DC
100
AcDbEntity
  8
0
100
AcDbPolyline
 90
        9
 70
     0
 43
0.0
 10
6.950733492133071
 20
0.7055438869760941
 10
6.950792744781913
 20
0.7057266315316797
 10
6.950968742748769
 20
0.7062678252797641
 10
6.951253859455079
 20
0.7071466417942675
 10
6.951638708342602
 20
0.7083296414614875
 10
6.952106862934442
 20
0.7097707714800974
 10
6.952640723433906
 20
0.7114148858204814
 10
6.953220930064642
 20
0.7131992118744606
 10
6.953823429771182
 20
0.7150545237750725
  0
ARC
  5
334D7
330
333DC
100
AcDbEntity
  8
0
100
AcDbCircle
 10
6.836041715026753
 20
0.6810813789007267
 30
0.0
 40
0.1225835363399865
100
AcDbArc
 50
16.08974930588039
 51
127.910250694121
  0
LINE
  5
334D8
330
333DC
100
AcDbEntity
  8
0
100
AcDbLine
 10
6.970483983973704
 20
0.7307118895665142
 30
0.0
 11
6.970483983973704
 21
0.7457119029517463
 31
0.0
  0
LINE
  5
334D9
330
333DC
100
AcDbEntity
  8
0
100
AcDbLine
 10
6.970483983973704
 20
0.7457119029517463
 30
0.0
 11
6.993452891968252
 21
0.7457119029517463
 31
0.0
  0
LINE
  5
334DA
330
333DC
100
AcDbEntity
  8
0
100
AcDbLine
 10
7.023503371489216
 20
0.7307118895665142
 30
0.0
 11
6.970483983973704
 21
0.7307118895665142
 31
0.0
  0
LINE
  5
334DB
330
333DC
100
AcDbEntity
  8
0
100
AcDbLine
 10
7.460983864343897
 20
7.260555602921392
 30
0.0
 11
7.085983823043039
 21
7.260555602921392
 31
0.0
  0
LINE
  5
334DC
330
333DC
100
AcDbEntity
  8
0
100
AcDbLine
 10
7.085983823043039
 20
6.760555645630232
 30
0.0
 11
7.460983864343897
 21
6.760555645630232
 31
0.0
  0
LINE
  5
334DD
330
333DC
100
AcDbEntity
  8
0
100
AcDbLine
 10
7.429734252008753
 20
6.729305446635197
 30
0.0
 11
7.117234022038076
 21
6.729305446635197
 31
0.0
  0
LINE
  5
334DE
330
333DC
100
AcDbEntity
  8
0
100
AcDbLine
 10
7.117234022038076
 20
7.291805508586481
 30
0.0
 11
7.429734252008753
 21
7.291805508586481
 31
0.0
  0
LINE
  5
334DF
330
333DC
100
AcDbEntity
  8
0
100
AcDbLine
 10
7.023503371489216
 20
0.7457119029517463
 30
0.0
 11
7.002286229924777
 21
0.7457119029517463
 31
0.0
  0
LINE
  5
334E0
330
333DC
100
AcDbEntity
  8
0
100
AcDbLine
 10
6.987583946433477
 20
0.7879056555259158
 30
0.0
 11
6.987583946433477
 21
6.473905410371544
 31
0.0
  0
LINE
  5
334E1
330
333DC
100
AcDbEntity
  8
0
100
AcDbLine
 10
6.585483738196063
 20
1.037905487506523
 30
0.0
 11
6.585483738196063
 21
6.223905578390938
 31
0.0
  0
LINE
  5
334E2
330
333DC
100
AcDbEntity
  8
0
100
AcDbLine
 10
1.817836534463399
 20
3.52022614985974
 30
0.0
 11
1.817836534463399
 21
3.791405540505611
 31
0.0
  0
LINE
  5
334E3
330
333DC
100
AcDbEntity
  8
0
100
AcDbLine
 10
1.817836534463399
 20
3.470405525391845
 30
0.0
 11
1.817836534463399
 21
3.52022614985974
 31
0.0
  0
LINE
  5
334E4
330
333DC
100
AcDbEntity
  8
0
100
AcDbLine
 10
6.890549227386833
 20
0.7093269632736741
 30
0.0
 11
6.887433476713584
 21
0.7061006272112503
 31
0.0
  0
LINE
  5
334E5
330
333DC
100
AcDbEntity
  8
0
100
AcDbLine
 10
6.886633859284168
 20
0.7068729649558057
 30
0.0
 11
6.889372974308344
 21
0.7097091721916975
 31
0.0
  0
LINE
  5
334E6
330
333DC
100
AcDbEntity
  8
0
100
AcDbLine
 10
6.730715500466352
 20
0.6627661144819053
 30
0.0
 11
6.730721367065249
 21
0.6627661144819053
 31
0.0
  0
ENDBLK
  5
334EA
330
333DC
100
AcDbEntity
  8
0
100
AcDbBlockEnd
  0
BLOCK
  5
337A9
330
3356C
100
AcDbEntity
  8
0
100
AcDbBlockBegin
  2
LX2060
 70
     0
 10
0.0
 20
0.0
 30
0.0
  3
LX2060
  1

  0
ARC
  5
3356D
330
3356C
100
AcDbEntity
  8
0
100
AcDbCircle
 10
14.49294650220408
 20
4.391726412898853
 30
0.0
 40
0.0100000000000007
100
AcDbArc
 50
358.9999999999661
 51
90.0
  0
ARC
  5
3356E
330
3356C
100
AcDbEntity
  8
0
100
AcDbCircle
 10
10.28034595395922
 20
4.391726412898853
 30
0.0
 40
0.0100000000000007
100
AcDbArc
 50
90.0
 51
181.0000000000355
  0
LINE
  5
3356F
330
3356C
100
AcDbEntity
  8
0
100
AcDbLine
 10
10.27034747700765
 20
4.391551888834476
 30
0.0
 11
10.29185446307198
 21
3.159417482416056
 31
0.0
  0
LINE
  5
33570
330
3356C
100
AcDbEntity
  8
0
100
AcDbLine
 10
14.48143799309131
 20
3.159417482416056
 30
0.0
 11
14.50294497915565
 21
4.391551888834476
 31
0.0
  0
ARC
  5
33571
330
3356C
100
AcDbEntity
  8
0
100
AcDbCircle
 10
10.41319477980426
 20
3.161535485523029
 30
0.0
 40
0.1213588002653755
100
AcDbArc
 50
181.0000000000009
 51
263.0000000000023
  0
ARC
  5
33572
330
3356C
100
AcDbEntity
  8
0
100
AcDbCircle
 10
14.36009767635903
 20
3.161535485523029
 30
0.0
 40
0.1213588002653763
100
AcDbArc
 50
277.0000000000002
 51
359.0000000000007
  0
LINE
  5
33573
330
3356C
100
AcDbEntity
  8
0
100
AcDbLine
 10
10.39840486249949
 20
3.041081275351822
 30
0.0
 11
10.74429559662462
 21
2.998611233441888
 31
0.0
  0
LINE
  5
33574
330
3356C
100
AcDbEntity
  8
0
100
AcDbLine
 10
14.02899685953868
 20
2.998611233441888
 30
0.0
 11
14.37488759366381
 21
3.041081275351822
 31
0.0
  0
ARC
  5
33575
330
3356C
100
AcDbEntity
  8
0
100
AcDbCircle
 10
14.02595012595357
 20
3.023424887232923
 30
0.0
 40
0.0250000000000011
100
AcDbArc
 50
270.0000000000008
 51
276.9999999999745
  0
ARC
  5
33576
330
3356C
100
AcDbEntity
  8
0
100
AcDbCircle
 10
10.74734233020973
 20
3.023424887232923
 30
0.0
 40
0.0250000000000011
100
AcDbArc
 50
263.0000000000271
 51
270.0000000000008
  0
LINE
  5
33577
330
3356C
100
AcDbEntity
  8
0
100
AcDbLine
 10
10.74734233020973
 20
2.998424887232923
 30
0.0
 11
14.02595012595357
 21
2.998424887232923
 31
0.0
  0
ARC
  5
33578
330
3356C
100
AcDbEntity
  8
0
100
AcDbCircle
 10
14.49293187729517
 20
4.441175231796489
 30
0.0
 40
0.0098425196850389
100
AcDbArc
 50
270.0000000000008
 51
0.1579116414144229
  0
ARC
  5
33579
330
3356C
100
AcDbEntity
  8
0
100
AcDbCircle
 10
10.28036057886813
 20
4.441175231796489
 30
0.0
 40
0.0098425196850398
100
AcDbArc
 50
179.8420883585856
 51
270.0000000000008
  0
ARC
  5
3357A
330
3356C
100
AcDbEntity
  8
0
100
AcDbCircle
 10
10.92173595523785
 20
4.431332712111451
 30
0.0
 40
3.581052005127259
100
AcDbArc
 50
0.1579116414102747
 51
33.1935073817313
  0
ARC
  5
3357B
330
3356C
100
AcDbEntity
  8
0
100
AcDbCircle
 10
13.85155650092544
 20
4.431332712111451
 30
0.0
 40
3.581052005127258
100
AcDbArc
 50
146.807233816711
 51
179.8420883585897
  0
ARC
  5
3357C
330
3356C
100
AcDbEntity
  8
0
100
AcDbCircle
 10
14.35898874776669
 20
4.421490192426412
 30
0.0
 40
0.0098425196850407
100
AcDbArc
 50
90.0
 51
180.0
  0
ARC
  5
3357D
330
3356C
100
AcDbEntity
  8
0
100
AcDbCircle
 10
10.41430370839661
 20
4.421490192426412
 30
0.0
 40
0.0098425196850398
100
AcDbArc
 50
0.0
 51
90.0
  0
LINE
  5
3357E
330
3356C
100
AcDbEntity
  8
0
100
AcDbLine
 10
10.42414622808165
 20
4.421490192426412
 30
0.0
 11
10.42414622808165
 21
4.401726412898855
 31
0.0
  0
LINE
  5
3357F
330
3356C
100
AcDbEntity
  8
0
100
AcDbLine
 10
14.34914622808165
 20
4.401726412898855
 30
0.0
 11
14.34914622808165
 21
4.421490192426412
 31
0.0
  0
ARC
  5
33580
330
3356C
100
AcDbEntity
  8
0
100
AcDbCircle
 10
10.77247300248438
 20
6.445730191128828
 30
0.0
 40
0.0984251941012022
100
AcDbArc
 50
326.752210899534
 51
359.9998587478341
  0
ARC
  5
33581
330
3356C
100
AcDbEntity
  8
0
100
AcDbCircle
 10
14.00081945642811
 20
6.445730208280293
 30
0.0
 40
0.0984251968503948
100
AcDbArc
 50
180.0
 51
213.1935073817313
  0
LINE
  5
33582
330
3356C
100
AcDbEntity
  8
0
100
AcDbLine
 10
13.90239425957771
 20
6.445730208280293
 30
0.0
 11
13.90239425957771
 21
7.187238223922474
 31
0.0
  0
LINE
  5
33583
330
3356C
100
AcDbEntity
  8
0
100
AcDbLine
 10
12.33774468816218
 20
9.549442948331924
 30
0.0
 11
12.17964225619009
 21
9.549442948331924
 31
0.0
  0
LINE
  5
33584
330
3356C
100
AcDbEntity
  8
0
100
AcDbLine
 10
11.49784967503882
 20
9.549442948331924
 30
0.0
 11
11.33974724306673
 21
9.549442948331924
 31
0.0
  0
LINE
  5
33585
330
3356C
100
AcDbEntity
  8
0
100
AcDbLine
 10
11.9177971816005
 20
9.549442948331924
 30
0.0
 11
11.75969474962841
 21
9.549442948331924
 31
0.0
  0
LINE
  5
33586
330
3356C
100
AcDbEntity
  8
0
100
AcDbLine
 10
10.48703992886905
 20
6.517946885339799
 30
0.0
 11
10.86105567690055
 21
6.517946885339799
 31
0.0
  0
LINE
  5
33587
330
3356C
100
AcDbEntity
  8
0
100
AcDbLine
 10
10.58560868073255
 20
9.549442948331924
 30
0.0
 11
10.48703992886905
 21
9.549442948331924
 31
0.0
  0
LINE
  5
33588
330
3356C
100
AcDbEntity
  8
0
100
AcDbLine
 10
11.07790216847714
 20
9.549442948331924
 30
0.0
 11
10.76349941604762
 21
9.549442948331924
 31
0.0
  0
ARC
  5
33589
330
3356C
100
AcDbEntity
  8
0
100
AcDbCircle
 10
10.48703992886905
 20
6.527789405024838
 30
0.0
 40
0.0098425196850407
100
AcDbArc
 50
180.0
 51
270.0000000000008
  0
ARC
  5
3358A
330
3356C
100
AcDbEntity
  8
0
100
AcDbCircle
 10
10.48703992886905
 20
9.539600428646883
 30
0.0
 40
0.0098425196850407
100
AcDbArc
 50
90.0
 51
180.0
  0
ARC
  5
3358B
330
3356C
100
AcDbEntity
  8
0
100
AcDbCircle
 10
10.86105567690055
 20
6.508104365654758
 30
0.0
 40
0.0098425196850398
100
AcDbArc
 50
0.0
 51
90.0
  0
ARC
  5
3358C
330
3356C
100
AcDbEntity
  8
0
100
AcDbCircle
 10
12.96150326944051
 20
8.833738829779568
 30
0.0
 40
0.0251224341956479
100
AcDbArc
 50
239.2050873415361
 51
302.3543331814851
  0
ARC
  5
3358D
330
3356C
100
AcDbEntity
  8
0
100
AcDbCircle
 10
13.37917888345942
 20
8.509159047482281
 30
0.0
 40
0.0223076829372179
100
AcDbArc
 50
218.382276459738
 51
281.5544838989893
  0
LWPOLYLINE
  5
3358E
330
3356C
100
AcDbEntity
  8
0
100
AcDbPolyline
 90
        3
 70
     0
 43
0.0
 10
11.29154027301584
 20
8.961006538025662
 10
11.290985149307
 20
8.960717776965518
 10
11.28092636554771
 20
8.959197453113896
  0
ARC
  5
3358F
330
3356C
100
AcDbEntity
  8
0
100
AcDbCircle
 10
11.84763119843746
 20
7.117827602064219
 30
0.0
 40
2.045921054953503
100
AcDbArc
 50
42.32758770420239
 51
48.27726964179904
  0
LWPOLYLINE
  5
33590
330
3356C
100
AcDbEntity
  8
0
100
AcDbPolyline
 90
        3
 70
     0
 43
0.0
 10
12.53654292960037
 20
8.942695902345928
 10
12.46478273280284
 20
8.952184055285357
 10
12.39504425951732
 20
8.956887034546562
  0
LWPOLYLINE
  5
33591
330
3356C
100
AcDbEntity
  8
0
100
AcDbPolyline
 90
        3
 70
     0
 43
0.0
 10
12.94811106435614
 20
8.81165995449756
 10
12.87583466046622
 20
8.845605906814038
 10
12.80589816402218
 20
8.872829377002187
  0
LWPOLYLINE
  5
33592
330
3356C
100
AcDbEntity
  8
0
100
AcDbPolyline
 90
        3
 70
     0
 43
0.0
 10
12.12090842240107
 20
8.959023159901844
 10
12.05168601913537
 20
8.959023056767525
 10
11.97653092841308
 20
8.959023168340962
  0
LWPOLYLINE
  5
33593
330
3356C
100
AcDbEntity
  8
0
100
AcDbPolyline
 90
        3
 70
     0
 43
0.0
 10
11.70095993202859
 20
8.959023164181918
 10
11.62790873290918
 20
8.959023056767493
 10
11.55658398500739
 20
8.95902316170803
  0
LWPOLYLINE
  5
33594
330
3356C
100
AcDbEntity
  8
0
100
AcDbPolyline
 90
        3
 70
     0
 43
0.0
 10
11.28101413241215
 20
8.959023168392119
 10
11.20659785882549
 20
8.959023056767563
 10
11.13663643975563
 20
8.959023162197466
  0
ARC
  5
33595
330
3356C
100
AcDbEntity
  8
0
100
AcDbCircle
 10
12.47319998705374
 20
8.866536824341622
 30
0.0
 40
0.6769491325652434
100
AcDbArc
 50
63.98554027697121
 51
78.69931327713384
  0
LWPOLYLINE
  5
33596
330
3356C
100
AcDbEntity
  8
0
100
AcDbPolyline
 90
        3
 70
     0
 43
0.0
 10
10.58792962424927
 20
9.549259998195386
 10
10.58643578249316
 20
9.549343417031662
 10
10.58504484489173
 20
9.549425109741759
  0
LWPOLYLINE
  5
33597
330
3356C
100
AcDbEntity
  8
0
100
AcDbPolyline
 90
        3
 70
     0
 43
0.0
 10
11.29154027301584
 20
8.961006538025662
 10
11.290985149307
 20
8.960717776965518
 10
11.28092636554771
 20
8.959197453113896
  0
ARC
  5
33598
330
3356C
100
AcDbEntity
  8
0
100
AcDbCircle
 10
9.859514884878834
 20
7.20248757463908
 30
0.0
 40
0.6838154424691787
100
AcDbArc
 50
228.0899935407572
 51
270.2116441198165
  0
LINE
  5
33599
330
3356C
100
AcDbEntity
  8
0
100
AcDbLine
 10
9.862041299462411
 20
6.517946885339799
 30
0.0
 11
10.45189819658558
 21
6.517946885339799
 31
0.0
  0
ARC
  5
3359A
330
3356C
100
AcDbEntity
  8
0
100
AcDbCircle
 10
10.45189819658558
 20
6.527946885339797
 30
0.0
 40
0.0099999999999998
100
AcDbArc
 50
270.0000000000008
 51
0.0
  0
ARC
  5
3359B
330
3356C
100
AcDbEntity
  8
0
100
AcDbCircle
 10
10.47189819658558
 20
6.842592554631136
 30
0.0
 40
0.0100000000000007
100
AcDbArc
 50
90.0
 51
180.0
  0
ARC
  5
3359C
330
3356C
100
AcDbEntity
  8
0
100
AcDbCircle
 10
10.47189819658558
 20
9.224797279040584
 30
0.0
 40
0.0099999999999998
100
AcDbArc
 50
180.0
 51
270.0000000000008
  0
LINE
  5
3359D
330
3356C
100
AcDbEntity
  8
0
100
AcDbLine
 10
10.47189819658558
 20
6.852592554631137
 30
0.0
 11
10.47719740918401
 21
6.852592554631137
 31
0.0
  0
LINE
  5
3359E
330
3356C
100
AcDbEntity
  8
0
100
AcDbLine
 10
10.47719740918401
 20
9.214797279040585
 30
0.0
 11
10.47189819658558
 21
9.214797279040585
 31
0.0
  0
ARC
  5
3359F
330
3356C
100
AcDbEntity
  8
0
100
AcDbCircle
 10
9.058663590095125
 20
12.73152956250515
 30
0.0
 40
0.0098425196850397
100
AcDbArc
 50
270.0000000000008
 51
355.0000000000022
  0
LINE
  5
335A0
330
3356C
100
AcDbEntity
  8
0
100
AcDbLine
 10
10.15105449429303
 20
12.96401596400563
 30
0.0
 11
10.1488181666743
 21
12.98957730565373
 31
0.0
  0
LINE
  5
335A1
330
3356C
100
AcDbEntity
  8
0
100
AcDbLine
 10
10.17351071353899
 20
12.70734020350193
 30
0.0
 11
10.16342637406038
 21
12.82260473118131
 31
0.0
  0
LINE
  5
335A2
330
3356C
100
AcDbEntity
  8
0
100
AcDbLine
 10
9.079281761056334
 20
12.85426608649802
 30
0.0
 11
9.068468656021225
 21
12.73067173039149
 31
0.0
  0
ARC
  5
335A3
330
3356C
100
AcDbEntity
  8
0
100
AcDbCircle
 10
9.109167601999088
 20
12.85165141421559
 30
0.0
 40
0.0300000000000013
100
AcDbArc
 50
150.0000000000025
 51
175.000000000003
  0
LINE
  5
335A4
330
3356C
100
AcDbEntity
  8
0
100
AcDbLine
 10
9.083290749658496
 20
12.86683139122174
 30
0.0
 11
9.083186839885554
 21
12.86665141421559
 31
0.0
  0
LINE
  5
335A5
330
3356C
100
AcDbEntity
  8
0
100
AcDbLine
 10
9.083293717410665
 20
12.86683653151927
 30
0.0
 11
9.083290749658496
 21
12.86683139122174
 31
0.0
  0
LINE
  5
335A6
330
3356C
100
AcDbEntity
  8
0
100
AcDbLine
 10
9.083322141768331
 20
12.86688576395092
 30
0.0
 11
9.083293717410665
 21
12.86683653151927
 31
0.0
  0
LINE
  5
335A7
330
3356C
100
AcDbEntity
  8
0
100
AcDbLine
 10
9.161308808689474
 20
13.0019626333713
 30
0.0
 11
9.160016029914148
 21
12.99972347484948
 31
0.0
  0
ARC
  5
335A8
330
3356C
100
AcDbEntity
  8
0
100
AcDbCircle
 10
9.187289570803008
 20
12.98696263337129
 30
0.0
 40
0.0300000000000017
100
AcDbArc
 50
90.0
 51
149.9999999999966
  0
LWPOLYLINE
  5
335A9
330
3356C
100
AcDbEntity
  8
0
100
AcDbPolyline
 90
        3
 70
     0
 43
0.0
 10
9.300546364012335
 20
12.97708052073365
 10
9.273937673110363
 20
12.91196377439564
 10
9.262533936433053
 20
12.88405351403342
  0
LWPOLYLINE
  5
335AA
330
3356C
100
AcDbEntity
  8
0
100
AcDbPolyline
 90
        3
 70
     0
 43
0.0
 10
9.977404182119162
 20
12.88405461352619
 10
9.950795479845995
 20
12.94917423471442
 10
9.939391774595042
 20
12.9770768060117
  0
ARC
  5
335AB
330
3356C
100
AcDbEntity
  8
0
100
AcDbCircle
 10
9.177974531333417
 20
12.93228124287041
 30
0.0
 40
0.0193989178472624
100
AcDbArc
 50
287.7705703812473
 51
343.3883345951035
  0
LWPOLYLINE
  5
335AC
330
3356C
100
AcDbEntity
  8
0
100
AcDbPolyline
 90
        3
 70
     0
 43
0.0
 10
9.222211622087556
 20
12.97776345851684
 10
9.204332614800476
 20
12.94204560918262
 10
9.196670883123497
 20
12.92673686424453
  0
ARC
  5
335AD
330
3356C
100
AcDbEntity
  8
0
100
AcDbCircle
 10
9.188444777070806
 20
12.99770969192523
 30
0.0
 40
0.0391352245173052
100
AcDbArc
 50
329.3474638242184
 51
347.0946162772993
  0
ARC
  5
335AE
330
3356C
100
AcDbEntity
  8
0
100
AcDbCircle
 10
10.11893232573155
 20
12.98696263337129
 30
0.0
 40
0.0300000000000016
100
AcDbArc
 50
5.000000000003744
 51
90.0
  0
LWPOLYLINE
  5
335AF
330
3356C
100
AcDbEntity
  8
0
100
AcDbPolyline
 90
        6
 70
     0
 43
0.0
 10
9.13838520208667
 20
12.92167119675803
 10
9.136519769894363
 20
12.91897657045286
 10
9.133976796209132
 20
12.91591737609293
 10
9.131936223193713
 20
12.91394875602261
 10
9.1311681124185
 20
12.91338771711093
 10
9.131232841429966
 20
12.91341123338651
  0
LWPOLYLINE
  5
335B0
330
3356C
100
AcDbEntity
  8
0
100
AcDbPolyline
 90
        3
 70
     0
 43
0.0
 10
9.141722546138545
 20
12.92713560756537
 10
9.139500545635995
 20
12.92328231619712
 10
9.13838520208667
 20
12.92167119675803
  0
LWPOLYLINE
  5
335B1
330
3356C
100
AcDbEntity
  8
0
100
AcDbPolyline
 90
        3
 70
     0
 43
0.0
 10
9.170281967381017
 20
12.9781562158162
 10
9.150338228987234
 20
12.94243826655348
 10
9.141792263326355
 20
12.92712947289361
  0
ARC
  5
335B2
330
3356C
100
AcDbEntity
  8
0
100
AcDbCircle
 10
9.113613823955182
 20
13.01370677012786
 30
0.0
 40
0.0668854917443179
100
AcDbArc
 50
327.8939398079057
 51
342.5204724483606
  0
ARC
  5
335B3
330
3356C
100
AcDbEntity
  8
0
100
AcDbCircle
 10
8.896992499882962
 20
13.13270053026172
 30
0.0
 40
0.2948379022915702
100
AcDbArc
 50
329.3161580647318
 51
332.925587631018
  0
ARC
  5
335B4
330
3356C
100
AcDbEntity
  8
0
100
AcDbCircle
 10
8.815362170793243
 20
13.04221202452651
 30
0.0
 40
0.3202097131340117
100
AcDbArc
 50
326.9374917840407
 51
330.3806498884928
  0
LWPOLYLINE
  5
335B5
330
3356C
100
AcDbEntity
  8
0
100
AcDbPolyline
 90
        3
 70
     0
 43
0.0
 10
9.148278084850931
 20
12.9782836434685
 10
9.110633242459092
 20
12.91316634643671
 10
9.094505113329589
 20
12.88525588724898
  0
LINE
  5
335B6
330
3356C
100
AcDbEntity
  8
0
100
AcDbLine
 10
9.148293930658075
 20
12.97827448225372
 30
0.0
 11
9.094508798460827
 21
12.88525376826706
 31
0.0
  0
LINE
  5
335B7
330
3356C
100
AcDbEntity
  8
0
100
AcDbLine
 10
12.38664622808165
 20
4.401726412898855
 30
0.0
 11
14.49294650220408
 21
4.401726412898855
 31
0.0
  0
LINE
  5
335B8
330
3356C
100
AcDbEntity
  8
0
100
AcDbLine
 10
10.28034595395922
 20
4.401726412898855
 30
0.0
 11
12.38664622808165
 21
4.401726412898855
 31
0.0
  0
LINE
  5
335B9
330
3356C
100
AcDbEntity
  8
0
100
AcDbLine
 10
14.49293187729517
 20
4.43133271211145
 30
0.0
 11
10.28036057886813
 21
4.43133271211145
 31
0.0
  0
LWPOLYLINE
  5
335BA
330
3356C
100
AcDbEntity
  8
0
100
AcDbPolyline
 90
       13
 70
     0
 43
0.0
 10
11.03309144866922
 20
5.10888974875696
 10
10.99204717558277
 20
4.967953000685628
 10
10.94866598445489
 20
4.827661899385776
 10
10.93761675655852
 20
4.796552438930667
 10
10.9250542960488
 20
4.76629753170329
 10
10.92177255458209
 20
4.759641815772376
 10
10.91824017084066
 20
4.753202282926975
 10
10.91403286328934
 20
4.746643509422098
 10
10.90918199788973
 20
4.740799342899391
 10
10.9069294135936
 20
4.738786756960073
 10
10.90449561353271
 20
4.737159328980198
 10
10.90198657068564
 20
4.736115887338236
 10
10.90082155085673
 20
4.735959743244486
  0
LWPOLYLINE
  5
335BB
330
3356C
100
AcDbEntity
  8
0
100
AcDbPolyline
 90
       14
 70
     0
 43
0.0
 10
12.38664622808165
 20
6.391845523252543
 10
12.22294374970369
 20
6.377963917612562
 10
12.06350335377706
 20
6.338009225232736
 10
11.96954136221251
 20
6.301653090744123
 10
11.87903541658378
 20
6.257350427565072
 10
11.79001341371784
 20
6.204402736962848
 10
11.70527395994245
 20
6.144814782019007
 10
11.60177353502162
 20
6.058721255862088
 10
11.5058594261808
 20
5.964210360181547
 10
11.41533934947605
 20
5.859760664412277
 10
11.33280488062742
 20
5.748871363955363
 10
11.21527445248063
 20
5.556717112622543
 10
11.11224901795915
 20
5.337683782075973
 10
11.03309144866922
 20
5.10888974875696
  0
LWPOLYLINE
  5
335BC
330
3356C
100
AcDbEntity
  8
0
100
AcDbPolyline
 90
       15
 70
     0
 43
0.0
 10
10.96932339343598
 20
5.127512400596061
 10
11.02636834084185
 20
5.298564105017833
 10
11.0963901701077
 20
5.464713423372915
 10
11.18184241088859
 20
5.628889526181616
 10
11.28108841282942
 20
5.78508390735883
 10
11.36511545370422
 20
5.896527194218661
 10
11.45705441416184
 20
6.001518118125702
 10
11.55952205807031
 20
6.101339076581107
 10
11.67021267030557
 20
6.19190982833188
 10
11.75694917205396
 20
6.251813306510801
 10
11.84787810063863
 20
6.305112600129676
 10
11.94524800297897
 20
6.352086439705937
 10
12.04631536261822
 20
6.39041421987266
 10
12.21433431308765
 20
6.431504182050153
 10
12.38664622808165
 20
6.445730208280297
  0
LWPOLYLINE
  5
335BD
330
3356C
100
AcDbEntity
  8
0
100
AcDbPolyline
 90
       30
 70
     0
 43
0.0
 10
10.87089819658558
 20
5.127512400596061
 10
10.87113730660988
 20
5.080653744353157
 10
10.87226398001813
 20
5.016264554513446
 10
10.87438162997025
 20
4.951904624394038
 10
10.87766757062768
 20
4.887573795788837
 10
10.88260955873241
 20
4.823428562673053
 10
10.88600033143721
 20
4.79287901176294
 10
10.88818056126443
 20
4.777705217566037
 10
10.89098447763113
 20
4.762727979408224
 10
10.89261751999459
 20
4.756180086796712
 10
10.89474703731065
 20
4.749880875631171
 10
10.89589619567767
 20
4.747479654746507
 10
10.89737368108303
 20
4.745365825259986
 10
10.89854183745311
 20
4.744434631682775
 10
10.89964890636827
 20
4.744126531606978
 10
10.90082155085673
 20
4.744381290446349
 10
10.90235316894134
 20
4.745564972049414
 10
10.90365680325553
 20
4.747285190922233
 10
10.90480351304863
 20
4.749305031733377
 10
10.90739178775818
 20
4.755456907841721
 10
10.90953646170436
 20
4.762048866506972
 10
10.91309440051926
 20
4.775504038131871
 10
10.91761452152306
 20
4.796222239986557
 10
10.92162540824021
 20
4.817165613668517
 10
10.92887726592295
 20
4.859201353827976
 10
10.93562901689501
 20
4.901418675508762
 10
10.94213665366748
 20
4.943757768014465
 10
10.94850854253142
 20
4.986147348038697
 10
10.95896445857327
 20
5.056804357459612
 10
10.96932339343598
 20
5.127512400596061
  0
ARC
  5
335BE
330
3356C
100
AcDbEntity
  8
0
100
AcDbCircle
 10
104.0232092231188
 20
7.717842676907872
 30
0.0
 40
91.27387246541029
100
AcDbArc
 50
179.3932757656163
 51
179.8733272921265
  0
LINE
  5
335BF
330
3356C
100
AcDbEntity
  8
0
100
AcDbLine
 10
12.74928175613387
 20
7.713181361098567
 30
0.0
 11
12.74928175613387
 21
6.949403388841275
 31
0.0
  0
LINE
  5
335C0
330
3356C
100
AcDbEntity
  8
0
100
AcDbLine
 10
12.74955982564433
 20
7.919635885110553
 30
0.0
 11
12.74928175613387
 21
7.713181361098568
 31
0.0
  0
ARC
  5
335C1
330
3356C
100
AcDbEntity
  8
0
100
AcDbCircle
 10
20.44590427153709
 20
8.779248339549022
 30
0.0
 40
7.692035468609843
100
AcDbArc
 50
175.0524732580498
 51
180.7068567650138
  0
LINE
  5
335C2
330
3356C
100
AcDbEntity
  8
0
100
AcDbLine
 10
12.78722987560449
 20
9.448162431378143
 30
0.0
 11
12.78252855599653
 21
9.442635325263607
 31
0.0
  0
LINE
  5
335C3
330
3356C
100
AcDbEntity
  8
0
100
AcDbLine
 10
12.7872298756045
 20
8.900703323014765
 30
0.0
 11
12.7872298756045
 21
9.448162431378143
 31
0.0
  0
ARC
  5
335C4
330
3356C
100
AcDbEntity
  8
0
100
AcDbCircle
 10
1.260222714132875
 20
8.659051852034718
 30
0.0
 40
11.3456729262471
100
AcDbArc
 50
359.4029358875264
 51
4.187198341796102
  0
ARC
  5
335C5
330
3356C
100
AcDbEntity
  8
0
100
AcDbCircle
 10
-97.79567891210822
 20
7.708278505533331
 30
0.0
 40
110.4040976460318
100
AcDbArc
 50
0.0920289980719852
 51
0.432065309270632
  0
LWPOLYLINE
  5
335C6
330
3356C
100
AcDbEntity
  8
0
100
AcDbPolyline
 90
        3
 70
     0
 43
0.0
 10
12.60842999586877
 20
7.730933931884726
 10
12.60839219113197
 20
7.808272209528482
 10
12.60827631777848
 20
7.885610487172237
  0
LINE
  5
335C7
330
3356C
100
AcDbEntity
  8
0
100
AcDbLine
 10
12.60842999586877
 20
6.948973594314271
 30
0.0
 11
12.60842999586877
 21
7.730933931884726
 31
0.0
  0
LINE
  5
335C8
330
3356C
100
AcDbEntity
  8
0
100
AcDbLine
 10
12.57005208187114
 20
9.502014952893086
 30
0.0
 11
12.57005208187114
 21
8.972226934832212
 31
0.0
  0
LWPOLYLINE
  5
335C9
330
3356C
100
AcDbEntity
  8
0
100
AcDbPolyline
 90
        3
 70
     0
 43
0.0
 10
12.32875262377188
 20
8.248478592098491
 10
12.32847523548498
 20
8.152795842481875
 10
12.32838607343828
 20
8.086311433805898
  0
LINE
  5
335CA
330
3356C
100
AcDbEntity
  8
0
100
AcDbLine
 10
12.32838607343828
 20
8.086311433805898
 30
0.0
 11
12.32834407613442
 21
7.960596690739383
 31
0.0
  0
ARC
  5
335CB
330
3356C
100
AcDbEntity
  8
0
100
AcDbCircle
 10
13.7894857080909
 20
7.251132994193871
 30
0.0
 40
2.926724900596044
100
AcDbArc
 50
164.4912902437483
 51
175.7264391064931
  0
LINE
  5
335CC
330
3356C
100
AcDbEntity
  8
0
100
AcDbLine
 10
10.96932339343598
 20
8.033694916835861
 30
0.0
 11
10.96932339343598
 21
5.127512400596061
 31
0.0
  0
LINE
  5
335CD
330
3356C
100
AcDbEntity
  8
0
100
AcDbLine
 10
10.87089819658558
 20
5.127512400596061
 30
0.0
 11
10.87089819658558
 21
7.469228343649449
 31
0.0
  0
ARC
  5
335CE
330
3356C
100
AcDbEntity
  8
0
100
AcDbCircle
 10
11.49785535175749
 20
9.519910944410623
 30
0.0
 40
0.0295320044668971
100
AcDbArc
 50
0.0082336453045171
 51
90.01101354375236
  0
LWPOLYLINE
  5
335CF
330
3356C
100
AcDbEntity
  8
0
100
AcDbPolyline
 90
       22
 70
     0
 43
0.0
 10
11.52484468631165
 20
9.516790418878739
 10
11.52447798883504
 20
9.515814445017833
 10
11.52158478961587
 20
9.503419601277807
 10
11.51872394891631
 20
9.482800019944438
 10
11.51591147630897
 20
9.454071090415171
 10
11.51316311069341
 20
9.41739358287317
 10
11.51049423221955
 20
9.372972748600055
 10
11.50791977621871
 20
9.321057171367632
 10
11.5054541496239
 20
9.261937376336335
 10
11.50311115034704
 20
9.195944204245153
 10
11.50090389006437
 20
9.123446959991213
 10
11.4988447208421
 20
9.04485134595983
 10
11.49694516601295
 20
8.960597191670258
 10
11.49521585569027
 20
8.871155992442348
 10
11.49366646728084
 20
8.777028270857961
 10
11.49230567132905
 20
8.678740775782706
 10
11.49114108299555
 20
8.576843534622577
 10
11.49017921944208
 20
8.471906775311346
 10
11.48942546336065
 20
8.364517735253656
 10
11.48888403285145
 20
8.255277375081266
 10
11.48855795781792
 20
8.144797015612651
 10
11.48844906301106
 20
8.033694916835862
  0
LINE
  5
335D0
330
3356C
100
AcDbEntity
  8
0
100
AcDbLine
 10
11.48844906301106
 20
8.033694916835861
 30
0.0
 11
11.48844906301106
 21
6.948413215403504
 31
0.0
  0
ARC
  5
335D1
330
3356C
100
AcDbEntity
  8
0
100
AcDbCircle
 10
11.52777392863074
 20
6.948381493425728
 30
0.0
 40
0.0393248784141815
100
AcDbArc
 50
179.953781531823
 51
270.0462184681854
  0
ARC
  5
335D2
330
3356C
100
AcDbEntity
  8
0
100
AcDbCircle
 10
11.07790784519581
 20
9.519910944410623
 30
0.0
 40
0.0295320044668971
100
AcDbArc
 50
0.0082336453045171
 51
90.01101354375583
  0
LWPOLYLINE
  5
335D3
330
3356C
100
AcDbEntity
  8
0
100
AcDbPolyline
 90
       22
 70
     0
 43
0.0
 10
11.10489717974997
 20
9.516790418878739
 10
11.10453048227336
 20
9.515814445017833
 10
11.10163728305419
 20
9.503419601277807
 10
11.09877644235463
 20
9.482800019944438
 10
11.09596396974729
 20
9.454071090415171
 10
11.09321560413173
 20
9.41739358287317
 10
11.09054672565787
 20
9.372972748600055
 10
11.08797226965704
 20
9.321057171367632
 10
11.08550664306222
 20
9.261937376336335
 10
11.08316364378536
 20
9.195944204245153
 10
11.08095638350269
 20
9.123446959991213
 10
11.07889721428042
 20
9.04485134595983
 10
11.07699765945127
 20
8.960597191670258
 10
11.07526834912859
 20
8.871155992442348
 10
11.07371896071916
 20
8.777028270857961
 10
11.07235816476737
 20
8.678740775782706
 10
11.07119357643387
 20
8.576843534622577
 10
11.0702317128804
 20
8.471906775311346
 10
11.06947795679897
 20
8.364517735253656
 10
11.06893652628978
 20
8.255277375081266
 10
11.06861045125625
 20
8.144797015612651
 10
11.06850155644938
 20
8.033694916835862
  0
ARC
  5
335D4
330
3356C
100
AcDbEntity
  8
0
100
AcDbCircle
 10
11.3098229894748
 20
6.94838149342573
 30
0.0
 40
0.039324878414185
100
AcDbArc
 50
269.9537815318265
 51
0.0462184681729679
  0
LINE
  5
335D5
330
3356C
100
AcDbEntity
  8
0
100
AcDbLine
 10
11.34914785509449
 20
6.948413215403504
 30
0.0
 11
11.34914785509449
 21
8.033694916835861
 31
0.0
  0
LINE
  5
335D6
330
3356C
100
AcDbEntity
  8
0
100
AcDbLine
 10
11.10785814404684
 20
6.909056627806042
 30
0.0
 11
11.30979126749703
 21
6.909056627806042
 31
0.0
  0
LINE
  5
335D7
330
3356C
100
AcDbEntity
  8
0
100
AcDbLine
 10
11.06850155644938
 20
8.033694916835861
 30
0.0
 11
11.06850155644938
 21
6.948413215403504
 31
0.0
  0
ARC
  5
335D8
330
3356C
100
AcDbEntity
  8
0
100
AcDbCircle
 10
11.10782642206906
 20
6.948381493425721
 30
0.0
 40
0.0393248784141779
100
AcDbArc
 50
179.9537815318165
 51
270.0462184681828
  0
LINE
  5
335D9
330
3356C
100
AcDbEntity
  8
0
100
AcDbLine
 10
11.52780565060852
 20
6.909056627806042
 30
0.0
 11
11.72973877405871
 21
6.909056627806042
 31
0.0
  0
ARC
  5
335DA
330
3356C
100
AcDbEntity
  8
0
100
AcDbCircle
 10
11.72977049603649
 20
6.948381493425728
 30
0.0
 40
0.0393248784141832
100
AcDbArc
 50
269.9537815318265
 51
0.0462184681768522
  0
LINE
  5
335DB
330
3356C
100
AcDbEntity
  8
0
100
AcDbLine
 10
12.32834407613442
 20
7.960596690739383
 30
0.0
 11
12.32834407613442
 21
6.948413215403504
 31
0.0
  0
LINE
  5
335DC
330
3356C
100
AcDbEntity
  8
0
100
AcDbLine
 10
11.90839656957274
 20
8.033694916835861
 30
0.0
 11
11.90839656957274
 21
6.948413215403504
 31
0.0
  0
ARC
  5
335DD
330
3356C
100
AcDbEntity
  8
0
100
AcDbCircle
 10
12.14971800259817
 20
6.948381493425724
 30
0.0
 40
0.0393248784141797
100
AcDbArc
 50
269.9537815318214
 51
0.0462184681807386
  0
ARC
  5
335DE
330
3356C
100
AcDbEntity
  8
0
100
AcDbCircle
 10
11.94772143519243
 20
6.948381493425728
 30
0.0
 40
0.0393248784141815
100
AcDbArc
 50
179.953781531823
 51
270.0462184681803
  0
ARC
  5
335DF
330
3356C
100
AcDbEntity
  8
0
100
AcDbCircle
 10
12.38691581963178
 20
63.28358446823388
 30
0.0
 40
56.37452784107246
100
AcDbArc
 50
269.9997260028853
 51
270.1854042253616
  0
LINE
  5
335E0
330
3356C
100
AcDbEntity
  8
0
100
AcDbLine
 10
12.36770066373188
 20
6.909056627806042
 30
0.0
 11
12.38664622808165
 21
6.909056627806042
 31
0.0
  0
LINE
  5
335E1
330
3356C
100
AcDbEntity
  8
0
100
AcDbLine
 10
11.76909536165617
 20
6.948413215403504
 30
0.0
 11
11.76909536165617
 21
8.033694916835861
 31
0.0
  0
LINE
  5
335E2
330
3356C
100
AcDbEntity
  8
0
100
AcDbLine
 10
12.18904286821785
 20
6.948413215403504
 30
0.0
 11
12.18904286821785
 21
8.033694916835861
 31
0.0
  0
ARC
  5
335E3
330
3356C
100
AcDbEntity
  8
0
100
AcDbCircle
 10
12.3676689417541
 20
6.948381493425724
 30
0.0
 40
0.0393248784141788
100
AcDbArc
 50
179.9537815318192
 51
270.046218468188
  0
LINE
  5
335E4
330
3356C
100
AcDbEntity
  8
0
100
AcDbLine
 10
11.9477531571702
 20
6.909056627806042
 30
0.0
 11
12.14968628062039
 21
6.909056627806042
 31
0.0
  0
ARC
  5
335E5
330
3356C
100
AcDbEntity
  8
0
100
AcDbCircle
 10
11.91780285831917
 20
9.519910944410627
 30
0.0
 40
0.0295320044668936
100
AcDbArc
 50
0.0082336452976254
 51
90.0110135437627
  0
LWPOLYLINE
  5
335E6
330
3356C
100
AcDbEntity
  8
0
100
AcDbPolyline
 90
       22
 70
     0
 43
0.0
 10
11.94479219287333
 20
9.516790418878739
 10
11.94442549539672
 20
9.515814445017833
 10
11.94153229617755
 20
9.503419601277807
 10
11.93867145547799
 20
9.482800019944438
 10
11.93585898287065
 20
9.454071090415171
 10
11.93311061725509
 20
9.41739358287317
 10
11.93044173878123
 20
9.372972748600055
 10
11.92786728278039
 20
9.321057171367632
 10
11.92540165618558
 20
9.261937376336335
 10
11.92305865690872
 20
9.195944204245153
 10
11.92085139662605
 20
9.123446959991213
 10
11.91879222740378
 20
9.04485134595983
 10
11.91689267257463
 20
8.960597191670258
 10
11.91516336225195
 20
8.871155992442348
 10
11.91361397384252
 20
8.777028270857961
 10
11.91225317789073
 20
8.678740775782706
 10
11.91108858955723
 20
8.576843534622577
 10
11.91012672600376
 20
8.471906775311346
 10
11.90937296992233
 20
8.364517735253656
 10
11.90883153941314
 20
8.255277375081266
 10
11.90850546437961
 20
8.144797015612651
 10
11.90839656957274
 20
8.033694916835862
  0
LWPOLYLINE
  5
335E7
330
3356C
100
AcDbEntity
  8
0
100
AcDbPolyline
 90
       21
 70
     0
 43
0.0
 10
12.18904286821785
 20
8.033694916835861
 10
12.18893397341099
 20
8.144797015612651
 10
12.18860789837746
 20
8.25527737508127
 10
12.18806646786826
 20
8.364517735253659
 10
12.18731271178683
 20
8.471906775311348
 10
12.18635084823336
 20
8.576843534622582
 10
12.18518625989987
 20
8.678740775782712
 10
12.18382546394807
 20
8.777028270857966
 10
12.18227607553864
 20
8.871155992442352
 10
12.18054676521596
 20
8.960597191670265
 10
12.17864721038681
 20
9.044851345959836
 10
12.17658804116455
 20
9.12344695999122
 10
12.17438078088187
 20
9.19594420424516
 10
12.17203778160501
 20
9.261937376336343
 10
12.1695721550102
 20
9.321057171367639
 10
12.16699769900936
 20
9.372972748600064
 10
12.1643288205355
 20
9.417393582873179
 10
12.16158045491994
 20
9.454071090415176
 10
12.1587679823126
 20
9.482800019944443
 10
12.15590714161304
 20
9.50341960127781
 10
12.15305659756901
 20
9.515692284325499
  0
ARC
  5
335E8
330
3356C
100
AcDbEntity
  8
0
100
AcDbCircle
 10
12.17963810155115
 20
9.519909421819496
 30
0.0
 40
0.0295335268046549
100
AcDbArc
 50
89.9919398966861
 51
179.9888129142565
  0
LWPOLYLINE
  5
335E9
330
3356C
100
AcDbEntity
  8
0
100
AcDbPolyline
 90
       12
 70
     0
 43
0.0
 10
10.76349941604762
 20
9.549434995862847
 10
10.76363215734433
 20
9.549442720924119
 10
10.75833151314428
 20
9.549135169244802
 10
10.74357809284188
 20
9.548377620282932
 10
10.72996088633701
 20
9.547807130210239
 10
10.70364069921764
 20
9.54705518308708
 10
10.67398045357849
 20
9.546762482031226
 10
10.64435095669212
 20
9.547057242828993
 10
10.61806794371605
 20
9.547809626040097
 10
10.59806598905709
 20
9.548691055041256
 10
10.58663334833204
 20
9.549314560482574
 10
10.58560868073255
 20
9.549374875151816
  0
LWPOLYLINE
  5
335EA
330
3356C
100
AcDbEntity
  8
0
100
AcDbPolyline
 90
       21
 70
     0
 43
0.0
 10
11.76909536165617
 20
8.033694916835861
 10
11.76898646684931
 20
8.144797015612651
 10
11.76866039181578
 20
8.25527737508127
 10
11.76811896130658
 20
8.364517735253659
 10
11.76736520522515
 20
8.471906775311348
 10
11.76640334167168
 20
8.576843534622582
 10
11.76523875333819
 20
8.678740775782712
 10
11.76387795738639
 20
8.777028270857966
 10
11.76232856897696
 20
8.871155992442352
 10
11.76059925865428
 20
8.960597191670265
 10
11.75869970382513
 20
9.044851345959836
 10
11.75664053460287
 20
9.12344695999122
 10
11.75443327432019
 20
9.19594420424516
 10
11.75209027504333
 20
9.261937376336343
 10
11.74962464844852
 20
9.321057171367639
 10
11.74705019244768
 20
9.372972748600064
 10
11.74438131397382
 20
9.417393582873179
 10
11.74163294835826
 20
9.454071090415176
 10
11.73882047575092
 20
9.482800019944443
 10
11.73595963505136
 20
9.50341960127781
 10
11.73310909100733
 20
9.515692284325499
  0
ARC
  5
335EB
330
3356C
100
AcDbEntity
  8
0
100
AcDbCircle
 10
11.75969059498947
 20
9.5199094218195
 30
0.0
 40
0.0295335268046513
100
AcDbArc
 50
89.9919398966792
 51
179.9888129142633
  0
LWPOLYLINE
  5
335EC
330
3356C
100
AcDbEntity
  8
0
100
AcDbPolyline
 90
       21
 70
     0
 43
0.0
 10
11.34914785509449
 20
8.033694916835861
 10
11.34903896028763
 20
8.144797015612651
 10
11.3487128852541
 20
8.25527737508127
 10
11.3481714547449
 20
8.364517735253659
 10
11.34741769866347
 20
8.471906775311348
 10
11.34645583511
 20
8.576843534622582
 10
11.3452912467765
 20
8.678740775782712
 10
11.34393045082471
 20
8.777028270857966
 10
11.34238106241528
 20
8.871155992442352
 10
11.3406517520926
 20
8.960597191670265
 10
11.33875219726345
 20
9.044851345959836
 10
11.33669302804119
 20
9.12344695999122
 10
11.33448576775851
 20
9.19594420424516
 10
11.33214276848165
 20
9.261937376336343
 10
11.32967714188684
 20
9.321057171367639
 10
11.32710268588601
 20
9.372972748600064
 10
11.32443380741214
 20
9.417393582873179
 10
11.32168544179658
 20
9.454071090415176
 10
11.31887296918924
 20
9.482800019944443
 10
11.31601212848968
 20
9.50341960127781
 10
11.31316158444565
 20
9.515692284325499
  0
ARC
  5
335ED
330
3356C
100
AcDbEntity
  8
0
100
AcDbCircle
 10
11.33974308842779
 20
9.519909421819498
 30
0.0
 40
0.0295335268046534
100
AcDbArc
 50
89.9919398966861
 51
179.9888129142599
  0
LINE
  5
335EE
330
3356C
100
AcDbEntity
  8
0
100
AcDbLine
 10
10.47719740918401
 20
6.527789405024838
 30
0.0
 11
10.47719740918401
 21
9.539600428646883
 31
0.0
  0
ARC
  5
335EF
330
3356C
100
AcDbEntity
  8
0
100
AcDbCircle
 10
12.56893262729333
 20
6.948847263516678
 30
0.0
 40
0.0394975706069947
100
AcDbArc
 50
270.5889717642436
 51
0.183257697993311
  0
ARC
  5
335F0
330
3356C
100
AcDbEntity
  8
0
100
AcDbCircle
 10
12.33775036488085
 20
9.519910944410623
 30
0.0
 40
0.0295320044668977
100
AcDbArc
 50
0.0082336453045166
 51
90.01101354374892
  0
LWPOLYLINE
  5
335F1
330
3356C
100
AcDbEntity
  8
0
100
AcDbPolyline
 90
       20
 70
     0
 43
0.0
 10
12.36473938012896
 20
9.51678962683542
 10
12.36436355541558
 20
9.515787546154664
 10
12.36146106817088
 20
9.503311931591126
 10
12.35859125573594
 20
9.482558614214076
 10
12.35577028249525
 20
9.453644488283657
 10
12.35301403774372
 20
9.416732414286075
 10
12.35033804618926
 20
9.372030301612504
 10
12.34775738050905
 20
9.319789937497386
 10
12.34528657645176
 20
9.260305568812306
 10
12.3429395509641
 20
9.19391224470346
 10
12.34072952380286
 20
9.120983929407961
 10
12.3386689430738
 20
9.041931395878656
 10
12.33676941511702
 20
8.957199912081717
 10
12.3350416391336
 20
8.867266732999071
 10
12.33349534692165
 20
8.772638412462129
 10
12.33213924806146
 20
8.673847949958018
 10
12.3309809808583
 20
8.571451788479173
 10
12.33002706931915
 20
8.46602668032599
 10
12.32928288640591
 20
8.358166438516159
 10
12.32875262377188
 20
8.248478592098491
  0
LINE
  5
335F2
330
3356C
100
AcDbEntity
  8
0
100
AcDbLine
 10
12.36728236904282
 20
8.98673286081944
 30
0.0
 11
12.36728236904282
 21
9.519915188284276
 31
0.0
  0
LINE
  5
335F3
330
3356C
100
AcDbEntity
  8
0
100
AcDbLine
 10
11.10743984935778
 20
8.988439312554344
 30
0.0
 11
11.10743984935778
 21
9.519915188284276
 31
0.0
  0
LINE
  5
335F4
330
3356C
100
AcDbEntity
  8
0
100
AcDbLine
 10
11.52738735591946
 20
8.988439312554344
 30
0.0
 11
11.52738735591946
 21
9.519915188284276
 31
0.0
  0
LINE
  5
335F5
330
3356C
100
AcDbEntity
  8
0
100
AcDbLine
 10
11.31020956218609
 20
9.519915188284276
 30
0.0
 11
11.31020956218609
 21
8.988439312554341
 31
0.0
  0
LINE
  5
335F6
330
3356C
100
AcDbEntity
  8
0
100
AcDbLine
 10
11.94733486248114
 20
8.988439312554341
 30
0.0
 11
11.94733486248114
 21
9.519915188284276
 31
0.0
  0
LINE
  5
335F7
330
3356C
100
AcDbEntity
  8
0
100
AcDbLine
 10
12.15010457530946
 20
9.519915188284276
 30
0.0
 11
12.15010457530946
 21
8.988439312554341
 31
0.0
  0
LINE
  5
335F8
330
3356C
100
AcDbEntity
  8
0
100
AcDbLine
 10
11.73015706874777
 20
9.519915188284276
 30
0.0
 11
11.73015706874777
 21
8.988439312554344
 31
0.0
  0
ARC
  5
335F9
330
3356C
100
AcDbEntity
  8
0
100
AcDbCircle
 10
12.78827153641993
 20
6.949491714415167
 30
0.0
 40
0.0389898803301842
100
AcDbArc
 50
180.1297948824829
 51
271.2207948196274
  0
ARC
  5
335FA
330
3356C
100
AcDbEntity
  8
0
100
AcDbCircle
 10
12.44340811073852
 20
54.15901562750059
 30
0.0
 40
47.24976956351535
100
AcDbArc
 50
270.4191976116367
 51
270.6583008292459
  0
ARC
  5
335FB
330
3356C
100
AcDbEntity
  8
0
100
AcDbCircle
 10
10.9496383540659
 20
7.187238223922474
 30
0.0
 40
2.95275590551181
100
AcDbArc
 50
40.43754093177695
 51
44.83463580392853
  0
LWPOLYLINE
  5
335FC
330
3356C
100
AcDbEntity
  8
0
100
AcDbPolyline
 90
       13
 70
     0
 43
0.0
 10
13.02355589537137
 20
8.057407312113353
 10
13.02281960627557
 20
8.167071980672485
 10
13.02164925199044
 20
8.309125005566658
 10
13.0202259372612
 20
8.447734815433213
 10
13.01847911097911
 20
8.584854003316069
 10
13.01641803441825
 20
8.715395149103727
 10
13.0134891071216
 20
8.861230217991508
 10
13.00999846829625
 20
8.992658623507782
 10
13.00631176126513
 20
9.095031367074424
 10
13.00214399464121
 20
9.175720732556207
 10
12.99778631485342
 20
9.226931978237931
 10
12.99546235752089
 20
9.241736111896177
 10
12.99311265399754
 20
9.248298438668475
  0
ARC
  5
335FD
330
3356C
100
AcDbEntity
  8
0
100
AcDbCircle
 10
13.02264213630533
 20
9.248283602969108
 30
0.0
 40
0.0295294860345344
100
AcDbArc
 50
44.87152218407238
 51
179.9712144331109
  0
ARC
  5
335FE
330
3356C
100
AcDbEntity
  8
0
100
AcDbCircle
 10
12.98486829784504
 20
6.952262584066855
 30
0.0
 40
0.0399225841677356
100
AcDbArc
 50
272.0166848388674
 51
0.4287594853391802
  0
LINE
  5
335FF
330
3356C
100
AcDbEntity
  8
0
100
AcDbLine
 10
12.99311265399754
 20
9.248298438668475
 30
0.0
 11
12.98999958843281
 21
9.251424803677087
 31
0.0
  0
LWPOLYLINE
  5
33600
330
3356C
100
AcDbEntity
  8
0
100
AcDbPolyline
 90
        3
 70
     0
 43
0.0
 10
13.02478976420059
 20
7.632314171720593
 10
13.02449675974525
 20
7.844860741916972
 10
13.02355589537137
 20
8.057407312113353
  0
LINE
  5
33601
330
3356C
100
AcDbEntity
  8
0
100
AcDbLine
 10
13.02478976420059
 20
6.952561332544121
 30
0.0
 11
13.02478976420059
 21
7.632314171720593
 31
0.0
  0
LINE
  5
33602
330
3356C
100
AcDbEntity
  8
0
100
AcDbLine
 10
12.98999958843281
 20
9.251424803677087
 30
0.0
 11
12.98999958843281
 21
8.838101080267007
 31
0.0
  0
LINE
  5
33603
330
3356C
100
AcDbEntity
  8
0
100
AcDbLine
 10
13.17367365227365
 20
7.607669560935985
 30
0.0
 11
13.17367365227365
 21
6.953847778419381
 31
0.0
  0
ARC
  5
33604
330
3356C
100
AcDbEntity
  8
0
100
AcDbCircle
 10
77.2762936664257
 20
7.622444847900275
 30
0.0
 40
64.10262171696158
100
AcDbArc
 50
179.5768963364387
 51
180.0132063489608
  0
LWPOLYLINE
  5
33605
330
3356C
100
AcDbEntity
  8
0
100
AcDbPolyline
 90
       12
 70
     0
 43
0.0
 10
13.20406431660145
 20
9.083298886185948
 10
13.20079158936349
 20
9.078262225224262
 10
13.19756875418061
 20
9.055887352410239
 10
13.19436044558654
 20
9.015077612809326
 10
13.19131053009055
 20
8.957799397566434
 10
13.18848834307167
 20
8.886377973769041
 10
13.18594076861702
 20
8.803203944652247
 10
13.1836392311152
 20
8.70955074735054
 10
13.18159941063424
 20
8.607790996499565
 10
13.17905949948611
 20
8.446469823141098
 10
13.17701342492411
 20
8.274375830726743
 10
13.17541975105195
 20
8.095809689463662
  0
LINE
  5
33606
330
3356C
100
AcDbEntity
  8
0
100
AcDbLine
 10
13.20717738216618
 20
9.079639812274644
 30
0.0
 11
13.20406431660145
 21
9.083298886185954
 31
0.0
  0
LINE
  5
33607
330
3356C
100
AcDbEntity
  8
0
100
AcDbLine
 10
13.20717738216618
 20
8.655384817040967
 30
0.0
 11
13.20717738216618
 21
9.079639812274642
 31
0.0
  0
ARC
  5
33608
330
3356C
100
AcDbEntity
  8
0
100
AcDbCircle
 10
13.21237417771985
 20
6.954308559937329
 30
0.0
 40
0.0387032684591171
100
AcDbArc
 50
180.682150656164
 51
272.6843780179013
  0
ARC
  5
33609
330
3356C
100
AcDbEntity
  8
0
100
AcDbCircle
 10
12.74087022152168
 20
34.18977852345392
 30
0.0
 40
27.27823743252349
100
AcDbArc
 50
270.9942139393317
 51
271.3826969917837
  0
ARC
  5
3360A
330
3356C
100
AcDbEntity
  8
0
100
AcDbCircle
 10
13.17457489378801
 20
9.083324787561087
 30
0.0
 40
0.0294894341883839
100
AcDbArc
 50
359.9496755461514
 51
40.43454695874451
  0
ARC
  5
3360B
330
3356C
100
AcDbEntity
  8
0
100
AcDbCircle
 10
13.39598571540476
 20
6.960096506685056
 30
0.0
 40
0.0407319567644918
100
AcDbArc
 50
274.3871599658357
 51
0.6855351763792887
  0
ARC
  5
3360C
330
3356C
100
AcDbEntity
  8
0
100
AcDbCircle
 10
-33.74771046422777
 20
7.552037193218953
 30
0.0
 40
47.18445110143128
100
AcDbArc
 50
359.9399898258448
 51
0.8188345644436239
  0
ARC
  5
3360D
330
3356C
100
AcDbEntity
  8
0
100
AcDbCircle
 10
8.005238765239655
 20
8.260491197957302
 30
0.0
 40
5.426790841089458
100
AcDbArc
 50
359.6394751269487
 51
4.79203518196333
  0
LINE
  5
3360E
330
3356C
100
AcDbEntity
  8
0
100
AcDbLine
 10
13.43671475666069
 20
6.960583846645714
 30
0.0
 11
13.43671475666069
 21
7.502617381944552
 31
0.0
  0
LINE
  5
3360F
330
3356C
100
AcDbEntity
  8
0
100
AcDbLine
 10
13.40994709499449
 20
8.718913630401987
 30
0.0
 11
13.40994709499449
 21
8.514944652316982
 31
0.0
  0
LINE
  5
33610
330
3356C
100
AcDbEntity
  8
0
100
AcDbLine
 10
13.58743362965645
 20
8.266251342974753
 30
0.0
 11
13.58743362965645
 21
7.465127882294669
 31
0.0
  0
LINE
  5
33611
330
3356C
100
AcDbEntity
  8
0
100
AcDbLine
 10
13.58743362965645
 20
7.465127882294665
 30
0.0
 11
13.58743362965645
 21
6.968988547780861
 31
0.0
  0
ARC
  5
33612
330
3356C
100
AcDbEntity
  8
0
100
AcDbCircle
 10
13.62680033647786
 20
6.968991920273542
 30
0.0
 40
0.039366706965872
100
AcDbArc
 50
180.0049084576818
 51
270.004907616818
  0
ARC
  5
33613
330
3356C
100
AcDbEntity
  8
0
100
AcDbCircle
 10
10.9496383540659
 20
7.187238223922474
 30
0.0
 40
2.95275590551181
100
AcDbArc
 50
26.84189542973011
 51
31.48208891122453
  0
LINE
  5
33614
330
3356C
100
AcDbEntity
  8
0
100
AcDbLine
 10
13.69730168275344
 20
6.929625213452081
 30
0.0
 11
13.62680370839661
 21
6.929625213452081
 31
0.0
  0
ARC
  5
33615
330
3356C
100
AcDbEntity
  8
0
100
AcDbCircle
 10
13.61696118871157
 20
8.168186725780316
 30
0.0
 40
0.0295275590551203
100
AcDbArc
 50
180.0
 51
270.0000000000008
  0
LWPOLYLINE
  5
33616
330
3356C
100
AcDbEntity
  8
0
100
AcDbPolyline
 90
        3
 70
     0
 43
0.0
 10
13.20717738216618
 20
8.655384817040967
 10
13.20885032611768
 20
8.645564132316941
 10
13.20924589438093
 20
8.644850320589659
  0
LWPOLYLINE
  5
33617
330
3356C
100
AcDbEntity
  8
0
100
AcDbPolyline
 90
        3
 70
     0
 43
0.0
 10
12.94848474695951
 20
8.811645088087562
 10
12.94818775964659
 20
8.811931977695609
 10
12.94774428611963
 20
8.81183221869248
  0
ARC
  5
33618
330
3356C
100
AcDbEntity
  8
0
100
AcDbCircle
 10
12.96288009922585
 20
8.836828788545068
 30
0.0
 40
0.0271493171382345
100
AcDbArc
 50
296.3965548615304
 51
2.686021667447139
  0
ARC
  5
33619
330
3356C
100
AcDbEntity
  8
0
100
AcDbCircle
 10
13.38201591936053
 20
8.513726418932616
 30
0.0
 40
0.0279577299663935
100
AcDbArc
 50
273.3388558733521
 51
2.497403705500463
  0
ARC
  5
3361A
330
3356C
100
AcDbEntity
  8
0
100
AcDbCircle
 10
12.81681879293554
 20
8.900705969949077
 30
0.0
 40
0.0295889174494369
100
AcDbArc
 50
180.0051255056981
 51
249.6440767389045
  0
ARC
  5
3361B
330
3356C
100
AcDbEntity
  8
0
100
AcDbCircle
 10
12.54050130520603
 20
8.972232135330008
 30
0.0
 40
0.0295507771227061
100
AcDbArc
 50
261.3009377129079
 51
359.9899167938884
  0
ARC
  5
3361C
330
3356C
100
AcDbEntity
  8
0
100
AcDbCircle
 10
12.39683727791232
 20
8.986738036461566
 30
0.0
 40
0.0295549093226784
100
AcDbArc
 50
180.0100336106099
 51
267.1745158544973
  0
ARC
  5
3361D
330
3356C
100
AcDbEntity
  8
0
100
AcDbCircle
 10
11.700604980614
 20
8.988443855694306
 30
0.0
 40
0.0295520884829871
100
AcDbArc
 50
269.9979869269147
 51
359.9911917309428
  0
ARC
  5
3361E
330
3356C
100
AcDbEntity
  8
0
100
AcDbCircle
 10
11.13699281184545
 20
8.988444730213362
 30
0.0
 40
0.0295529629842578
100
AcDbArc
 50
180.0105034814485
 51
270.0003178607078
  0
ARC
  5
3361F
330
3356C
100
AcDbEntity
  8
0
100
AcDbCircle
 10
11.55694031840713
 20
8.988444730213362
 30
0.0
 40
0.0295529629842566
100
AcDbArc
 50
180.010503481445
 51
270.0003178607113
  0
ARC
  5
33620
330
3356C
100
AcDbEntity
  8
0
100
AcDbCircle
 10
11.97688782496882
 20
8.988444730213366
 30
0.0
 40
0.0295529629842631
100
AcDbArc
 50
180.0105034814554
 51
270.0003178606975
  0
ARC
  5
33621
330
3356C
100
AcDbEntity
  8
0
100
AcDbCircle
 10
12.12055248717568
 20
8.988443855694306
 30
0.0
 40
0.0295520884829876
100
AcDbArc
 50
269.9979869269113
 51
359.9911917309358
  0
ARC
  5
33622
330
3356C
100
AcDbEntity
  8
0
100
AcDbCircle
 10
11.28123316028271
 20
8.988238537589845
 30
0.0
 40
0.0289770974711518
100
AcDbArc
 50
290.6910186753144
 51
0.3969911118231691
  0
ARC
  5
33623
330
3356C
100
AcDbEntity
  8
0
100
AcDbCircle
 10
13.69714083465287
 20
6.958947299293113
 30
0.0
 40
0.0293225270087742
100
AcDbArc
 50
270.3142963606797
 51
0.3817232947778409
  0
LINE
  5
33624
330
3356C
100
AcDbEntity
  8
0
100
AcDbLine
 10
13.61696118871157
 20
8.138659166725195
 30
0.0
 11
13.72369199414914
 21
8.138659166725195
 31
0.0
  0
LWPOLYLINE
  5
33625
330
3356C
100
AcDbEntity
  8
0
100
AcDbPolyline
 90
       13
 70
     0
 43
0.0
 10
13.72646271090014
 20
7.377110460558882
 10
13.72645738121789
 20
7.382216810088311
 10
13.72610407002492
 20
7.530463884095888
 10
13.72565270822323
 20
7.678710716848737
 10
13.72528191080315
 20
7.781423953649656
 10
13.72488239981066
 20
7.879772537668137
 10
13.72452372787323
 20
7.959349936264313
 10
13.72417910760798
 20
8.030022292522602
 10
13.72392781838096
 20
8.078629415673344
 10
13.72374635136607
 20
8.1149452214107
 10
13.72367675484787
 20
8.132524327724066
 10
13.72369199215453
 20
8.138659166719049
 10
13.72369199414914
 20
8.138659166725195
  0
ARC
  5
33626
330
3356C
100
AcDbEntity
  8
0
100
AcDbCircle
 10
13.72369199058516
 20
8.109131618569739
 30
0.0
 40
0.0295275481554571
100
AcDbArc
 50
18.38016660918964
 51
89.99999308439457
  0
LINE
  5
33627
330
3356C
100
AcDbEntity
  8
0
100
AcDbLine
 10
13.75171327625018
 20
8.118443662051367
 30
0.0
 11
13.75171319734459
 21
8.118442261502346
 31
0.0
  0
ARC
  5
33628
330
3356C
100
AcDbEntity
  8
0
100
AcDbCircle
 10
10.94963835406559
 20
7.187238223922424
 30
0.0
 40
2.952755905512118
100
AcDbArc
 50
0.0000000000009996
 51
18.3830456349811
  0
LINE
  5
33629
330
3356C
100
AcDbEntity
  8
0
100
AcDbLine
 10
12.39538039773379
 20
8.957219056716033
 30
0.0
 11
12.40596645709191
 21
8.956150470262027
 31
0.0
  0
LINE
  5
3362A
330
3356C
100
AcDbEntity
  8
0
100
AcDbLine
 10
12.52778859816843
 20
8.943853402453445
 30
0.0
 11
12.53603190848864
 21
8.943021299642914
 31
0.0
  0
LINE
  5
3362B
330
3356C
100
AcDbEntity
  8
0
100
AcDbLine
 10
12.80652626113375
 20
8.872964884445105
 30
0.0
 11
12.8147257259612
 21
8.869393161556711
 31
0.0
  0
LINE
  5
3362C
330
3356C
100
AcDbEntity
  8
0
100
AcDbLine
 10
13.72646271090014
 20
6.959142654150181
 30
0.0
 11
13.72646271090014
 21
7.377110460558882
 31
0.0
  0
ARC
  5
3362D
330
3356C
100
AcDbEntity
  8
0
100
AcDbCircle
 10
13.55790607060133
 20
8.507163784098869
 30
0.0
 40
0.0295275590551187
100
AcDbArc
 50
0.0
 51
26.84189542973032
  0
LINE
  5
3362E
330
3356C
100
AcDbEntity
  8
0
100
AcDbLine
 10
13.58743362965645
 20
8.507163784098869
 30
0.0
 11
13.58743362965645
 21
8.266251342974753
 31
0.0
  0
ARC
  5
3362F
330
3356C
100
AcDbEntity
  8
0
100
AcDbCircle
 10
12.59958334039616
 20
9.502008282571587
 30
0.0
 40
0.0295312592783495
100
AcDbArc
 50
77.50976693611375
 51
179.987058415985
  0
ARC
  5
33630
330
3356C
100
AcDbEntity
  8
0
100
AcDbCircle
 10
12.7576901165881
 20
9.448159565734055
 30
0.0
 40
0.0295397591553921
100
AcDbArc
 50
0.005558248171235
 51
64.8752340906079
  0
LINE
  5
33631
330
3356C
100
AcDbEntity
  8
0
100
AcDbLine
 10
13.46463473973179
 20
8.734351864746056
 30
0.0
 11
13.4677588057744
 21
8.729261838599709
 31
0.0
  0
ARC
  5
33632
330
3356C
100
AcDbEntity
  8
0
100
AcDbCircle
 10
13.43947035847977
 20
8.718912402173383
 30
0.0
 40
0.0295232635108275
100
AcDbArc
 50
31.53095962831303
 51
179.9976163774971
  0
LINE
  5
33633
330
3356C
100
AcDbEntity
  8
0
100
AcDbLine
 10
13.04044533916443
 20
9.272254671962649
 30
0.0
 11
13.04356940520705
 21
9.269117228716414
 31
0.0
  0
ARC
  5
33634
330
3356C
100
AcDbEntity
  8
0
100
AcDbCircle
 10
13.01952628673007
 20
9.251416744461668
 30
0.0
 40
0.0295266993971199
100
AcDbArc
 50
44.88868662303088
 51
179.9843613053648
  0
LINE
  5
33635
330
3356C
100
AcDbEntity
  8
0
100
AcDbLine
 10
13.19702069935626
 20
9.102451014087602
 30
0.0
 11
13.20014476539887
 21
9.098779050084466
 31
0.0
  0
LWPOLYLINE
  5
33636
330
3356C
100
AcDbEntity
  8
0
100
AcDbPolyline
 90
        3
 70
     0
 43
0.0
 10
13.20014476539887
 20
9.098779050084466
 10
13.20536047358325
 20
9.089842299311508
 10
13.20717738216618
 20
9.079639812274642
  0
ARC
  5
33637
330
3356C
100
AcDbEntity
  8
0
100
AcDbCircle
 10
13.72369252702834
 20
8.109131607670079
 30
0.0
 40
0.0295275590551185
100
AcDbArc
 50
18.38304563498064
 51
90.0
  0
LWPOLYLINE
  5
33638
330
3356C
100
AcDbEntity
  8
0
100
AcDbPolyline
 90
       20
 70
     0
 43
0.0
 10
9.397183449125131
 20
6.698634191744959
 10
9.39769753203496
 20
6.698165137502407
 10
9.389434076675533
 20
6.705727988358982
 10
9.371343328323552
 20
6.722487955174852
 10
9.352504205865383
 20
6.740243306388959
 10
9.329827589636812
 20
6.762034982531917
 10
9.303936782668641
 20
6.787493232620017
 10
9.275339408137773
 20
6.816355214908917
 10
9.222920001463911
 20
6.871392338481677
 10
9.166964207475665
 20
6.933414212712908
 10
9.108047430435329
 20
7.002730666257837
 10
9.048344883122496
 20
7.077649152443096
 10
8.993539696203244
 20
7.151088215796829
 10
8.939453990831529
 20
7.228540064077936
 10
8.886114468833982
 20
7.310481712836252
 10
8.834427287508647
 20
7.396017267011354
 10
8.784129680217871
 20
7.486114760532021
 10
8.736291073952735
 20
7.579380402302862
 10
8.690818148806597
 20
7.67646629958087
 10
8.648520936885471
 20
7.776077662470918
  0
ARC
  5
33639
330
3356C
100
AcDbEntity
  8
0
100
AcDbCircle
 10
11.38709504697929
 20
8.880151609749248
 30
0.0
 40
2.952755905511813
100
AcDbArc
 50
180.0
 51
201.9571482129213
  0
LINE
  5
3363A
330
3356C
100
AcDbEntity
  8
0
100
AcDbLine
 10
10.46189819658558
 20
8.033694916835862
 30
0.0
 11
10.46189819658558
 21
6.527946885339797
 31
0.0
  0
LINE
  5
3363B
330
3356C
100
AcDbEntity
  8
0
100
AcDbLine
 10
10.46189819658558
 20
12.32798625541854
 30
0.0
 11
10.46189819658558
 21
8.033694916835862
 31
0.0
  0
LINE
  5
3363C
330
3356C
100
AcDbEntity
  8
0
100
AcDbLine
 10
8.434339141467475
 20
8.880151609749248
 30
0.0
 11
8.434339141467475
 21
12.71168704282011
 31
0.0
  0
LINE
  5
3363D
330
3356C
100
AcDbEntity
  8
0
100
AcDbLine
 10
9.123315519420232
 20
12.72168704282012
 30
0.0
 11
10.06819740918401
 21
12.72168704282012
 31
0.0
  0
LINE
  5
3363E
330
3356C
100
AcDbEntity
  8
0
100
AcDbLine
 10
8.444339141467475
 20
12.72168704282012
 30
0.0
 11
9.123315519420232
 21
12.72168704282012
 31
0.0
  0
ARC
  5
3363F
330
3356C
100
AcDbEntity
  8
0
100
AcDbCircle
 10
8.444339141467475
 20
12.71168704282011
 30
0.0
 40
0.0100000000000016
100
AcDbArc
 50
90.0
 51
180.0
  0
ARC
  5
33640
330
3356C
100
AcDbEntity
  8
0
100
AcDbCircle
 10
10.06819740918401
 20
12.32798625541854
 30
0.0
 40
0.3937007874015759
100
AcDbArc
 50
0.0000000000000323
 51
90.0
  0
LWPOLYLINE
  5
33641
330
3356C
100
AcDbEntity
  8
0
100
AcDbPolyline
 90
        7
 70
     0
 43
0.0
 10
10.1304028406565
 20
12.89102289403271
 10
10.13098236110003
 20
12.87598669023161
 10
10.13035110299111
 20
12.86525073883446
 10
10.12904321246689
 20
12.85928838014602
 10
10.12684687502404
 20
12.85545435715963
 10
10.12431801911767
 20
12.85427845274161
 10
10.12399134567526
 20
12.85426608649802
  0
LWPOLYLINE
  5
33642
330
3356C
100
AcDbEntity
  8
0
100
AcDbPolyline
 90
        4
 70
     0
 43
0.0
 10
10.12319007778679
 20
12.98957730565373
 10
10.12756504538433
 20
12.92983641079261
 10
10.12816600954814
 20
12.92162092970292
 10
10.1304028406565
 20
12.89102289403271
  0
LWPOLYLINE
  5
33643
330
3356C
100
AcDbEntity
  8
0
100
AcDbPolyline
 90
       13
 70
     0
 43
0.0
 10
10.16339272567422
 20
12.82260178732897
 10
10.16344592159363
 20
12.82236130187285
 10
10.16214091155563
 20
12.8282866912151
 10
10.15899277339507
 20
12.84404537201216
 10
10.15523126070445
 20
12.86720304358878
 10
10.15354304893199
 20
12.88051034824192
 10
10.1521568496009
 20
12.89436901047475
 10
10.15115762396649
 20
12.90815255938769
 10
10.15055396100875
 20
12.92146536508784
 10
10.15031404061365
 20
12.93363359816683
 10
10.15034954237401
 20
12.94432854825737
 10
10.15078908916615
 20
12.95936023160089
 10
10.15101848114396
 20
12.96401281326335
  0
ARC
  5
33644
330
3356C
100
AcDbEntity
  8
0
100
AcDbCircle
 10
9.62389610013338
 20
12.88753195605999
 30
0.0
 40
0.0209394383372976
100
AcDbArc
 50
260.3998177143317
 51
353.7536354203358
  0
ARC
  5
33645
330
3356C
100
AcDbEntity
  8
0
100
AcDbCircle
 10
8.474619498168571
 20
12.86773800590187
 30
0.0
 40
1.145784809342293
100
AcDbArc
 50
359.9573830347403
 51
0.2034745443428088
  0
LWPOLYLINE
  5
33646
330
3356C
100
AcDbEntity
  8
0
100
AcDbPolyline
 90
        8
 70
     0
 43
0.0
 10
9.620397082350145
 20
12.87180702379344
 10
9.627336751782307
 20
12.87252961943953
 10
9.63214424795281
 20
12.87433835430699
 10
9.634827258424754
 20
12.87644355007818
 10
9.635545206925073
 20
12.87733951558494
 10
9.636857096252466
 20
12.88045318918625
 10
9.636898008110618
 20
12.88068936769492
 10
9.636882065664472
 20
12.88356300977864
  0
ARC
  5
33647
330
3356C
100
AcDbEntity
  8
0
100
AcDbCircle
 10
9.643980880263766
 20
12.86966265020445
 30
0.0
 40
0.0156081121538433
100
AcDbArc
 50
87.31799585778714
 51
117.0530772657835
  0
ARC
  5
33648
330
3356C
100
AcDbEntity
  8
0
100
AcDbCircle
 10
10.08475797178975
 20
13.04002274548611
 30
0.0
 40
0.0862006510095968
100
AcDbArc
 50
206.2014965366084
 51
226.7933951437456
  0
LWPOLYLINE
  5
33649
330
3356C
100
AcDbEntity
  8
0
100
AcDbPolyline
 90
        3
 70
     0
 43
0.0
 10
10.12035107755631
 20
12.86665141421559
 10
10.08469339567152
 20
12.91142812449699
 10
10.02574232230962
 20
12.97719197793615
  0
LWPOLYLINE
  5
3364A
330
3356C
100
AcDbEntity
  8
0
100
AcDbPolyline
 90
        6
 70
     0
 43
0.0
 10
9.240194970018734
 20
12.86688576395092
 10
9.234579231303815
 20
12.86782352780921
 10
9.231209867190868
 20
12.87010128446805
 10
9.229298152013946
 20
12.87383181059665
 10
9.229177549113863
 20
12.8792074130339
 10
9.230917369602826
 20
12.88525366556335
  0
LINE
  5
3364B
330
3356C
100
AcDbEntity
  8
0
100
AcDbLine
 10
9.24081005085746
 20
12.86688576395092
 30
0.0
 11
9.240194970018734
 21
12.86688576395092
 31
0.0
  0
ARC
  5
3364C
330
3356C
100
AcDbEntity
  8
0
100
AcDbCircle
 10
9.239444392000606
 20
12.89508281119499
 30
0.0
 40
0.0282300991389889
100
AcDbArc
 50
272.7728220067283
 51
339.6239861486167
  0
LWPOLYLINE
  5
3364D
330
3356C
100
AcDbEntity
  8
0
100
AcDbPolyline
 90
        4
 70
     0
 43
0.0
 10
9.303954649651908
 20
12.97827952500634
 10
9.296983936369617
 20
12.96123765591084
 10
9.269103669320331
 20
12.89306796198264
 10
9.265908072650683
 20
12.88525366556335
  0
LWPOLYLINE
  5
3364E
330
3356C
100
AcDbEntity
  8
0
100
AcDbPolyline
 90
        6
 70
     0
 43
0.0
 10
9.301334885873949
 20
12.9996830556921
 10
9.302948367386752
 20
12.99943299572302
 10
9.305633244461391
 20
12.9977351252649
 10
9.307102251100575
 20
12.99434783998481
 10
9.307220740427407
 20
12.9901612614957
 10
9.303954649651908
 20
12.97827952500634
  0
LINE
  5
3364F
330
3356C
100
AcDbEntity
  8
0
100
AcDbLine
 10
9.288230428833092
 20
12.9996830556921
 30
0.0
 11
9.301334885873952
 21
12.9996830556921
 31
0.0
  0
LWPOLYLINE
  5
33650
330
3356C
100
AcDbEntity
  8
0
100
AcDbPolyline
 90
        6
 70
     0
 43
0.0
 10
9.268922032054272
 20
12.97827952500634
 10
9.275216504964923
 20
12.9901612614957
 10
9.278595622313108
 20
12.99434783998481
 10
9.282615936175854
 20
12.9977351252649
 10
9.286488965812976
 20
12.99943299572302
 10
9.288230428833095
 20
12.9996830556921
  0
LWPOLYLINE
  5
33651
330
3356C
100
AcDbEntity
  8
0
100
AcDbPolyline
 90
        4
 70
     0
 43
0.0
 10
9.230917369602826
 20
12.88525366556335
 10
9.237879245987286
 20
12.90229648247921
 10
9.265729358645296
 20
12.97046571635881
 10
9.268922032054272
 20
12.97827952500634
  0
LWPOLYLINE
  5
33652
330
3356C
100
AcDbEntity
  8
0
100
AcDbPolyline
 90
        3
 70
     0
 43
0.0
 10
9.173554897245686
 20
12.92725340529051
 10
9.18208404736417
 20
12.94429572369545
 10
9.199093142360338
 20
12.97827929196825
  0
LWPOLYLINE
  5
33653
330
3356C
100
AcDbEntity
  8
0
100
AcDbPolyline
 90
        6
 70
     0
 43
0.0
 10
9.175994781563561
 20
12.90888576395092
 10
9.172263030396369
 20
12.90981586943292
 10
9.170413247911273
 20
12.91208756594833
 10
9.169913195065586
 20
12.91581788663519
 10
9.171021923470576
 20
12.92119894673984
 10
9.173554897245686
 20
12.92725340529051
  0
LINE
  5
33654
330
3356C
100
AcDbEntity
  8
0
100
AcDbLine
 10
9.176443952057793
 20
12.90888576395092
 30
0.0
 11
9.175994781563561
 21
12.90888576395092
 31
0.0
  0
ARC
  5
33655
330
3356C
100
AcDbEntity
  8
0
100
AcDbCircle
 10
9.170883224941393
 20
12.93770387333578
 30
0.0
 40
0.0293497038244098
100
AcDbArc
 50
280.9215349988027
 51
339.1411327459957
  0
LWPOLYLINE
  5
33656
330
3356C
100
AcDbEntity
  8
0
100
AcDbPolyline
 90
        3
 70
     0
 43
0.0
 10
9.223864639960538
 20
12.97827929196826
 10
9.215329117833643
 20
12.96123742906067
 10
9.198309359051311
 20
12.92725340529051
  0
LWPOLYLINE
  5
33657
330
3356C
100
AcDbEntity
  8
0
100
AcDbPolyline
 90
        6
 70
     0
 43
0.0
 10
9.226331728720754
 20
12.99968306096234
 10
9.22743961063078
 20
12.99943296086228
 10
9.229030541099243
 20
12.99773501456927
 10
9.22940888907828
 20
12.99434766570814
 10
9.228648696775273
 20
12.99016104923421
 10
9.223864639960538
 20
12.97827929196826
  0
LINE
  5
33658
330
3356C
100
AcDbEntity
  8
0
100
AcDbLine
 10
9.217065632178744
 20
12.99968306096234
 30
0.0
 11
9.226331728720754
 21
12.99968306096234
 31
0.0
  0
LWPOLYLINE
  5
33659
330
3356C
100
AcDbEntity
  8
0
100
AcDbPolyline
 90
        6
 70
     0
 43
0.0
 10
9.199093142360338
 20
12.97827929196825
 10
9.206018377558915
 20
12.99016104923421
 10
9.209251667885011
 20
12.99434766570813
 10
9.212754784467263
 20
12.99773501456927
 10
9.215800974385572
 20
12.99943296086228
 10
9.217065632178744
 20
12.99968306096234
  0
LWPOLYLINE
  5
3365A
330
3356C
100
AcDbEntity
  8
0
100
AcDbPolyline
 90
        3
 70
     0
 43
0.0
 10
9.129456840294674
 20
12.92725340529051
 10
9.138971577024301
 20
12.94429572369545
 10
9.157946142796205
 20
12.97827929196825
  0
LWPOLYLINE
  5
3365B
330
3356C
100
AcDbEntity
  8
0
100
AcDbPolyline
 90
        6
 70
     0
 43
0.0
 10
9.124914334964957
 20
12.90888576395092
 10
9.123301274373332
 20
12.90981586943292
 10
9.123099146702383
 20
12.91208756594833
 10
9.124046580493654
 20
12.91581788663519
 10
9.126307090546587
 20
12.92119894673984
 10
9.129456840294674
 20
12.92725340529051
  0
LINE
  5
3365C
330
3356C
100
AcDbEntity
  8
0
100
AcDbLine
 10
9.125146842721763
 20
12.90888576395092
 30
0.0
 11
9.124914334964957
 21
12.90888576395092
 31
0.0
  0
ARC
  5
3365D
330
3356C
100
AcDbEntity
  8
0
100
AcDbCircle
 10
9.110264536677897
 20
12.93992625556341
 30
0.0
 40
0.0344237585502877
100
AcDbArc
 50
295.615302056447
 51
338.398890908913
  0
LWPOLYLINE
  5
3365E
330
3356C
100
AcDbEntity
  8
0
100
AcDbPolyline
 90
        3
 70
     0
 43
0.0
 10
9.170768813505494
 20
12.97827929196825
 10
9.161250370523331
 20
12.96123742906067
 10
9.142270692627793
 20
12.92725340529051
  0
LWPOLYLINE
  5
3365F
330
3356C
100
AcDbEntity
  8
0
100
AcDbPolyline
 90
        6
 70
     0
 43
0.0
 10
9.178154414224716
 20
12.99968306096234
 10
9.178681042296974
 20
12.99943296086228
 10
9.179069651863525
 20
12.99773501456927
 10
9.178331635560212
 20
12.99434766570813
 10
9.176744644877032
 20
12.99016104923421
 10
9.170768813505493
 20
12.97827929196826
  0
LINE
  5
33660
330
3356C
100
AcDbEntity
  8
0
100
AcDbLine
 10
9.173357929707051
 20
12.99968306096234
 30
0.0
 11
9.178154414224716
 21
12.99968306096234
 31
0.0
  0
ARC
  5
33661
330
3356C
100
AcDbEntity
  8
0
100
AcDbCircle
 10
9.199342566737152
 20
12.96472230519363
 30
0.0
 40
0.0435597957468326
100
AcDbArc
 50
126.6216352531527
 51
161.8668061543913
  0
LINE
  5
33662
330
3356C
100
AcDbEntity
  8
0
100
AcDbLine
 10
9.083322318012935
 20
12.86688576395092
 30
0.0
 11
9.083322141768331
 21
12.86688576395092
 31
0.0
  0
ARC
  5
33663
330
3356C
100
AcDbEntity
  8
0
100
AcDbCircle
 10
8.776281751333561
 20
13.0664752698995
 30
0.0
 40
0.3662101588863793
100
AcDbArc
 50
326.9744090589501
 51
330.339688930803
  0
LWPOLYLINE
  5
33664
330
3356C
100
AcDbEntity
  8
0
100
AcDbPolyline
 90
        4
 70
     0
 43
0.0
 10
9.148285392384693
 20
12.97827952500634
 10
9.138432705251739
 20
12.96123765591084
 10
9.099025792542814
 20
12.89306796198264
 10
9.094509045250063
 20
12.88525366556335
  0
LINE
  5
33665
330
3356C
100
AcDbEntity
  8
0
100
AcDbLine
 10
9.150544026629527
 20
12.98224922168542
 30
0.0
 11
9.148285392384693
 21
12.97827952500634
 31
0.0
  0
LWPOLYLINE
  5
33666
330
3356C
100
AcDbEntity
  8
0
100
AcDbPolyline
 90
        3
 70
     0
 43
0.0
 10
9.347939728929322
 20
12.92725340529051
 10
9.352860740523427
 20
12.94429572369545
 10
9.36267440600031
 20
12.97827929196825
  0
ARC
  5
33667
330
3356C
100
AcDbEntity
  8
0
100
AcDbCircle
 10
9.360958324432507
 20
12.92252345440005
 30
0.0
 40
0.013851218874225
100
AcDbArc
 50
160.0327692756225
 51
280.0735137775417
  0
LINE
  5
33668
330
3356C
100
AcDbEntity
  8
0
100
AcDbLine
 10
9.36415904939567
 20
12.90888576395092
 30
0.0
 11
9.363381063278401
 21
12.90888576395092
 31
0.0
  0
ARC
  5
33669
330
3356C
100
AcDbEntity
  8
0
100
AcDbCircle
 10
9.365370178537386
 20
12.9356550887747
 30
0.0
 40
0.0267967084791965
100
AcDbArc
 50
267.4095238040134
 51
341.7276549659257
  0
LWPOLYLINE
  5
3366A
330
3356C
100
AcDbEntity
  8
0
100
AcDbPolyline
 90
        3
 70
     0
 43
0.0
 10
9.405579898423427
 20
12.97827929196825
 10
9.400648638108675
 20
12.96123742906067
 10
9.390815714490683
 20
12.92725340529051
  0
LWPOLYLINE
  5
3366B
330
3356C
100
AcDbEntity
  8
0
100
AcDbPolyline
 90
        6
 70
     0
 43
0.0
 10
9.398052225308415
 20
12.99968306096234
 10
9.400061647663703
 20
12.99943296086228
 10
9.403657414501497
 20
12.99773501456927
 10
9.40611681841835
 20
12.99434766570814
 10
9.407105764996934
 20
12.99016104923421
 10
9.405579898423427
 20
12.97827929196825
  0
LINE
  5
3366C
330
3356C
100
AcDbEntity
  8
0
100
AcDbLine
 10
9.382002875309812
 20
12.99968306096234
 30
0.0
 11
9.398052225308415
 21
12.99968306096234
 31
0.0
  0
LWPOLYLINE
  5
3366D
330
3356C
100
AcDbEntity
  8
0
100
AcDbPolyline
 90
        6
 70
     0
 43
0.0
 10
9.36267440600031
 20
12.97827929196825
 10
9.367908902322707
 20
12.99016104923421
 10
9.371203487172213
 20
12.99434766570814
 10
9.375466977083283
 20
12.99773501456927
 10
9.379902938356186
 20
12.99943296086228
 10
9.382002875309812
 20
12.99968306096234
  0
LWPOLYLINE
  5
3366E
330
3356C
100
AcDbEntity
  8
0
100
AcDbPolyline
 90
        3
 70
     0
 43
0.0
 10
9.466342465567256
 20
12.92725340529051
 10
9.468886813925832
 20
12.94429572369545
 10
9.473960877289901
 20
12.97827929196825
  0
LWPOLYLINE
  5
3366F
330
3356C
100
AcDbEntity
  8
0
100
AcDbPolyline
 90
        6
 70
     0
 43
0.0
 10
9.486916832966235
 20
12.90888576395092
 10
9.478837113686847
 20
12.90981586943292
 10
9.473199843924893
 20
12.91208756594833
 10
9.46893819723774
 20
12.91581788663519
 10
9.466472246470877
 20
12.92119894673984
 10
9.466342465567256
 20
12.92725340529051
  0
LINE
  5
33670
330
3356C
100
AcDbEntity
  8
0
100
AcDbLine
 10
9.487784563727807
 20
12.90888576395092
 30
0.0
 11
9.486916832966235
 21
12.90888576395092
 31
0.0
  0
ARC
  5
33671
330
3356C
100
AcDbEntity
  8
0
100
AcDbCircle
 10
9.490561196404037
 20
12.93302529283652
 30
0.0
 40
0.0242986942825568
100
AcDbArc
 50
263.4384288704027
 51
346.2586644484348
  0
LWPOLYLINE
  5
33672
330
3356C
100
AcDbEntity
  8
0
100
AcDbPolyline
 90
        3
 70
     0
 43
0.0
 10
9.521815735865683
 20
12.97827929196826
 10
9.519260192021636
 20
12.96123742906067
 10
9.51416441351513
 20
12.92725340529051
  0
LWPOLYLINE
  5
33673
330
3356C
100
AcDbEntity
  8
0
100
AcDbPolyline
 90
        6
 70
     0
 43
0.0
 10
9.509892939339117
 20
12.99968306096234
 10
9.512161209810422
 20
12.99943296086228
 10
9.516422865830216
 20
12.99773501456927
 10
9.519705140879484
 20
12.99434766570813
 10
9.521497227035297
 20
12.99016104923421
 10
9.521815735865683
 20
12.97827929196826
  0
LINE
  5
33674
330
3356C
100
AcDbEntity
  8
0
100
AcDbLine
 10
9.491992215421479
 20
12.99968306096234
 30
0.0
 11
9.509892939339117
 21
12.99968306096234
 31
0.0
  0
LWPOLYLINE
  5
33675
330
3356C
100
AcDbEntity
  8
0
100
AcDbPolyline
 90
        6
 70
     0
 43
0.0
 10
9.473960877289901
 20
12.97827929196825
 10
9.477778807458816
 20
12.99016104923421
 10
9.480764379805886
 20
12.99434766570813
 10
9.484980518483768
 20
12.99773501456927
 10
9.489677091146356
 20
12.99943296086228
 10
9.491992215421479
 20
12.99968306096234
  0
LWPOLYLINE
  5
33676
330
3356C
100
AcDbEntity
  8
0
100
AcDbPolyline
 90
        6
 70
     0
 43
0.0
 10
9.619534134895275
 20
12.86688576395092
 10
9.610975598613695
 20
12.86782352780921
 10
9.604754507683619
 20
12.87010128446805
 10
9.599728879166148
 20
12.87383181059665
 10
9.596310649778148
 20
12.8792074130339
 10
9.595226899323693
 20
12.88525366556335
  0
LINE
  5
33677
330
3356C
100
AcDbEntity
  8
0
100
AcDbLine
 10
9.62040399055936
 20
12.86688576395092
 30
0.0
 11
9.619534134895275
 21
12.86688576395092
 31
0.0
  0
LWPOLYLINE
  5
33678
330
3356C
100
AcDbEntity
  8
0
100
AcDbPolyline
 90
        4
 70
     0
 43
0.0
 10
9.64474086419332
 20
12.97827952500634
 10
9.644735474063038
 20
12.96123765591084
 10
9.644713734988282
 20
12.89306796198264
 10
9.644711226130942
 20
12.88525366556335
  0
LWPOLYLINE
  5
33679
330
3356C
100
AcDbEntity
  8
0
100
AcDbPolyline
 90
        6
 70
     0
 43
0.0
 10
9.629235313164675
 20
12.9996830556921
 10
9.631607617194408
 20
12.99943299572302
 10
9.636244757500682
 20
12.9977351252649
 10
9.640126293251702
 20
12.99434783998481
 10
9.642599474649532
 20
12.9901612614957
 10
9.644740864193323
 20
12.97827952500634
  0
LINE
  5
3367A
330
3356C
100
AcDbEntity
  8
0
100
AcDbLine
 10
9.610702812289959
 20
12.9996830556921
 30
0.0
 11
9.629235313164675
 21
12.9996830556921
 31
0.0
  0
LWPOLYLINE
  5
3367B
330
3356C
100
AcDbEntity
  8
0
100
AcDbPolyline
 90
        6
 70
     0
 43
0.0
 10
9.595197261261317
 20
12.97827952500634
 10
9.597338650805101
 20
12.9901612614957
 10
9.599811832202931
 20
12.99434783998481
 10
9.603693367953953
 20
12.9977351252649
 10
9.60833050826023
 20
12.99943299572302
 10
9.610702812289959
 20
12.9996830556921
  0
LWPOLYLINE
  5
3367C
330
3356C
100
AcDbEntity
  8
0
100
AcDbPolyline
 90
        4
 70
     0
 43
0.0
 10
9.595226899323693
 20
12.88525366556335
 10
9.5952214318329
 20
12.90229648247921
 10
9.595199730327976
 20
12.97046571635881
 10
9.595197261261317
 20
12.97827952500634
  0
LWPOLYLINE
  5
3367D
330
3356C
100
AcDbEntity
  8
0
100
AcDbPolyline
 90
        3
 70
     0
 43
0.0
 10
9.725773711939512
 20
12.92725340529051
 10
9.723218336546862
 20
12.94429572369545
 10
9.718122389588961
 20
12.97827929196825
  0
ARC
  5
3367E
330
3356C
100
AcDbEntity
  8
0
100
AcDbCircle
 10
9.749235915669203
 20
12.93282276755031
 30
0.0
 40
0.0241141618107378
100
AcDbArc
 50
193.3534887404192
 51
276.9494179407581
  0
LINE
  5
3367F
330
3356C
100
AcDbEntity
  8
0
100
AcDbLine
 10
9.753021292488403
 20
12.90888576395092
 30
0.0
 11
9.752153561726835
 21
12.90888576395092
 31
0.0
  0
LWPOLYLINE
  5
33680
330
3356C
100
AcDbEntity
  8
0
100
AcDbPolyline
 90
        6
 70
     0
 43
0.0
 10
9.773595659887382
 20
12.92725340529051
 10
9.773713282841962
 20
12.92274239392063
 10
9.772102740269616
 20
12.91751102730754
 10
9.767879015584226
 20
12.91283041263077
 10
9.761822638284007
 20
12.91001016808983
 10
9.753021292488403
 20
12.90888576395092
  0
LWPOLYLINE
  5
33681
330
3356C
100
AcDbEntity
  8
0
100
AcDbPolyline
 90
        3
 70
     0
 43
0.0
 10
9.765977248164741
 20
12.97827929196826
 10
9.768521835930187
 20
12.96123742906067
 10
9.773595659887382
 20
12.92725340529051
  0
ARC
  5
33682
330
3356C
100
AcDbEntity
  8
0
100
AcDbCircle
 10
9.745141821913287
 20
12.97902376950082
 30
0.0
 40
0.0208487225957913
100
AcDbArc
 50
357.9536160761702
 51
82.27047214672642
  0
LINE
  5
33683
330
3356C
100
AcDbEntity
  8
0
100
AcDbLine
 10
9.730045186115523
 20
12.99968306096234
 30
0.0
 11
9.747945910033159
 21
12.99968306096234
 31
0.0
  0
LWPOLYLINE
  5
33684
330
3356C
100
AcDbEntity
  8
0
100
AcDbPolyline
 90
        6
 70
     0
 43
0.0
 10
9.718122389588961
 20
12.97827929196825
 10
9.718440898419343
 20
12.99016104923421
 10
9.720232984575156
 20
12.99434766570813
 10
9.723515259624422
 20
12.99773501456927
 10
9.72777691564422
 20
12.99943296086228
 10
9.730045186115523
 20
12.99968306096234
  0
LWPOLYLINE
  5
33685
330
3356C
100
AcDbEntity
  8
0
100
AcDbPolyline
 90
        3
 70
     0
 43
0.0
 10
9.849122410963962
 20
12.92725340529051
 10
9.844191512801575
 20
12.94429572369545
 10
9.83435822703122
 20
12.97827929196825
  0
ARC
  5
33686
330
3356C
100
AcDbEntity
  8
0
100
AcDbCircle
 10
9.874504617544499
 20
12.93556317986549
 30
0.0
 40
0.0267078408783663
100
AcDbArc
 50
198.1277130269596
 51
272.735108203115
  0
LINE
  5
33687
330
3356C
100
AcDbEntity
  8
0
100
AcDbLine
 10
9.876557062176246
 20
12.90888576395092
 30
0.0
 11
9.875779076058977
 21
12.90888576395092
 31
0.0
  0
ARC
  5
33688
330
3356C
100
AcDbEntity
  8
0
100
AcDbCircle
 10
9.878890979700434
 20
12.92259812483271
 30
0.0
 40
0.0139095654843032
100
AcDbArc
 50
260.3405184766555
 51
19.55319847020732
  0
LWPOLYLINE
  5
33689
330
3356C
100
AcDbEntity
  8
0
100
AcDbPolyline
 90
        3
 70
     0
 43
0.0
 10
9.877263719454335
 20
12.97827929196825
 10
9.882185156817744
 20
12.96123742906067
 10
9.891998396525323
 20
12.92725340529051
  0
ARC
  5
3368A
330
3356C
100
AcDbEntity
  8
0
100
AcDbCircle
 10
9.85328711788216
 20
12.97605653011978
 30
0.0
 40
0.0240794122267533
100
AcDbArc
 50
5.29649292375412
 51
78.87013334337983
  0
LINE
  5
3368B
330
3356C
100
AcDbEntity
  8
0
100
AcDbLine
 10
9.84188590014623
 20
12.99968306096234
 30
0.0
 11
9.857935250144832
 21
12.99968306096234
 31
0.0
  0
LWPOLYLINE
  5
3368C
330
3356C
100
AcDbEntity
  8
0
100
AcDbPolyline
 90
        6
 70
     0
 43
0.0
 10
9.83435822703122
 20
12.97827929196825
 10
9.832832360457713
 20
12.99016104923421
 10
9.833821307036297
 20
12.99434766570813
 10
9.836280710953149
 20
12.99773501456927
 10
9.839876477790943
 20
12.99943296086228
 10
9.841885900146227
 20
12.99968306096234
  0
ARC
  5
3368D
330
3356C
100
AcDbEntity
  8
0
100
AcDbCircle
 10
10.00056571543934
 20
12.89518116785401
 30
0.0
 40
0.0283319023934148
100
AcDbArc
 50
200.5117908189734
 51
267.0914010256784
  0
LINE
  5
3368E
330
3356C
100
AcDbEntity
  8
0
100
AcDbLine
 10
9.999743155435906
 20
12.86688576395092
 30
0.0
 11
9.999128074597177
 21
12.86688576395092
 31
0.0
  0
LWPOLYLINE
  5
3368F
330
3356C
100
AcDbEntity
  8
0
100
AcDbPolyline
 90
        6
 70
     0
 43
0.0
 10
10.00902075585181
 20
12.88525366556335
 10
10.01046512286377
 20
12.88076380183523
 10
10.01091132551511
 20
12.87552989342043
 10
10.00931673298347
 20
12.87084078991642
 10
10.00581286718016
 20
12.86801476884677
 10
9.999743155435906
 20
12.86688576395092
  0
LWPOLYLINE
  5
33690
330
3356C
100
AcDbEntity
  8
0
100
AcDbPolyline
 90
        4
 70
     0
 43
0.0
 10
9.971016093400367
 20
12.97827952500634
 10
9.977979183887311
 20
12.96123765591084
 10
10.00582870724224
 20
12.89306796198264
 10
10.00902075585181
 20
12.88525366556335
  0
ARC
  5
33691
330
3356C
100
AcDbEntity
  8
0
100
AcDbCircle
 10
9.943884147988748
 20
12.9732143928565
 30
0.0
 40
0.0276006888594212
100
AcDbArc
 50
10.57454851012001
 51
73.53349139996594
  0
LINE
  5
33692
330
3356C
100
AcDbEntity
  8
0
100
AcDbLine
 10
9.93860323958069
 20
12.9996830556921
 30
0.0
 11
9.951707696621546
 21
12.9996830556921
 31
0.0
  0
LWPOLYLINE
  5
33693
330
3356C
100
AcDbEntity
  8
0
100
AcDbPolyline
 90
        6
 70
     0
 43
0.0
 10
9.93598347580273
 20
12.97827952500634
 10
9.932717385027231
 20
12.9901612614957
 10
9.932835874354063
 20
12.99434783998482
 10
9.934304880993249
 20
12.9977351252649
 10
9.936989758067886
 20
12.99943299572302
 10
9.93860323958069
 20
12.9996830556921
  0
LWPOLYLINE
  5
33694
330
3356C
100
AcDbEntity
  8
0
100
AcDbPolyline
 90
        4
 70
     0
 43
0.0
 10
9.974030052803961
 20
12.88525366556335
 10
9.967060444219866
 20
12.90229648247921
 10
9.939179640999267
 20
12.97046571635881
 10
9.93598347580273
 20
12.97827952500634
  0
ARC
  5
33695
330
3356C
100
AcDbEntity
  8
0
100
AcDbCircle
 10
9.595957245190875
 20
12.86966265020447
 30
0.0
 40
0.0156081121538246
100
AcDbArc
 50
62.94692273420428
 51
92.68200414223574
  0
LWPOLYLINE
  5
33696
330
3356C
100
AcDbEntity
  8
0
100
AcDbPolyline
 90
        8
 70
     0
 43
0.0
 10
9.603056059790164
 20
12.88356300977865
 10
9.603262461394765
 20
12.87969323404166
 10
9.604581349148881
 20
12.87708006994807
 10
9.605290069268775
 20
12.87625269367685
 10
9.607942133210404
 20
12.8742548515169
 10
9.608697004286613
 20
12.87386504952399
 10
9.613160449307072
 20
12.87240721966818
 10
9.619541043104494
 20
12.87180702379344
  0
ARC
  5
33697
330
3356C
100
AcDbEntity
  8
0
100
AcDbCircle
 10
10.76531862579341
 20
12.86773800590355
 30
0.0
 40
1.145784807849643
100
AcDbArc
 50
179.7965254554761
 51
180.042616965401
  0
LINE
  5
33698
330
3356C
100
AcDbEntity
  8
0
100
AcDbLine
 10
9.619541043104495
 20
12.87180702379344
 30
0.0
 11
9.620397082350145
 21
12.87180702379344
 31
0.0
  0
ARC
  5
33699
330
3356C
100
AcDbEntity
  8
0
100
AcDbCircle
 10
9.6188281111068
 20
12.88638585780832
 30
0.0
 40
0.0146234117713259
100
AcDbArc
 50
274.4748941362632
 51
348.8699725977336
  0
LINE
  5
3369A
330
3356C
100
AcDbEntity
  8
0
100
AcDbLine
 10
9.633176480381216
 20
12.88356300977864
 30
0.0
 11
9.636882065664472
 21
12.88356300977864
 31
0.0
  0
ARC
  5
3369B
330
3356C
100
AcDbEntity
  8
0
100
AcDbCircle
 10
9.621110014347836
 20
12.88638585780832
 30
0.0
 40
0.0146234117713222
100
AcDbArc
 50
191.1300274022501
 51
265.5251058637373
  0
LINE
  5
3369C
330
3356C
100
AcDbEntity
  8
0
100
AcDbLine
 10
9.603056059790164
 20
12.88356300977865
 30
0.0
 11
9.606761645073419
 21
12.88356300977865
 31
0.0
  0
ARC
  5
3369D
330
3356C
100
AcDbEntity
  8
0
100
AcDbCircle
 10
9.619969062727319
 20
12.91023369853061
 30
0.0
 40
0.0297617459096179
100
AcDbArc
 50
243.655227045302
 51
296.344772954692
  0
LINE
  5
3369E
330
3356C
100
AcDbEntity
  8
0
100
AcDbLine
 10
9.636882065664472
 20
12.88356300977864
 30
0.0
 11
9.636865581122572
 21
12.97658886922164
 31
0.0
  0
ARC
  5
3369F
330
3356C
100
AcDbEntity
  8
0
100
AcDbCircle
 10
9.64397376886726
 20
12.96266540200316
 30
0.0
 40
0.0156329546918553
100
AcDbArc
 50
87.18741708262449
 51
117.0451529153512
  0
ARC
  5
336A0
330
3356C
100
AcDbEntity
  8
0
100
AcDbCircle
 10
9.595964356587382
 20
12.96266540200316
 30
0.0
 40
0.0156329546918555
100
AcDbArc
 50
62.95484708466331
 51
92.81258291738849
  0
LINE
  5
336A1
330
3356C
100
AcDbEntity
  8
0
100
AcDbLine
 10
9.603072544332064
 20
12.97658886922164
 30
0.0
 11
9.603056059790164
 21
12.88356300977865
 31
0.0
  0
LINE
  5
336A2
330
3356C
100
AcDbEntity
  8
0
100
AcDbLine
 10
9.633176480381216
 20
12.96810638743575
 30
0.0
 11
9.633176480381216
 21
12.88356300977864
 31
0.0
  0
LINE
  5
336A3
330
3356C
100
AcDbEntity
  8
0
100
AcDbLine
 10
9.636865581122572
 20
12.97658886922164
 30
0.0
 11
9.633176480381216
 21
12.96810638743575
 31
0.0
  0
LINE
  5
336A4
330
3356C
100
AcDbEntity
  8
0
100
AcDbLine
 10
9.606761645073419
 20
12.88356300977865
 30
0.0
 11
9.606761645073419
 21
12.96810638743575
 31
0.0
  0
LINE
  5
336A5
330
3356C
100
AcDbEntity
  8
0
100
AcDbLine
 10
9.606761645073419
 20
12.96810638743575
 30
0.0
 11
9.603072544332064
 21
12.97658886922164
 31
0.0
  0
ARC
  5
336A6
330
3356C
100
AcDbEntity
  8
0
100
AcDbCircle
 10
9.619969062727319
 20
12.9947770761877
 30
0.0
 40
0.0297617459096035
100
AcDbArc
 50
243.6552270452883
 51
296.3447729547072
  0
LWPOLYLINE
  5
336A7
330
3356C
100
AcDbEntity
  8
0
100
AcDbPolyline
 90
        8
 70
     0
 43
0.0
 10
9.489983485854773
 20
12.91380702379344
 10
9.496428039437232
 20
12.91452667482259
 10
9.501174963744713
 20
12.91633171254534
 10
9.504052602089091
 20
12.91843872192547
 10
9.504881776191412
 20
12.91932744072939
 10
9.506704322344132
 20
12.92244592661156
 10
9.506786214396727
 20
12.92267566601307
 10
9.507339513820239
 20
12.92556284319653
  0
ARC
  5
336A8
330
3356C
100
AcDbEntity
  8
0
100
AcDbCircle
 10
9.51322967867806
 20
12.91640544142071
 30
0.0
 40
0.0108881609712661
100
AcDbArc
 50
85.07516783435056
 51
122.7496729717828
  0
LWPOLYLINE
  5
336A9
330
3356C
100
AcDbEntity
  8
0
100
AcDbPolyline
 90
        9
 70
     0
 43
0.0
 10
9.489983485854773
 20
12.91380702379344
 10
9.489652067248616
 20
12.91372281967311
 10
9.489326319306693
 20
12.91347164806794
 10
9.489011815666607
 20
12.91305780659375
 10
9.488713937572839
 20
12.9124883761929
 10
9.488437781802163
 20
12.91177309997741
 10
9.488188073456376
 20
12.91092421652166
 10
9.48796908511451
 20
12.90995625045691
 10
9.487784563727807
 20
12.90888576395092
  0
ARC
  5
336AA
330
3356C
100
AcDbEntity
  8
0
100
AcDbCircle
 10
9.726708446776598
 20
12.91640544142075
 30
0.0
 40
0.0108881609712231
100
AcDbArc
 50
57.25032702817159
 51
94.92483216574399
  0
ARC
  5
336AB
330
3356C
100
AcDbEntity
  8
0
100
AcDbCircle
 10
9.747587201029856
 20
12.92900172542466
 30
0.0
 40
0.0153780272806546
100
AcDbArc
 50
192.9219250646199
 51
278.8558718644542
  0
LWPOLYLINE
  5
336AC
330
3356C
100
AcDbEntity
  8
0
100
AcDbPolyline
 90
        9
 70
     0
 43
0.0
 10
9.752153561726835
 20
12.90888576395092
 10
9.751969040340132
 20
12.90995625045691
 10
9.751750051998262
 20
12.91092421652166
 10
9.751500343652475
 20
12.91177309997741
 10
9.751224187881801
 20
12.9124883761929
 10
9.750926309788033
 20
12.91305780659375
 10
9.750611806147952
 20
12.91347164806794
 10
9.750286058206027
 20
12.91372281967311
 10
9.749954639599867
 20
12.91380702379344
  0
LWPOLYLINE
  5
336AD
330
3356C
100
AcDbEntity
  8
0
100
AcDbPolyline
 90
        8
 70
     0
 43
0.0
 10
9.750807935443679
 20
12.91380702379344
 10
9.75773876263597
 20
12.91452667482259
 10
9.762269848813387
 20
12.91633171254534
 10
9.764579729862743
 20
12.91843872192547
 10
9.765126612429243
 20
12.91932744072939
 10
9.76584475103243
 20
12.92244592661156
 10
9.76583998923192
 20
12.92267566601308
 10
9.765257952104706
 20
12.92556284319653
  0
ARC
  5
336AE
330
3356C
100
AcDbEntity
  8
0
100
AcDbCircle
 10
9.773149665887832
 20
12.90804729738945
 30
0.0
 40
0.0192112855206196
100
AcDbArc
 50
88.66974702321412
 51
114.2541759876764
  0
LWPOLYLINE
  5
336AF
330
3356C
100
AcDbEntity
  8
0
100
AcDbPolyline
 90
        9
 70
     0
 43
0.0
 10
9.750807935443679
 20
12.91380702379344
 10
9.751141529661364
 20
12.91372281967311
 10
9.751469415989495
 20
12.91347164806794
 10
9.751785984202092
 20
12.91305780659375
 10
9.752085817729264
 20
12.9124883761929
 10
9.752363786336236
 20
12.91177309997741
 10
9.75261513390307
 20
12.91092421652166
 10
9.752835559803216
 20
12.90995625045691
 10
9.753021292488403
 20
12.90888576395092
  0
ARC
  5
336B0
330
3356C
100
AcDbEntity
  8
0
100
AcDbCircle
 10
9.466788459566831
 20
12.90804729738954
 30
0.0
 40
0.019211285520526
100
AcDbArc
 50
65.74582401228504
 51
91.33025297686657
  0
LWPOLYLINE
  5
336B1
330
3356C
100
AcDbEntity
  8
0
100
AcDbPolyline
 90
        8
 70
     0
 43
0.0
 10
9.474680173349931
 20
12.92556284319653
 10
9.474127441873495
 20
12.92168781536964
 10
9.474948038455536
 20
12.91907427156895
 10
9.475505548945092
 20
12.91824378194054
 10
9.477801476043564
 20
12.91624886194985
 10
9.478497671735118
 20
12.9158562692763
 10
9.482755538370156
 20
12.91440231808681
 10
9.489130190010961
 20
12.91380702379344
  0
LWPOLYLINE
  5
336B2
330
3356C
100
AcDbEntity
  8
0
100
AcDbPolyline
 90
        9
 70
     0
 43
0.0
 10
9.486916832966235
 20
12.90888576395092
 10
9.487102565651426
 20
12.90995625045691
 10
9.487322991551572
 20
12.91092421652166
 10
9.487574339118406
 20
12.91177309997741
 10
9.487852307725377
 20
12.9124883761929
 10
9.488152141252546
 20
12.91305780659375
 10
9.488468709465145
 20
12.91347164806794
 10
9.488796595793273
 20
12.91372281967311
 10
9.489130190010961
 20
12.91380702379344
  0
LINE
  5
336B3
330
3356C
100
AcDbEntity
  8
0
100
AcDbLine
 10
9.489130190010961
 20
12.91380702379344
 30
0.0
 11
9.489983485854773
 21
12.91380702379344
 31
0.0
  0
LINE
  5
336B4
330
3356C
100
AcDbEntity
  8
0
100
AcDbLine
 10
9.749954639599867
 20
12.91380702379344
 30
0.0
 11
9.750807935443679
 21
12.91380702379344
 31
0.0
  0
ARC
  5
336B5
330
3356C
100
AcDbEntity
  8
0
100
AcDbCircle
 10
9.48932837934651
 20
12.93017666821265
 30
0.0
 40
0.0163740624538407
100
AcDbArc
 50
271.3310173989203
 51
343.6337431898214
  0
LINE
  5
336B6
330
3356C
100
AcDbEntity
  8
0
100
AcDbLine
 10
9.505038966221698
 20
12.92556284319653
 30
0.0
 11
9.507339513820239
 21
12.92556284319653
 31
0.0
  0
ARC
  5
336B7
330
3356C
100
AcDbEntity
  8
0
100
AcDbCircle
 10
9.75060974610813
 20
12.93017666821264
 30
0.0
 40
0.0163740624538364
100
AcDbArc
 50
196.3662568101581
 51
268.668982601087
  0
LINE
  5
336B8
330
3356C
100
AcDbEntity
  8
0
100
AcDbLine
 10
9.732598611634399
 20
12.92556284319653
 30
0.0
 11
9.73489915923294
 21
12.92556284319653
 31
0.0
  0
LINE
  5
336B9
330
3356C
100
AcDbEntity
  8
0
100
AcDbLine
 10
9.507339513820239
 20
12.92556284319653
 30
0.0
 11
9.514964856087976
 21
12.97658872987428
 31
0.0
  0
ARC
  5
336BA
330
3356C
100
AcDbEntity
  8
0
100
AcDbCircle
 10
9.520863449322119
 20
12.96741173708656
 30
0.0
 40
0.0109091978975429
100
AcDbArc
 50
84.99215873397572
 51
122.7312407355567
  0
ARC
  5
336BB
330
3356C
100
AcDbEntity
  8
0
100
AcDbCircle
 10
9.719074676132528
 20
12.96741173708657
 30
0.0
 40
0.0109091978975329
100
AcDbArc
 50
57.26875926444154
 51
95.00784126606637
  0
LINE
  5
336BC
330
3356C
100
AcDbEntity
  8
0
100
AcDbLine
 10
9.724973269366666
 20
12.97658872987428
 30
0.0
 11
9.732598611634399
 21
12.92556284319653
 31
0.0
  0
ARC
  5
336BD
330
3356C
100
AcDbEntity
  8
0
100
AcDbCircle
 10
9.747691140521062
 20
12.92629555863021
 30
0.0
 40
0.0127438716942874
100
AcDbArc
 50
281.4887160804942
 51
356.7039321045254
  0
LINE
  5
336BE
330
3356C
100
AcDbEntity
  8
0
100
AcDbLine
 10
9.760413930853914
 20
12.92556284319653
 30
0.0
 11
9.765257952104706
 21
12.92556284319653
 31
0.0
  0
ARC
  5
336BF
330
3356C
100
AcDbEntity
  8
0
100
AcDbCircle
 10
9.492246984933574
 20
12.92629555863021
 30
0.0
 40
0.0127438716942826
100
AcDbArc
 50
183.2960678954695
 51
258.5112839195293
  0
LINE
  5
336C0
330
3356C
100
AcDbEntity
  8
0
100
AcDbLine
 10
9.474680173349931
 20
12.92556284319653
 30
0.0
 11
9.479524194600726
 21
12.92556284319653
 31
0.0
  0
ARC
  5
336C1
330
3356C
100
AcDbEntity
  8
0
100
AcDbCircle
 10
9.492281580411212
 20
12.95011353056608
 30
0.0
 40
0.0276674383171798
100
AcDbArc
 50
242.5420520621598
 51
297.4579479378418
  0
ARC
  5
336C2
330
3356C
100
AcDbEntity
  8
0
100
AcDbCircle
 10
9.747656545043428
 20
12.95011353056608
 30
0.0
 40
0.0276674383171814
100
AcDbArc
 50
242.5420520621615
 51
297.4579479378402
  0
LINE
  5
336C3
330
3356C
100
AcDbEntity
  8
0
100
AcDbLine
 10
9.511401746498146
 20
12.96810717984978
 30
0.0
 11
9.505038966221698
 21
12.92556284319653
 31
0.0
  0
LINE
  5
336C4
330
3356C
100
AcDbEntity
  8
0
100
AcDbLine
 10
9.514964856087976
 20
12.97658872987428
 30
0.0
 11
9.511401746498146
 21
12.96810717984978
 31
0.0
  0
LINE
  5
336C5
330
3356C
100
AcDbEntity
  8
0
100
AcDbLine
 10
9.73489915923294
 20
12.92556284319653
 30
0.0
 11
9.728536378956494
 21
12.96810717984978
 31
0.0
  0
LINE
  5
336C6
330
3356C
100
AcDbEntity
  8
0
100
AcDbLine
 10
9.728536378956494
 20
12.96810717984978
 30
0.0
 11
9.724973269366667
 21
12.97658872987428
 31
0.0
  0
LINE
  5
336C7
330
3356C
100
AcDbEntity
  8
0
100
AcDbLine
 10
9.479524194600726
 20
12.92556284319653
 30
0.0
 11
9.485886974877171
 21
12.96810717984978
 31
0.0
  0
ARC
  5
336C8
330
3356C
100
AcDbEntity
  8
0
100
AcDbCircle
 10
9.498644360687659
 20
12.99265786721933
 30
0.0
 40
0.0276674383171798
100
AcDbArc
 50
242.5420520621598
 51
297.4579479378418
  0
LINE
  5
336C9
330
3356C
100
AcDbEntity
  8
0
100
AcDbLine
 10
9.754051150577465
 20
12.96810717984978
 30
0.0
 11
9.760413930853914
 21
12.92556284319653
 31
0.0
  0
ARC
  5
336CA
330
3356C
100
AcDbEntity
  8
0
100
AcDbCircle
 10
9.741293764766982
 20
12.99265786721933
 30
0.0
 40
0.0276674383171854
100
AcDbArc
 50
242.5420520621616
 51
297.4579479378368
  0
ARC
  5
336CB
330
3356C
100
AcDbEntity
  8
0
100
AcDbCircle
 10
9.47443094294525
 20
12.9590740637773
 30
0.0
 40
0.0192109799746605
100
AcDbArc
 50
65.74145993102407
 51
91.40208705657057
  0
LINE
  5
336CC
330
3356C
100
AcDbEntity
  8
0
100
AcDbLine
 10
9.482323865287343
 20
12.97658872987428
 30
0.0
 11
9.474680173349931
 21
12.92556284319653
 31
0.0
  0
LINE
  5
336CD
330
3356C
100
AcDbEntity
  8
0
100
AcDbLine
 10
9.765257952104706
 20
12.92556284319653
 30
0.0
 11
9.757614260167297
 21
12.97658872987428
 31
0.0
  0
ARC
  5
336CE
330
3356C
100
AcDbEntity
  8
0
100
AcDbCircle
 10
9.765507182509407
 20
12.95907406377723
 30
0.0
 40
0.0192109799747399
100
AcDbArc
 50
88.59791294348825
 51
114.2585400689333
  0
LINE
  5
336CF
330
3356C
100
AcDbEntity
  8
0
100
AcDbLine
 10
9.485886974877171
 20
12.96810717984978
 30
0.0
 11
9.482323865287343
 21
12.97658872987428
 31
0.0
  0
LINE
  5
336D0
330
3356C
100
AcDbEntity
  8
0
100
AcDbLine
 10
9.757614260167297
 20
12.97658872987428
 30
0.0
 11
9.754051150577465
 21
12.96810717984978
 31
0.0
  0
LINE
  5
336D1
330
3356C
100
AcDbEntity
  8
0
100
AcDbLine
 10
9.610874526183943
 20
12.99476179584958
 30
0.0
 11
9.610702812289959
 21
12.9996830556921
 31
0.0
  0
LWPOLYLINE
  5
336D2
330
3356C
100
AcDbEntity
  8
0
100
AcDbPolyline
 90
        9
 70
     0
 43
0.0
 10
9.610874526183943
 20
12.99476179584958
 10
9.609283880052863
 20
12.99483259554534
 10
9.607439815408813
 20
12.9944285785206
 10
9.606333450844475
 20
12.99383120779731
 10
9.604556296675717
 20
12.99191669354879
 10
9.604121792855043
 20
12.99113964416458
 10
9.602978690225183
 20
12.98751266901681
 10
9.602925818632961
 20
12.97772390952798
 10
9.603072544332064
 20
12.97658886922164
  0
LWPOLYLINE
  5
336D3
330
3356C
100
AcDbEntity
  8
0
100
AcDbPolyline
 90
        8
 70
     0
 43
0.0
 10
9.636865581122572
 20
12.97658886922164
 10
9.636959435229453
 20
12.98751266901681
 10
9.635816332599594
 20
12.99113964416457
 10
9.63463601775196
 20
12.99291228541882
 10
9.633604674610159
 20
12.99383120779731
 10
9.631907207873027
 20
12.9946269397421
 10
9.630654245401773
 20
12.99483259554534
 10
9.629063599270708
 20
12.99476179584972
  0
LINE
  5
336D4
330
3356C
100
AcDbEntity
  8
0
100
AcDbLine
 10
9.629063599270693
 20
12.99476179584958
 30
0.0
 11
9.629235313164675
 21
12.9996830556921
 31
0.0
  0
LINE
  5
336D5
330
3356C
100
AcDbEntity
  8
0
100
AcDbLine
 10
9.633176480381216
 20
12.96810638743575
 30
0.0
 11
9.619969062727316
 21
12.97385040145055
 31
0.0
  0
LINE
  5
336D6
330
3356C
100
AcDbEntity
  8
0
100
AcDbLine
 10
9.619969062727316
 20
12.97385040145055
 30
0.0
 11
9.629063599270693
 21
12.99476179584958
 31
0.0
  0
LINE
  5
336D7
330
3356C
100
AcDbEntity
  8
0
100
AcDbLine
 10
9.619969062727316
 20
12.97385040145055
 30
0.0
 11
9.606761645073419
 21
12.96810638743575
 31
0.0
  0
LINE
  5
336D8
330
3356C
100
AcDbEntity
  8
0
100
AcDbLine
 10
9.610874526183943
 20
12.99476179584958
 30
0.0
 11
9.619969062727316
 21
12.97385040145055
 31
0.0
  0
LWPOLYLINE
  5
336D9
330
3356C
100
AcDbEntity
  8
0
100
AcDbPolyline
 90
        8
 70
     0
 43
0.0
 10
9.514964856087976
 20
12.97658872987428
 10
9.516175817314682
 20
12.9875125378827
 10
9.515453992938155
 20
12.9911395415943
 10
9.51450764086682
 20
12.99291220921728
 10
9.513617057091504
 20
12.99383115497915
 10
9.512079531902063
 20
12.99462691831569
 10
9.510906783790751
 20
12.99483260019688
 10
9.509385340412793
 20
12.99476180111997
  0
ARC
  5
336DA
330
3356C
100
AcDbEntity
  8
0
100
AcDbCircle
 10
9.543474710670436
 20
12.9937324914814
 30
0.0
 40
0.0341049064343622
100
AcDbArc
 50
169.9516943954149
 51
178.2705111645084
  0
ARC
  5
336DB
330
3356C
100
AcDbEntity
  8
0
100
AcDbCircle
 10
9.696463414784108
 20
12.99373249148138
 30
0.0
 40
0.0341049064344588
100
AcDbArc
 50
1.729488835522539
 51
10.04830560459271
  0
LWPOLYLINE
  5
336DC
330
3356C
100
AcDbEntity
  8
0
100
AcDbPolyline
 90
        9
 70
     0
 43
0.0
 10
9.730552785041879
 20
12.99476180111982
 10
9.72903134166389
 20
12.99483260019688
 10
9.72731537259866
 20
12.99442855434692
 10
9.726321068363132
 20
12.99383115497915
 10
9.724819905482924
 20
12.99191665162225
 10
9.724484132516487
 20
12.9911395415943
 10
9.72376230813996
 20
12.9875125378827
 10
9.724716028099507
 20
12.97772428551599
 10
9.724973269366667
 20
12.97658872987428
  0
LINE
  5
336DD
330
3356C
100
AcDbEntity
  8
0
100
AcDbLine
 10
9.629063599270693
 20
12.99476179584958
 30
0.0
 11
9.610874526183943
 21
12.99476179584958
 31
0.0
  0
ARC
  5
336DE
330
3356C
100
AcDbEntity
  8
0
100
AcDbCircle
 10
9.4756718375963
 20
12.91395013528982
 30
0.0
 40
0.0648815217577649
100
AcDbArc
 50
56.5853159772004
 51
67.40446154271944
  0
LINE
  5
336DF
330
3356C
100
AcDbEntity
  8
0
100
AcDbLine
 10
9.500600838585294
 20
12.97385136044669
 30
0.0
 11
9.509385340412759
 21
12.99476180111982
 31
0.0
  0
ARC
  5
336E0
330
3356C
100
AcDbEntity
  8
0
100
AcDbCircle
 10
9.764266287858418
 20
12.91395013528967
 30
0.0
 40
0.0648815217579359
100
AcDbArc
 50
112.5955384572959
 51
123.4146840227864
  0
LINE
  5
336E1
330
3356C
100
AcDbEntity
  8
0
100
AcDbLine
 10
9.730552785041879
 20
12.99476180111982
 30
0.0
 11
9.739337286869345
 21
12.97385136044669
 31
0.0
  0
ARC
  5
336E2
330
3356C
100
AcDbEntity
  8
0
100
AcDbCircle
 10
9.989202697945994
 20
12.99852748710213
 30
0.0
 40
0.0185331493088626
100
AcDbArc
 50
10.68162392258495
 51
84.10512832446476
  0
LINE
  5
336E3
330
3356C
100
AcDbEntity
  8
0
100
AcDbLine
 10
9.187289570803008
 20
13.01696263337129
 30
0.0
 11
9.991106117326824
 21
13.01696263337129
 31
0.0
  0
ARC
  5
336E4
330
3356C
100
AcDbEntity
  8
0
100
AcDbCircle
 10
9.440760081177886
 20
13.10541791514621
 30
0.0
 40
0.1445360666497921
100
AcDbArc
 50
288.1930035195383
 51
294.4575880997525
  0
ARC
  5
336E5
330
3356C
100
AcDbEntity
  8
0
100
AcDbCircle
 10
9.799178044276855
 20
13.1054179151465
 30
0.0
 40
0.1445360666500943
100
AcDbArc
 50
245.5424119002579
 51
251.8069964804597
  0
ARC
  5
336E6
330
3356C
100
AcDbEntity
  8
0
100
AcDbCircle
 10
9.525421274643392
 20
12.99602458229829
 30
0.0
 40
0.033628655438441
100
AcDbArc
 50
173.7544013751706
 51
182.152005343793
  0
LWPOLYLINE
  5
336E7
330
3356C
100
AcDbEntity
  8
0
100
AcDbPolyline
 90
        9
 70
     0
 43
0.0
 10
9.491816336757825
 20
12.99476180111982
 10
9.490264575083283
 20
12.99483260019688
 10
9.488418116592203
 20
12.99442855434692
 10
9.487275086399424
 20
12.99383115497915
 10
9.485343189589546
 20
12.99191665162225
 10
9.48483953382075
 20
12.9911395415943
 10
9.483353181317118
 20
12.9875125378827
 10
9.482297503348672
 20
12.97772428551599
 10
9.482323865287343
 20
12.97658872987428
  0
LWPOLYLINE
  5
336E8
330
3356C
100
AcDbEntity
  8
0
100
AcDbPolyline
 90
        8
 70
     0
 43
0.0
 10
9.757614260167297
 20
12.97658872987428
 10
9.75658494413752
 20
12.9875125378827
 10
9.75509859163389
 20
12.9911395415943
 10
9.753764820603359
 20
12.99291220921728
 10
9.752663039055216
 20
12.99383115497915
 10
9.750921365861744
 20
12.99462691831569
 10
9.749673550371356
 20
12.99483260019688
 10
9.748121788696806
 20
12.99476180111997
  0
ARC
  5
336E9
330
3356C
100
AcDbEntity
  8
0
100
AcDbCircle
 10
9.714516850811751
 20
12.9960245822983
 30
0.0
 40
0.0336286554379376
100
AcDbArc
 50
357.847994656146
 51
6.245598624892775
  0
ARC
  5
336EA
330
3356C
100
AcDbEntity
  8
0
100
AcDbCircle
 10
9.850114310240616
 20
12.9211178963397
 30
0.0
 40
0.0062151696887869
100
AcDbArc
 50
45.65771269129031
 51
99.18328916365393
  0
ARC
  5
336EB
330
3356C
100
AcDbEntity
  8
0
100
AcDbCircle
 10
9.870599922576786
 20
12.93073039023495
 30
0.0
 40
0.0169485555451303
100
AcDbArc
 50
197.7519080054131
 51
273.1241468788915
  0
ARC
  5
336EC
330
3356C
100
AcDbEntity
  8
0
100
AcDbCircle
 10
9.87012718112099
 20
12.90829901410234
 30
0.0
 40
0.0056822699491371
100
AcDbArc
 50
5.926913308898999
 51
75.77369687589087
  0
ARC
  5
336ED
330
3356C
100
AcDbEntity
  8
0
100
AcDbCircle
 10
9.369731868091276
 20
12.93015892894502
 30
0.0
 40
0.0164048842434113
100
AcDbArc
 50
265.3940390940021
 51
343.7299060216997
  0
ARC
  5
336EE
330
3356C
100
AcDbEntity
  8
0
100
AcDbCircle
 10
9.389823815214041
 20
12.92111789633967
 30
0.0
 40
0.0062151696888165
100
AcDbArc
 50
80.81671083650626
 51
134.3422873086202
  0
ARC
  5
336EF
330
3356C
100
AcDbEntity
  8
0
100
AcDbCircle
 10
9.369810944333664
 20
12.90829901410234
 30
0.0
 40
0.0056822699491421
100
AcDbArc
 50
104.2263031241351
 51
174.0730866910709
  0
LINE
  5
336F0
330
3356C
100
AcDbEntity
  8
0
100
AcDbLine
 10
9.739337286869345
 20
12.97385136044669
 30
0.0
 11
9.748121788696812
 21
12.99476180111982
 31
0.0
  0
LINE
  5
336F1
330
3356C
100
AcDbEntity
  8
0
100
AcDbLine
 10
9.491816336757825
 20
12.99476180111982
 30
0.0
 11
9.500600838585294
 21
12.97385136044669
 31
0.0
  0
LINE
  5
336F2
330
3356C
100
AcDbEntity
  8
0
100
AcDbLine
 10
9.509385340412759
 20
12.99476180111982
 30
0.0
 11
9.491816336757825
 21
12.99476180111982
 31
0.0
  0
LINE
  5
336F3
330
3356C
100
AcDbEntity
  8
0
100
AcDbLine
 10
9.748121788696812
 20
12.99476180111982
 30
0.0
 11
9.730552785041879
 21
12.99476180111982
 31
0.0
  0
LINE
  5
336F4
330
3356C
100
AcDbEntity
  8
0
100
AcDbLine
 10
9.385479763913648
 20
12.92556284319653
 30
0.0
 11
9.400220292463011
 21
12.97658872987428
 31
0.0
  0
ARC
  5
336F5
330
3356C
100
AcDbEntity
  8
0
100
AcDbCircle
 10
9.404574332217324
 20
12.97212616128615
 30
0.0
 40
0.0062347558561597
100
AcDbArc
 50
80.71856944192317
 51
134.294748065811
  0
ARC
  5
336F6
330
3356C
100
AcDbEntity
  8
0
100
AcDbCircle
 10
9.835363793237322
 20
12.97212616128616
 30
0.0
 40
0.0062347558561518
100
AcDbArc
 50
45.70525193413202
 51
99.28143055805781
  0
LINE
  5
336F7
330
3356C
100
AcDbEntity
  8
0
100
AcDbLine
 10
9.839717832991636
 20
12.97658872987428
 30
0.0
 11
9.854458361540999
 21
12.92556284319653
 31
0.0
  0
LWPOLYLINE
  5
336F8
330
3356C
100
AcDbEntity
  8
0
100
AcDbPolyline
 90
        8
 70
     0
 43
0.0
 10
9.872288656774907
 20
12.91380702379344
 10
9.878754380180062
 20
12.91452667482259
 10
9.882705114871574
 20
12.91633171254534
 10
9.884482204762159
 20
12.91843872192547
 10
9.884826401405952
 20
12.91932744072939
 10
9.884898583448439
 20
12.92244592661156
 10
9.884849458799873
 20
12.92267566601307
 10
9.883739925143862
 20
12.92556284319653
  0
ARC
  5
336F9
330
3356C
100
AcDbEntity
  8
0
100
AcDbCircle
 10
9.891950702563537
 20
12.90646961049073
 30
0.0
 40
0.020783849522967
100
AcDbArc
 50
89.86851977955158
 51
113.2694455649788
  0
ARC
  5
336FA
330
3356C
100
AcDbEntity
  8
0
100
AcDbCircle
 10
9.870899274845136
 20
12.90829024805791
 30
0.0
 40
0.0056890418053397
100
AcDbArc
 50
6.008598628629817
 51
75.8642141527089
  0
ARC
  5
336FB
330
3356C
100
AcDbEntity
  8
0
100
AcDbCircle
 10
9.347987422891142
 20
12.90646961049084
 30
0.0
 40
0.0207838495228499
100
AcDbArc
 50
66.73055443497384
 51
90.13148022053732
  0
LWPOLYLINE
  5
336FC
330
3356C
100
AcDbEntity
  8
0
100
AcDbPolyline
 90
        8
 70
     0
 43
0.0
 10
9.356198200310783
 20
12.92556284319653
 10
9.354924393598015
 20
12.92168781536964
 10
9.35519153353491
 20
12.91907427156895
 10
9.355557181457395
 20
12.91824378194054
 10
9.357343140545452
 20
12.91624886194985
 10
9.35792685020775
 20
12.9158562692763
 10
9.361688560952339
 20
12.91440231808681
 10
9.367649468679738
 20
12.91380702379344
  0
ARC
  5
336FD
330
3356C
100
AcDbEntity
  8
0
100
AcDbCircle
 10
9.369038850609511
 20
12.90829024805791
 30
0.0
 40
0.0056890418053397
100
AcDbArc
 50
104.1357858472911
 51
173.9914013713702
  0
ARC
  5
336FE
330
3356C
100
AcDbEntity
  8
0
100
AcDbCircle
 10
9.368288046352304
 20
12.93118816027611
 30
0.0
 40
0.0173811766510493
100
AcDbArc
 50
270.1231800183423
 51
341.1165452874596
  0
LINE
  5
336FF
330
3356C
100
AcDbEntity
  8
0
100
AcDbLine
 10
9.384733748208081
 20
12.92556284319653
 30
0.0
 11
9.385479763913648
 21
12.92556284319653
 31
0.0
  0
ARC
  5
33700
330
3356C
100
AcDbEntity
  8
0
100
AcDbCircle
 10
9.871650079102343
 20
12.93118816027611
 30
0.0
 40
0.0173811766510493
100
AcDbArc
 50
198.883454712542
 51
269.8768199816592
  0
LINE
  5
33701
330
3356C
100
AcDbEntity
  8
0
100
AcDbLine
 10
9.854458361540999
 20
12.92556284319653
 30
0.0
 11
9.855204377246565
 21
12.92556284319653
 31
0.0
  0
LINE
  5
33702
330
3356C
100
AcDbEntity
  8
0
100
AcDbLine
 10
9.367649468679738
 20
12.91380702379344
 30
0.0
 11
9.368414512803804
 21
12.91380702379344
 31
0.0
  0
LINE
  5
33703
330
3356C
100
AcDbEntity
  8
0
100
AcDbLine
 10
9.871523612650843
 20
12.91380702379344
 30
0.0
 11
9.872288656774907
 21
12.91380702379344
 31
0.0
  0
LINE
  5
33704
330
3356C
100
AcDbEntity
  8
0
100
AcDbLine
 10
9.397025695800122
 20
12.96810717984978
 30
0.0
 11
9.384733748208081
 21
12.92556284319653
 31
0.0
  0
LINE
  5
33705
330
3356C
100
AcDbEntity
  8
0
100
AcDbLine
 10
9.400220292463011
 20
12.97658872987428
 30
0.0
 11
9.397025695800122
 21
12.96810717984978
 31
0.0
  0
LINE
  5
33706
330
3356C
100
AcDbEntity
  8
0
100
AcDbLine
 10
9.855204377246565
 20
12.92556284319653
 30
0.0
 11
9.84291242965452
 21
12.96810717984978
 31
0.0
  0
LINE
  5
33707
330
3356C
100
AcDbEntity
  8
0
100
AcDbLine
 10
9.84291242965452
 20
12.96810717984978
 30
0.0
 11
9.839717832991636
 21
12.97658872987428
 31
0.0
  0
LWPOLYLINE
  5
33708
330
3356C
100
AcDbEntity
  8
0
100
AcDbPolyline
 90
        9
 70
     0
 43
0.0
 10
9.871612711393456
 20
12.91380702379344
 10
9.872666662779748
 20
12.91401559379014
 10
9.873695491578935
 20
12.91463633218671
 10
9.874674674040242
 20
12.91565444270824
 10
9.875580869811363
 20
12.91704565709095
 10
9.876392478292414
 20
12.91877681355436
 10
9.877090153520164
 20
12.92080664726443
 10
9.87765726530948
 20
12.9230867739457
 10
9.8780802956599
 20
12.92556284319653
  0
LINE
  5
33709
330
3356C
100
AcDbEntity
  8
0
100
AcDbLine
 10
9.8780802956599
 20
12.92556284319653
 30
0.0
 11
9.883739925143862
 21
12.92556284319653
 31
0.0
  0
LWPOLYLINE
  5
3370A
330
3356C
100
AcDbEntity
  8
0
100
AcDbPolyline
 90
        9
 70
     0
 43
0.0
 10
9.368325414061192
 20
12.91380702379344
 10
9.367271462674899
 20
12.91401559379014
 10
9.366242633875712
 20
12.91463633218671
 10
9.365263451414403
 20
12.91565444270824
 10
9.364357255643282
 20
12.91704565709095
 10
9.363545647162231
 20
12.91877681355436
 10
9.362847971934479
 20
12.92080664726443
 10
9.362280860145164
 20
12.9230867739457
 10
9.361857829794743
 20
12.92556284319653
  0
LINE
  5
3370B
330
3356C
100
AcDbEntity
  8
0
100
AcDbLine
 10
9.356198200310783
 20
12.92556284319653
 30
0.0
 11
9.361857829794743
 21
12.92556284319653
 31
0.0
  0
ARC
  5
3370C
330
3356C
100
AcDbEntity
  8
0
100
AcDbCircle
 10
9.373295789001412
 20
12.94432388914325
 30
0.0
 40
0.0219727958127366
100
AcDbArc
 50
238.6307862191268
 51
301.3692137808789
  0
ARC
  5
3370D
330
3356C
100
AcDbEntity
  8
0
100
AcDbCircle
 10
9.866642336453232
 20
12.94432388914325
 30
0.0
 40
0.0219727958127326
100
AcDbArc
 50
238.6307862191219
 51
301.3692137808797
  0
LINE
  5
3370E
330
3356C
100
AcDbEntity
  8
0
100
AcDbLine
 10
9.361857829794743
 20
12.92556284319653
 30
0.0
 11
9.374149777386787
 21
12.96810717984978
 31
0.0
  0
ARC
  5
3370F
330
3356C
100
AcDbEntity
  8
0
100
AcDbCircle
 10
9.385587736593457
 20
12.98686822579649
 30
0.0
 40
0.0219727958127366
100
AcDbArc
 50
238.6307862191228
 51
301.3692137808749
  0
LINE
  5
33710
330
3356C
100
AcDbEntity
  8
0
100
AcDbLine
 10
9.865788348067855
 20
12.96810717984978
 30
0.0
 11
9.8780802956599
 21
12.92556284319653
 31
0.0
  0
ARC
  5
33711
330
3356C
100
AcDbEntity
  8
0
100
AcDbCircle
 10
9.854350388861194
 20
12.98686822579649
 30
0.0
 40
0.0219727958127375
100
AcDbArc
 50
238.6307862191188
 51
301.369213780871
  0
LWPOLYLINE
  5
33712
330
3356C
100
AcDbEntity
  8
0
100
AcDbPolyline
 90
        8
 70
     0
 43
0.0
 10
9.400220292463011
 20
12.97658872987428
 10
9.402465663437194
 20
12.9875125378827
 10
9.402214242285612
 20
12.9911395415943
 10
9.401566309040562
 20
12.99291220921728
 10
9.400877157483492
 20
12.99383115497915
 10
9.399604324893724
 20
12.99462691831569
 10
9.398591725436828
 20
12.99483260019688
 10
9.397243330527006
 20
12.99476180111997
  0
ARC
  5
33713
330
3356C
100
AcDbEntity
  8
0
100
AcDbCircle
 10
9.415401494353343
 20
12.99430429848237
 30
0.0
 40
0.0181639263984757
100
AcDbArc
 50
162.7750902611639
 51
178.5567138914625
  0
ARC
  5
33714
330
3356C
100
AcDbEntity
  8
0
100
AcDbCircle
 10
9.824536631101462
 20
12.9943042984824
 30
0.0
 40
0.0181639263983116
100
AcDbArc
 50
1.443286108460825
 51
17.22490973890308
  0
LWPOLYLINE
  5
33715
330
3356C
100
AcDbEntity
  8
0
100
AcDbPolyline
 90
        9
 70
     0
 43
0.0
 10
9.842694794927687
 20
12.99476180111982
 10
9.841346400017815
 20
12.99483260019688
 10
9.83987545054012
 20
12.99442855434692
 10
9.839060967971152
 20
12.99383115497915
 10
9.837938026441767
 20
12.99191665162225
 10
9.837723883169033
 20
12.9911395415943
 10
9.837472462017446
 20
12.9875125378827
 10
9.839367684846408
 20
12.97772428551599
 10
9.839717832991636
 20
12.97658872987428
  0
ARC
  5
33716
330
3356C
100
AcDbEntity
  8
0
100
AcDbCircle
 10
9.362748349944276
 20
12.95751560509086
 30
0.0
 40
0.020763818542102
100
AcDbArc
 50
66.71863894072534
 51
90.20404170149154
  0
LINE
  5
33717
330
3356C
100
AcDbEntity
  8
0
100
AcDbLine
 10
9.3709551807239
 20
12.97658872987428
 30
0.0
 11
9.356198200310783
 21
12.92556284319653
 31
0.0
  0
LINE
  5
33718
330
3356C
100
AcDbEntity
  8
0
100
AcDbLine
 10
9.883739925143862
 20
12.92556284319653
 30
0.0
 11
9.868982944730744
 21
12.97658872987428
 31
0.0
  0
ARC
  5
33719
330
3356C
100
AcDbEntity
  8
0
100
AcDbCircle
 10
9.877189775510377
 20
12.9575156050908
 30
0.0
 40
0.0207638185421641
100
AcDbArc
 50
89.79595829852867
 51
113.2813610592229
  0
LINE
  5
3371A
330
3356C
100
AcDbEntity
  8
0
100
AcDbLine
 10
9.374149777386787
 20
12.96810717984978
 30
0.0
 11
9.3709551807239
 21
12.97658872987428
 31
0.0
  0
LINE
  5
3371B
330
3356C
100
AcDbEntity
  8
0
100
AcDbLine
 10
9.868982944730744
 20
12.97658872987428
 30
0.0
 11
9.865788348067855
 21
12.96810717984978
 31
0.0
  0
ARC
  5
3371C
330
3356C
100
AcDbEntity
  8
0
100
AcDbCircle
 10
9.384203065694915
 20
12.9589888837262
 30
0.0
 40
0.0157341401739081
100
AcDbArc
 50
35.41700002494979
 51
70.83908710706848
  0
LINE
  5
3371D
330
3356C
100
AcDbEntity
  8
0
100
AcDbLine
 10
9.389367361653231
 20
12.97385136044669
 30
0.0
 11
9.397243330526958
 21
12.99476180111982
 31
0.0
  0
ARC
  5
3371E
330
3356C
100
AcDbEntity
  8
0
100
AcDbCircle
 10
9.855735059759727
 20
12.9589888837262
 30
0.0
 40
0.0157341401739081
100
AcDbArc
 50
109.1609128929315
 51
144.5829999750501
  0
LINE
  5
3371F
330
3356C
100
AcDbEntity
  8
0
100
AcDbLine
 10
9.842694794927687
 20
12.99476180111982
 30
0.0
 11
9.850570763801412
 21
12.97385136044669
 31
0.0
  0
ARC
  5
33720
330
3356C
100
AcDbEntity
  8
0
100
AcDbCircle
 10
9.35290204119982
 20
13.04742649250498
 30
0.0
 40
0.0821158915993995
100
AcDbArc
 50
284.9960845275498
 51
296.3639436765743
  0
ARC
  5
33721
330
3356C
100
AcDbEntity
  8
0
100
AcDbCircle
 10
9.887036084254823
 20
13.04742649250498
 30
0.0
 40
0.0821158915993995
100
AcDbArc
 50
243.6360563234273
 51
255.0039154724517
  0
LINE
  5
33722
330
3356C
100
AcDbEntity
  8
0
100
AcDbLine
 10
9.397243330526958
 20
12.99476180111982
 30
0.0
 11
9.38149139277951
 21
12.99476180111982
 31
0.0
  0
ARC
  5
33723
330
3356C
100
AcDbEntity
  8
0
100
AcDbCircle
 10
9.399215226422919
 20
12.99540691542617
 30
0.0
 40
0.0177355702329381
100
AcDbArc
 50
166.0481962741815
 51
182.0845387014097
  0
ARC
  5
33724
330
3356C
100
AcDbEntity
  8
0
100
AcDbCircle
 10
9.840722899031755
 20
12.99540691542616
 30
0.0
 40
0.0177355702329069
100
AcDbArc
 50
357.9154612986112
 51
13.95180372586707
  0
LINE
  5
33725
330
3356C
100
AcDbEntity
  8
0
100
AcDbLine
 10
9.858446732675131
 20
12.99476180111982
 30
0.0
 11
9.842694794927687
 21
12.99476180111982
 31
0.0
  0
LINE
  5
33726
330
3356C
100
AcDbEntity
  8
0
100
AcDbLine
 10
9.38149139277951
 20
12.99476180111982
 30
0.0
 11
9.389367361653231
 21
12.97385136044669
 31
0.0
  0
LINE
  5
33727
330
3356C
100
AcDbEntity
  8
0
100
AcDbLine
 10
9.850570763801412
 20
12.97385136044669
 30
0.0
 11
9.858446732675131
 21
12.99476180111982
 31
0.0
  0
LWPOLYLINE
  5
33728
330
3356C
100
AcDbEntity
  8
0
100
AcDbPolyline
 90
        8
 70
     0
 43
0.0
 10
9.868982944730744
 20
12.97658872987428
 10
9.866900432384758
 20
12.9875125378827
 10
9.865172056307391
 20
12.9911395415943
 10
9.863775687105782
 20
12.99291220921728
 10
9.862678532782243
 20
12.99383115497915
 10
9.861011316533518
 20
12.99462691831569
 10
9.859853698036307
 20
12.99483260019688
 10
9.858446732675108
 20
12.99476180111997
  0
LWPOLYLINE
  5
33729
330
3356C
100
AcDbEntity
  8
0
100
AcDbPolyline
 90
        9
 70
     0
 43
0.0
 10
9.38149139277951
 20
12.99476180111982
 10
9.380084427418339
 20
12.99483260019688
 10
9.378361391727674
 20
12.99442855434692
 10
9.377259592672402
 20
12.99383115497915
 10
9.375304537089164
 20
12.99191665162225
 10
9.374766069147254
 20
12.9911395415943
 10
9.373037693069882
 20
12.9875125378827
 10
9.371051057190953
 20
12.97772428551599
 10
9.3709551807239
 20
12.97658872987428
  0
ARC
  5
3372A
330
3356C
100
AcDbEntity
  8
0
100
AcDbCircle
 10
9.247490669872792
 20
12.86485593606292
 30
0.0
 40
0.006982182444115
100
AcDbArc
 50
95.40936916836251
 51
163.0992098099765
  0
ARC
  5
3372B
330
3356C
100
AcDbEntity
  8
0
100
AcDbCircle
 10
9.244845238698479
 20
12.89068256125385
 30
0.0
 40
0.0189798559079725
100
AcDbArc
 50
276.0099498756493
 51
337.9688306054096
  0
LWPOLYLINE
  5
3372C
330
3356C
100
AcDbEntity
  8
0
100
AcDbPolyline
 90
        3
 70
     0
 43
0.0
 10
9.262439184165014
 20
12.88356300977864
 10
9.262498939708454
 20
12.88395827140244
 10
9.262532835937962
 20
12.88405261719787
  0
LWPOLYLINE
  5
3372D
330
3356C
100
AcDbEntity
  8
0
100
AcDbPolyline
 90
        3
 70
     0
 43
0.0
 10
9.97740498839976
 20
12.88405335849511
 10
9.977439185746186
 20
12.88395827140244
 10
9.977498941289626
 20
12.88356300977865
  0
ARC
  5
3372E
330
3356C
100
AcDbEntity
  8
0
100
AcDbCircle
 10
9.994465202652152
 20
12.88984927531423
 30
0.0
 40
0.0180934009795134
100
AcDbArc
 50
200.330456833367
 51
265.6907626855731
  0
ARC
  5
3372F
330
3356C
100
AcDbEntity
  8
0
100
AcDbCircle
 10
9.992447455581856
 20
12.86485593606293
 30
0.0
 40
0.0069821824441034
100
AcDbArc
 50
16.90079018996097
 51
84.59063083168727
  0
ARC
  5
33730
330
3356C
100
AcDbEntity
  8
0
100
AcDbCircle
 10
9.993055959703863
 20
12.86484657774055
 30
0.0
 40
0.0069911992647346
100
AcDbArc
 50
16.95850378501451
 51
84.62391213699405
  0
LWPOLYLINE
  5
33731
330
3356C
100
AcDbEntity
  8
0
100
AcDbPolyline
 90
        8
 70
     0
 43
0.0
 10
9.993710984820882
 20
12.87180702379344
 10
9.999285713045251
 20
12.87252961943953
 10
10.00239360265736
 20
12.87433835430699
 10
10.00351983942499
 20
12.87644355007818
 10
10.00364003255199
 20
12.87733951558494
 10
10.00306427511397
 20
12.88045318918625
 10
10.00297164653603
 20
12.88068936769492
 10
10.0014175394238
 20
12.88356300977864
  0
ARC
  5
33732
330
3356C
100
AcDbEntity
  8
0
100
AcDbCircle
 10
10.00949145786112
 20
12.86519490607285
 30
0.0
 40
0.02006428151415
100
AcDbArc
 50
91.34426507733378
 51
113.7284608713621
  0
ARC
  5
33733
330
3356C
100
AcDbEntity
  8
0
100
AcDbCircle
 10
9.230446667593517
 20
12.86519490607282
 30
0.0
 40
0.0200642815141801
100
AcDbArc
 50
66.2715391286586
 51
88.65573492265303
  0
LWPOLYLINE
  5
33734
330
3356C
100
AcDbEntity
  8
0
100
AcDbPolyline
 90
        8
 70
     0
 43
0.0
 10
9.238520586030835
 20
12.88356300977865
 10
9.236617288836731
 20
12.87969323404166
 10
9.236316487242126
 20
12.87708006994807
 10
9.236466059724877
 20
12.87625269367685
 10
9.237624809672855
 20
12.8742548515169
 10
9.238053272795397
 20
12.87386504952399
 10
9.241063877817007
 20
12.87240721966818
 10
9.246227140633759
 20
12.87180702379344
  0
ARC
  5
33735
330
3356C
100
AcDbEntity
  8
0
100
AcDbCircle
 10
9.246882165750768
 20
12.86484657774055
 30
0.0
 40
0.0069911992647275
100
AcDbArc
 50
95.37608786295344
 51
163.0414962150284
  0
LINE
  5
33736
330
3356C
100
AcDbEntity
  8
0
100
AcDbLine
 10
9.246227140633759
 20
12.87180702379344
 30
0.0
 11
9.246832451789318
 21
12.87180702379344
 31
0.0
  0
LINE
  5
33737
330
3356C
100
AcDbEntity
  8
0
100
AcDbLine
 10
9.993105673665324
 20
12.87180702379344
 30
0.0
 11
9.993710984820882
 21
12.87180702379344
 31
0.0
  0
ARC
  5
33738
330
3356C
100
AcDbEntity
  8
0
100
AcDbCircle
 10
9.264619472362788
 20
12.8813871842812
 30
0.0
 40
0.0201154051605253
100
AcDbArc
 50
173.7903310189539
 51
208.4414125567007
  0
LINE
  5
33739
330
3356C
100
AcDbEntity
  8
0
100
AcDbLine
 10
9.244622089829649
 20
12.88356300977865
 30
0.0
 11
9.27916482602022
 21
12.96810638743575
 31
0.0
  0
LINE
  5
3373A
330
3356C
100
AcDbEntity
  8
0
100
AcDbLine
 10
9.96077329943442
 20
12.96810638743575
 30
0.0
 11
9.995316035624991
 21
12.88356300977864
 31
0.0
  0
ARC
  5
3373B
330
3356C
100
AcDbEntity
  8
0
100
AcDbCircle
 10
9.975318653091783
 20
12.88138718428121
 30
0.0
 40
0.0201154051605922
100
AcDbArc
 50
331.5585874433726
 51
6.209668980994544
  0
LINE
  5
3373C
330
3356C
100
AcDbEntity
  8
0
100
AcDbLine
 10
9.995316035624991
 20
12.88356300977864
 30
0.0
 11
10.0014175394238
 21
12.88356300977864
 31
0.0
  0
LINE
  5
3373D
330
3356C
100
AcDbEntity
  8
0
100
AcDbLine
 10
9.238520586030835
 20
12.88356300977865
 30
0.0
 11
9.244622089829649
 21
12.88356300977865
 31
0.0
  0
LINE
  5
3373E
330
3356C
100
AcDbEntity
  8
0
100
AcDbLine
 10
9.276556237869524
 20
12.97658886922164
 30
0.0
 11
9.238520586030835
 21
12.88356300977865
 31
0.0
  0
LINE
  5
3373F
330
3356C
100
AcDbEntity
  8
0
100
AcDbLine
 10
9.27916482602022
 20
12.96810638743575
 30
0.0
 11
9.276556237869524
 21
12.97658886922164
 31
0.0
  0
ARC
  5
33740
330
3356C
100
AcDbEntity
  8
0
100
AcDbCircle
 10
9.268499861930322
 20
12.95829163532056
 30
0.0
 40
0.0199923475786298
100
AcDbArc
 50
66.23583395630777
 51
88.79001881798501
  0
LINE
  5
33741
330
3356C
100
AcDbEntity
  8
0
100
AcDbLine
 10
9.963381887585113
 20
12.97658886922164
 30
0.0
 11
9.96077329943442
 21
12.96810638743575
 31
0.0
  0
LINE
  5
33742
330
3356C
100
AcDbEntity
  8
0
100
AcDbLine
 10
10.0014175394238
 20
12.88356300977864
 30
0.0
 11
9.963381887585113
 21
12.97658886922164
 31
0.0
  0
ARC
  5
33743
330
3356C
100
AcDbEntity
  8
0
100
AcDbCircle
 10
9.97143826352433
 20
12.95829163532051
 30
0.0
 40
0.0199923475786743
100
AcDbArc
 50
91.20998118204285
 51
113.7641660436756
  0
LINE
  5
33744
330
3356C
100
AcDbEntity
  8
0
100
AcDbLine
 10
9.30045152334098
 20
12.97658886922164
 30
0.0
 11
9.302111198661203
 21
12.98238743221277
 31
0.0
  0
ARC
  5
33745
330
3356C
100
AcDbEntity
  8
0
100
AcDbCircle
 10
9.313549434097774
 20
12.99449065349055
 30
0.0
 40
0.013272385954861
100
AcDbArc
 50
156.9696640946492
 51
178.8294196931412
  0
ARC
  5
33746
330
3356C
100
AcDbEntity
  8
0
100
AcDbCircle
 10
9.926388691356867
 20
12.99449065349055
 30
0.0
 40
0.0132723859548593
100
AcDbArc
 50
1.170580306874233
 51
23.03033590537097
  0
LWPOLYLINE
  5
33747
330
3356C
100
AcDbEntity
  8
0
100
AcDbPolyline
 90
        3
 70
     0
 43
0.0
 10
9.937840291963238
 20
12.98216095480048
 10
9.939067608270162
 20
12.97772390952798
 10
9.939486602113658
 20
12.97658886922164
  0
LINE
  5
33748
330
3356C
100
AcDbEntity
  8
0
100
AcDbLine
 10
9.293849009562036
 20
12.97385040145055
 30
0.0
 11
9.300279818023602
 21
12.99476179584958
 31
0.0
  0
LINE
  5
33749
330
3356C
100
AcDbEntity
  8
0
100
AcDbLine
 10
9.939658307431036
 20
12.99476179584958
 30
0.0
 11
9.946089115892606
 21
12.97385040145055
 31
0.0
  0
ARC
  5
3374A
330
3356C
100
AcDbEntity
  8
0
100
AcDbCircle
 10
9.267439043068783
 20
13.01972412721015
 30
0.0
 40
0.0529328352276841
100
AcDbArc
 50
282.7984380362769
 51
299.9294681595466
  0
ARC
  5
3374B
330
3356C
100
AcDbEntity
  8
0
100
AcDbCircle
 10
9.972499082385807
 20
13.01972412721001
 30
0.0
 40
0.0529328352275454
100
AcDbArc
 50
240.0705318404306
 51
257.2015619637419
  0
LINE
  5
3374C
330
3356C
100
AcDbEntity
  8
0
100
AcDbLine
 10
9.300279818023602
 20
12.99476179584958
 30
0.0
 11
9.287418201100466
 21
12.99476179584958
 31
0.0
  0
ARC
  5
3374D
330
3356C
100
AcDbEntity
  8
0
100
AcDbCircle
 10
9.300333182178196
 20
12.99515790384394
 30
0.0
 40
0.0129210540507094
100
AcDbArc
 50
159.4995107495635
 51
181.7567353663674
  0
LINE
  5
3374E
330
3356C
100
AcDbEntity
  8
0
100
AcDbLine
 10
9.952519924354174
 20
12.99476179584958
 30
0.0
 11
9.939658307431036
 21
12.99476179584958
 31
0.0
  0
ARC
  5
3374F
330
3356C
100
AcDbEntity
  8
0
100
AcDbCircle
 10
9.93960494327646
 20
12.99515790384394
 30
0.0
 40
0.0129210540506927
100
AcDbArc
 50
358.2432646336316
 51
20.50048925046411
  0
LINE
  5
33750
330
3356C
100
AcDbEntity
  8
0
100
AcDbLine
 10
9.287418201100466
 20
12.99476179584958
 30
0.0
 11
9.293849009562036
 21
12.97385040145055
 31
0.0
  0
LINE
  5
33751
330
3356C
100
AcDbEntity
  8
0
100
AcDbLine
 10
9.946089115892606
 20
12.97385040145055
 30
0.0
 11
9.952519924354174
 21
12.99476179584958
 31
0.0
  0
LWPOLYLINE
  5
33752
330
3356C
100
AcDbEntity
  8
0
100
AcDbPolyline
 90
        9
 70
     0
 43
0.0
 10
9.287418201100466
 20
12.99476179584958
 10
9.286252037063903
 20
12.99483259554534
 10
9.284769844454681
 20
12.9944285785206
 10
9.283784373034912
 20
12.99383120779731
 10
9.281939340765481
 20
12.99191669354879
 10
9.28140278679834
 20
12.99113964416458
 10
9.279550138104571
 20
12.98751266901681
 10
9.276767730239404
 20
12.97772390952798
 10
9.276556237869524
 20
12.97658886922164
  0
LWPOLYLINE
  5
33753
330
3356C
100
AcDbEntity
  8
0
100
AcDbPolyline
 90
        8
 70
     0
 43
0.0
 10
9.963381887585113
 20
12.97658886922164
 10
9.960387987350067
 20
12.98751266901681
 10
9.958535338656302
 20
12.99113964416457
 10
9.957171515561164
 20
12.99291228541882
 10
9.956153752419726
 20
12.99383120779731
 10
9.954674601305102
 20
12.9946269397421
 10
9.953686088390739
 20
12.99483259554534
 10
9.952519924354131
 20
12.99476179584972
  0
ARC
  5
33754
330
3356C
100
AcDbEntity
  8
0
100
AcDbCircle
 10
9.197923798045167
 20
12.9256571842161
 30
0.0
 40
0.0016421263678056
100
AcDbArc
 50
76.4205347034979
 51
140.8105520058797
  0
ARC
  5
33755
330
3356C
100
AcDbEntity
  8
0
100
AcDbCircle
 10
9.18409111766436
 20
12.90541226574557
 30
0.0
 40
0.0083990673051797
100
AcDbArc
 50
91.83544714548435
 51
155.5714848581381
  0
ARC
  5
33756
330
3356C
100
AcDbEntity
  8
0
100
AcDbCircle
 10
9.236249167288224
 20
12.99459149991272
 30
0.0
 40
0.0111480752447
100
AcDbArc
 50
152.8242731814219
 51
179.12469912968
  0
ARC
  5
33757
330
3356C
100
AcDbEntity
  8
0
100
AcDbCircle
 10
9.163635824289835
 20
12.92334821941602
 30
0.0
 40
0.0225877157636359
100
AcDbArc
 50
335.0133931524757
 51
5.626632485231887
  0
LINE
  5
33758
330
3356C
100
AcDbEntity
  8
0
100
AcDbLine
 10
9.186114710937747
 20
12.92556284319653
 30
0.0
 11
9.207404988691139
 21
12.96810717984978
 31
0.0
  0
ARC
  5
33759
330
3356C
100
AcDbEntity
  8
0
100
AcDbCircle
 10
9.172453253995556
 20
12.90987678477814
 30
0.0
 40
0.0174115064908641
100
AcDbArc
 50
64.27686584125996
 51
86.37241623127543
  0
LWPOLYLINE
  5
3375A
330
3356C
100
AcDbEntity
  8
0
100
AcDbPolyline
 90
        8
 70
     0
 43
0.0
 10
9.180010246094015
 20
12.92556284319653
 10
9.177597936651896
 20
12.92168781536964
 10
9.176742505669107
 20
12.91907427156895
 10
9.176664446810447
 20
12.91824378194054
 10
9.177108387219877
 20
12.91624886194985
 10
9.177358164876894
 20
12.9158562692763
 10
9.179409783059137
 20
12.91440231808681
 10
9.183380404522717
 20
12.91380702379344
  0
ARC
  5
3375B
330
3356C
100
AcDbEntity
  8
0
100
AcDbCircle
 10
9.18364751986231
 20
12.90540349970115
 30
0.0
 40
0.0084077682992829
100
AcDbArc
 50
91.82059695357166
 51
155.5328005455755
  0
LINE
  5
3375C
330
3356C
100
AcDbEntity
  8
0
100
AcDbLine
 10
9.183380404522717
 20
12.91380702379344
 30
0.0
 11
9.183822102953687
 21
12.91380702379344
 31
0.0
  0
LINE
  5
3375D
330
3356C
100
AcDbEntity
  8
0
100
AcDbLine
 10
9.180010246094012
 20
12.92556284319653
 30
0.0
 11
9.186114710937747
 21
12.92556284319653
 31
0.0
  0
ARC
  5
3375E
330
3356C
100
AcDbEntity
  8
0
100
AcDbCircle
 10
10.0438250237694
 20
13.02323022500963
 30
0.0
 40
0.0358473180020218
100
AcDbArc
 50
216.3903023414714
 51
249.8484804260903
  0
ARC
  5
3375F
330
3356C
100
AcDbEntity
  8
0
100
AcDbCircle
 10
10.0111914250299
 20
13.03027900817926
 30
0.0
 40
0.0285671254510173
100
AcDbArc
 50
262.4029747272252
 51
277.59702527278
  0
ARC
  5
33760
330
3356C
100
AcDbEntity
  8
0
100
AcDbCircle
 10
9.990717092074532
 20
12.98986390090652
 30
0.0
 40
0.0271015247143846
100
AcDbArc
 50
26.51439071650182
 51
89.17752706399591
  0
LINE
  5
33761
330
3356C
100
AcDbEntity
  8
0
100
AcDbLine
 10
10.0314754801842
 20
12.98957730565373
 30
0.0
 11
10.11857722830225
 21
12.89102289403271
 31
0.0
  0
LWPOLYLINE
  5
33762
330
3356C
100
AcDbEntity
  8
0
100
AcDbPolyline
 90
       10
 70
     0
 43
0.0
 10
10.11857722830225
 20
12.89102289403271
 10
10.12208665947326
 20
12.87945055512094
 10
10.12367625269087
 20
12.87169970774101
 10
10.12382612713293
 20
12.86885600648808
 10
10.12372587496573
 20
12.86787840599078
 10
10.12324229236767
 20
12.8665936670078
 10
10.12258404897014
 20
12.86610689220037
 10
10.12147571648646
 20
12.86614448898651
 10
10.12063079428165
 20
12.86649677009189
 10
10.12035107755631
 20
12.86665141421559
  0
LWPOLYLINE
  5
33763
330
3356C
100
AcDbEntity
  8
0
100
AcDbPolyline
 90
        9
 70
     0
 43
0.0
 10
10.11130931750553
 20
12.98957730565373
 10
10.1107583700163
 20
12.99504283498989
 10
10.10965858125724
 20
13.00023129407787
 10
10.10804766300323
 20
13.00496477056903
 10
10.10598085366805
 20
13.0090809534756
 10
10.10352902417826
 20
13.01243869881709
 10
10.10077624780794
 20
13.01492286944978
 10
10.0978169173047
 20
13.01644828312125
 10
10.09475250816084
 20
13.01696263337129
  0
LINE
  5
33764
330
3356C
100
AcDbEntity
  8
0
100
AcDbLine
 10
9.991106117326824
 20
13.01696263337129
 30
0.0
 11
10.09475250816084
 21
13.01696263337129
 31
0.0
  0
LINE
  5
33765
330
3356C
100
AcDbEntity
  8
0
100
AcDbLine
 10
9.225102392904556
 20
12.99476180111982
 30
0.0
 11
9.216008007405813
 21
12.99476180111982
 31
0.0
  0
ARC
  5
33766
330
3356C
100
AcDbEntity
  8
0
100
AcDbCircle
 10
9.226904021141415
 20
12.99499442249781
 30
0.0
 40
0.0108984965950335
100
AcDbArc
 50
154.5191338653694
 51
181.223034323092
  0
LINE
  5
33767
330
3356C
100
AcDbEntity
  8
0
100
AcDbLine
 10
9.205560587447868
 20
12.97658872987428
 30
0.0
 11
9.180010246094012
 21
12.92556284319653
 31
0.0
  0
LINE
  5
33768
330
3356C
100
AcDbEntity
  8
0
100
AcDbLine
 10
9.207404988691139
 20
12.96810717984978
 30
0.0
 11
9.205560587447868
 21
12.97658872987428
 31
0.0
  0
ARC
  5
33769
330
3356C
100
AcDbEntity
  8
0
100
AcDbCircle
 10
9.198021456821694
 20
12.96096316347258
 30
0.0
 40
0.017349259810511
100
AcDbArc
 50
64.24330101679477
 51
86.45851319574481
  0
LWPOLYLINE
  5
3376A
330
3356C
100
AcDbEntity
  8
0
100
AcDbPolyline
 90
        3
 70
     0
 43
0.0
 10
10.11857722830225
 20
12.89102289403271
 10
10.11632332590456
 20
12.92162092970292
 10
10.11130931750553
 20
12.98957730565373
  0
LWPOLYLINE
  5
3376B
330
3356C
100
AcDbEntity
  8
0
100
AcDbPolyline
 90
        9
 70
     0
 43
0.0
 10
9.216008007405813
 20
12.99476180111982
 10
9.215161879909972
 20
12.99483260019688
 10
9.214021542747227
 20
12.99442855434692
 10
9.213219536515364
 20
12.99383115497915
 10
9.211610363375113
 20
12.99191665162225
 10
9.211112229828847
 20
12.9911395415943
 10
9.209261631111335
 20
12.9875125378827
 10
9.205873454181896
 20
12.97772428551599
 10
9.205560587447868
 20
12.97658872987428
  0
ARC
  5
3376C
330
3356C
100
AcDbEntity
  8
0
100
AcDbCircle
 10
10.09409373609156
 20
12.98782076386244
 30
0.0
 40
0.0291493145564437
100
AcDbArc
 50
3.454744740195654
 51
88.70500992513298
  0
LINE
  5
3376D
330
3356C
100
AcDbEntity
  8
0
100
AcDbLine
 10
10.09475250816084
 20
13.01696263337129
 30
0.0
 11
10.11518445331062
 21
13.01696263337129
 31
0.0
  0
LINE
  5
3376E
330
3356C
100
AcDbEntity
  8
0
100
AcDbLine
 10
9.141778371054328
 20
12.92710025777397
 30
0.0
 11
9.141791433159182
 21
12.92713019551088
 31
0.0
  0
ARC
  5
3376F
330
3356C
100
AcDbEntity
  8
0
100
AcDbCircle
 10
9.133443169902344
 20
12.9043537900295
 30
0.0
 40
0.0094534561040745
100
AcDbArc
 50
90.39296340384352
 51
151.3538669298771
  0
ARC
  5
33770
330
3356C
100
AcDbEntity
  8
0
100
AcDbCircle
 10
9.186998625526998
 20
12.99467352739929
 30
0.0
 40
0.0101644232536209
100
AcDbArc
 50
150.4719392299968
 51
179.5024041127273
  0
LINE
  5
33771
330
3356C
100
AcDbEntity
  8
0
100
AcDbLine
 10
9.140014560007603
 20
12.92556284319653
 30
0.0
 11
9.163760779276698
 21
12.96810717984978
 31
0.0
  0
ARC
  5
33772
330
3356C
100
AcDbEntity
  8
0
100
AcDbCircle
 10
9.12715806818324
 20
12.91283787559061
 30
0.0
 40
0.0145976659007152
100
AcDbArc
 50
60.65825514500555
 51
80.93961496520766
  0
LWPOLYLINE
  5
33773
330
3356C
100
AcDbEntity
  8
0
100
AcDbPolyline
 90
        8
 70
     0
 43
0.0
 10
9.134311182831915
 20
12.92556284319653
 10
9.131559032976319
 20
12.92168781536964
 10
9.130210989072033
 20
12.91907427156895
 10
9.129911323883167
 20
12.91824378194054
 10
9.129614669979538
 20
12.91624886194985
 10
9.129665758574848
 20
12.9158562692763
 10
9.130619980067251
 20
12.91440231808681
 10
9.133149693900199
 20
12.91380702379344
  0
LINE
  5
33774
330
3356C
100
AcDbEntity
  8
0
100
AcDbLine
 10
9.134311182831915
 20
12.92556284319653
 30
0.0
 11
9.140014560007603
 21
12.92556284319653
 31
0.0
  0
LINE
  5
33775
330
3356C
100
AcDbEntity
  8
0
100
AcDbLine
 10
9.176834585590583
 20
12.99476180111982
 30
0.0
 11
9.172126985249427
 21
12.99476180111982
 31
0.0
  0
ARC
  5
33776
330
3356C
100
AcDbEntity
  8
0
100
AcDbCircle
 10
9.18216122192288
 20
12.99486653514007
 30
0.0
 40
0.0100347832479768
100
AcDbArc
 50
151.3157053181771
 51
180.5980125466336
  0
LINE
  5
33777
330
3356C
100
AcDbEntity
  8
0
100
AcDbLine
 10
9.163760779276698
 20
12.96810717984978
 30
0.0
 11
9.162806046939559
 21
12.97658872987428
 31
0.0
  0
LWPOLYLINE
  5
33778
330
3356C
100
AcDbEntity
  8
0
100
AcDbPolyline
 90
        9
 70
     0
 43
0.0
 10
9.172126985249427
 20
12.99476180111982
 10
9.171658679131855
 20
12.99483260019688
 10
9.170937907754897
 20
12.99442855434692
 10
9.170374032823444
 20
12.99383115497915
 10
9.169110329582649
 20
12.99191665162225
 10
9.168684593882735
 20
12.9911395415943
 10
9.166962125369764
 20
12.9875125378827
 10
9.163198878006735
 20
12.977724285516
 10
9.162806046939559
 20
12.97658872987428
  0
LINE
  5
33779
330
3356C
100
AcDbEntity
  8
0
100
AcDbLine
 10
9.162806046939559
 20
12.97658872987428
 30
0.0
 11
9.134311182831915
 21
12.92556284319653
 31
0.0
  0
ARC
  5
3377A
330
3356C
100
AcDbEntity
  8
0
100
AcDbCircle
 10
9.155685042595033
 20
12.96394851727465
 30
0.0
 40
0.0145080556050238
100
AcDbArc
 50
60.60478046559498
 51
81.03382431486705
  0
ARC
  5
3377B
330
3356C
100
AcDbEntity
  8
0
100
AcDbCircle
 10
9.168599402511699
 20
12.99476084237941
 30
0.0
 40
0.0098338985191196
100
AcDbArc
 50
149.9645787337131
 51
157.7977280839835
  0
LINE
  5
3377C
330
3356C
100
AcDbEntity
  8
0
100
AcDbLine
 10
9.148276553027862
 20
12.97828452929336
 30
0.0
 11
9.148285392384693
 21
12.97827952500634
 31
0.0
  0
LINE
  5
3377D
330
3356C
100
AcDbEntity
  8
0
100
AcDbLine
 10
9.094501951648338
 20
12.88525771546242
 30
0.0
 11
9.094509045250063
 21
12.88525366556335
 31
0.0
  0
LINE
  5
3377E
330
3356C
100
AcDbEntity
  8
0
100
AcDbLine
 10
10.39840486249949
 20
3.041081275351822
 30
0.0
 11
14.37488759366381
 21
3.041081275351822
 31
0.0
  0
LINE
  5
3377F
330
3356C
100
AcDbEntity
  8
0
100
AcDbLine
 10
10.7442955966246
 20
2.998611233441888
 30
0.0
 11
14.0289968595387
 21
2.998611233441888
 31
0.0
  0
LINE
  5
33780
330
3356C
100
AcDbEntity
  8
0
100
AcDbLine
 10
13.91845465754837
 20
6.391845523252543
 30
0.0
 11
12.38664622808165
 21
6.391845523252543
 31
0.0
  0
LINE
  5
33781
330
3356C
100
AcDbEntity
  8
0
100
AcDbLine
 10
12.38664622808165
 20
6.445730208280293
 30
0.0
 11
13.90239425957771
 21
6.445730208280293
 31
0.0
  0
LINE
  5
33782
330
3356C
100
AcDbEntity
  8
0
100
AcDbLine
 10
11.52738735591946
 20
9.519915188284276
 30
0.0
 11
11.52484468631165
 21
9.516790418878739
 31
0.0
  0
LINE
  5
33783
330
3356C
100
AcDbEntity
  8
0
100
AcDbLine
 10
11.10743984935778
 20
9.519915188284276
 30
0.0
 11
11.10489717974997
 21
9.516790418878739
 31
0.0
  0
LINE
  5
33784
330
3356C
100
AcDbEntity
  8
0
100
AcDbLine
 10
11.94733486248114
 20
9.519915188284276
 30
0.0
 11
11.94479219287333
 21
9.516790418878739
 31
0.0
  0
LWPOLYLINE
  5
33785
330
3356C
100
AcDbEntity
  8
0
100
AcDbPolyline
 90
        3
 70
     0
 43
0.0
 10
12.15305659756901
 20
9.515692284325499
 10
12.15301394239387
 20
9.515814445017833
 10
12.15010457530945
 20
9.519915188284276
  0
LWPOLYLINE
  5
33786
330
3356C
100
AcDbEntity
  8
0
100
AcDbPolyline
 90
        3
 70
     0
 43
0.0
 10
11.73310909100733
 20
9.515692284325499
 10
11.73306643583219
 20
9.515814445017833
 10
11.73015706874777
 20
9.519915188284276
  0
LWPOLYLINE
  5
33787
330
3356C
100
AcDbEntity
  8
0
100
AcDbPolyline
 90
        3
 70
     0
 43
0.0
 10
11.31316158444565
 20
9.515692284325499
 10
11.31311892927051
 20
9.515814445017833
 10
11.31020956218609
 20
9.519915188284276
  0
LINE
  5
33788
330
3356C
100
AcDbEntity
  8
0
100
AcDbLine
 10
12.36728236904282
 20
9.519915188284276
 30
0.0
 11
12.36473938012896
 21
9.51678962683542
 31
0.0
  0
LINE
  5
33789
330
3356C
100
AcDbEntity
  8
0
100
AcDbLine
 10
10.12399134567526
 20
12.85426608649802
 30
0.0
 11
9.079281761056334
 21
12.85426608649802
 31
0.0
  0
LINE
  5
3378A
330
3356C
100
AcDbEntity
  8
0
100
AcDbLine
 10
9.083186839885554
 20
12.86665141421559
 30
0.0
 11
10.12035107755631
 21
12.86665141421559
 31
0.0
  0
LINE
  5
3378B
330
3356C
100
AcDbEntity
  8
0
100
AcDbLine
 10
10.00741471028439
 20
13.0019626333713
 30
0.0
 11
9.161308808689474
 21
13.0019626333713
 31
0.0
  0
ARC
  5
3378C
330
3356C
100
AcDbEntity
  8
0
100
AcDbCircle
 10
8.966625893648213
 20
13.09424083408603
 30
0.0
 40
0.2153323033997007
100
AcDbArc
 50
328.661887386585
 51
333.9519397089111
  0
ARC
  5
3378D
330
3356C
100
AcDbEntity
  8
0
100
AcDbCircle
 10
9.265241446230774
 20
12.88178390682992
 30
0.0
 40
0.0035332161626417
100
AcDbArc
 50
79.12458303431041
 51
140.0507273494949
  0
LWPOLYLINE
  5
3378E
330
3356C
100
AcDbEntity
  8
0
100
AcDbPolyline
 90
        8
 70
     0
 43
0.0
 10
9.974030052803961
 20
12.88525366556335
 10
9.974798758595881
 20
12.885245154349
 10
9.975485948549323
 20
12.88517508808411
 10
9.976083012410542
 20
12.88504434467487
 10
9.976582469174717
 20
12.88485456229123
 10
9.976978060820377
 20
12.88460811884117
 10
9.977264830720272
 20
12.88430810217637
 10
9.97740498839976
 20
12.88405335849511
  0
ARC
  5
3378F
330
3356C
100
AcDbEntity
  8
0
100
AcDbCircle
 10
9.303270269928759
 20
12.97478146351211
 30
0.0
 40
0.0035643807067876
100
AcDbArc
 50
78.9301699223964
 51
139.8554410295471
  0
LWPOLYLINE
  5
33790
330
3356C
100
AcDbEntity
  8
0
100
AcDbPolyline
 90
        8
 70
     0
 43
0.0
 10
9.93598347580273
 20
12.97827952500634
 10
9.936759266337675
 20
12.97827331155982
 10
9.937453030000748
 20
12.97820486847048
 10
9.938055983016283
 20
12.97807506229965
 10
9.938560491366652
 20
12.97788553652959
 10
9.938960167446968
 20
12.97763869075535
 10
9.939249950938821
 20
12.97733765030335
 10
9.939393843596931
 20
12.97707626719149
  0
ARC
  5
33791
330
3356C
100
AcDbEntity
  8
0
100
AcDbCircle
 10
9.256499469852242
 20
12.90655387028323
 30
0.0
 40
0.025877631710461
100
AcDbArc
 50
242.678530627438
 51
280.9021152650522
  0
ARC
  5
33792
330
3356C
100
AcDbEntity
  8
0
100
AcDbCircle
 10
9.290923882711892
 20
12.99066975321727
 30
0.0
 40
0.0254436807413667
100
AcDbArc
 50
242.4734103750486
 51
281.7438740645225
  0
ARC
  5
33793
330
3356C
100
AcDbEntity
  8
0
100
AcDbCircle
 10
9.983215263603453
 20
12.90736218087059
 30
0.0
 40
0.0266988619267036
100
AcDbArc
 50
260.6511325963939
 51
296.9512197677602
  0
ARC
  5
33794
330
3356C
100
AcDbEntity
  8
0
100
AcDbCircle
 10
9.948954425367935
 20
12.99088581439155
 30
0.0
 40
0.0256629709237594
100
AcDbArc
 50
258.6834040619093
 51
297.4220825523188
  0
LWPOLYLINE
  5
33795
330
3356C
100
AcDbEntity
  8
0
100
AcDbPolyline
 90
        8
 70
     0
 43
0.0
 10
9.302111198661203
 20
12.98238743221277
 10
9.303578153326858
 20
12.98751266901681
 10
9.303814210778297
 20
12.99113964416457
 10
9.303508816608042
 20
12.99291228541882
 10
9.303068040290881
 20
12.99383120779731
 10
9.302146610924179
 20
12.9946269397421
 10
9.301363167318546
 20
12.99483259554534
 10
9.300279818023668
 20
12.99476179584972
  0
LWPOLYLINE
  5
33796
330
3356C
100
AcDbEntity
  8
0
100
AcDbPolyline
 90
        8
 70
     0
 43
0.0
 10
9.939658307431036
 20
12.99476179584958
 10
9.938574958136095
 20
12.99483259554534
 10
9.937449249515804
 20
12.9944285785206
 10
9.936870085163759
 20
12.99383120779731
 10
9.936201841905303
 20
12.99191669354879
 10
9.936123914676342
 20
12.99113964416458
 10
9.936359972127783
 20
12.98751266901681
 10
9.937840291963238
 20
12.98216095480048
  0
ARC
  5
33797
330
3356C
100
AcDbEntity
  8
0
100
AcDbCircle
 10
9.288262303236551
 20
12.96338143661792
 30
0.0
 40
0.0118663605302586
100
AcDbArc
 50
35.76154070562292
 51
61.91363100795879
  0
ARC
  5
33798
330
3356C
100
AcDbEntity
  8
0
100
AcDbCircle
 10
9.950877593361193
 20
12.96437616302793
 30
0.0
 40
0.0106155880739538
100
AcDbArc
 50
116.8129846717599
 51
147.6915485496371
  0
ARC
  5
33799
330
3356C
100
AcDbEntity
  8
0
100
AcDbCircle
 10
9.223476465125543
 20
12.97661554351261
 30
0.0
 40
0.0017084316276022
100
AcDbArc
 50
76.86705997277711
 51
137.7685657501616
  0
LWPOLYLINE
  5
3379A
330
3356C
100
AcDbEntity
  8
0
100
AcDbPolyline
 90
        7
 70
     0
 43
0.0
 10
9.226538153175612
 20
12.98898000186458
 10
9.226959439979042
 20
12.9911395415943
 10
9.227017465246587
 20
12.99291220921728
 10
9.226855143916647
 20
12.99383115497915
 10
9.226347971189976
 20
12.99462691831569
 10
9.225847073402919
 20
12.99483260019688
 10
9.225102392904632
 20
12.99476180111997
  0
ARC
  5
3379B
330
3356C
100
AcDbEntity
  8
0
100
AcDbCircle
 10
9.203414094309842
 20
12.96481296831922
 30
0.0
 40
0.0428933676365135
100
AcDbArc
 50
246.2146471598384
 51
258.1636898837909
  0
ARC
  5
3379C
330
3356C
100
AcDbEntity
  8
0
100
AcDbCircle
 10
9.224409383817286
 20
13.00656091067243
 30
0.0
 40
0.0420456759701546
100
AcDbArc
 50
246.1447920914249
 51
258.8070768425765
  0
LINE
  5
3379D
330
3356C
100
AcDbEntity
  8
0
100
AcDbLine
 10
9.220787043761674
 20
12.97491750218427
 30
0.0
 11
9.225102392904556
 21
12.99476180111982
 31
0.0
  0
ARC
  5
3379E
330
3356C
100
AcDbEntity
  8
0
100
AcDbCircle
 10
9.201019197204995
 20
13.0008497767504
 30
0.0
 40
0.0333594961697701
100
AcDbArc
 50
281.0358696428288
 51
305.130658454132
  0
LINE
  5
3379F
330
3356C
100
AcDbEntity
  8
0
100
AcDbLine
 10
9.216008007405813
 20
12.99476180111982
 30
0.0
 11
9.220463788894553
 21
12.97427171864299
 31
0.0
  0
ARC
  5
337A0
330
3356C
100
AcDbEntity
  8
0
100
AcDbCircle
 10
9.142125209542244
 20
12.92682559024278
 30
0.0
 40
0.0004518750305616
100
AcDbArc
 50
71.21884924798869
 51
137.6163344481609
  0
ARC
  5
337A1
330
3356C
100
AcDbEntity
  8
0
100
AcDbCircle
 10
9.170619254325039
 20
12.97784464509577
 30
0.0
 40
0.0004596584081898
100
AcDbArc
 50
71.01199080268988
 51
137.2559182739843
  0
LWPOLYLINE
  5
337A2
330
3356C
100
AcDbEntity
  8
0
100
AcDbPolyline
 90
        5
 70
     0
 43
0.0
 10
9.17739719371146
 20
12.99357717301647
 10
9.177432342597432
 20
12.99383115497915
 10
9.177373958679826
 20
12.99462691831569
 10
9.177189742285015
 20
12.99483260019688
 10
9.176834585590663
 20
12.99476180111997
  0
LINE
  5
337A3
330
3356C
100
AcDbEntity
  8
0
100
AcDbLine
 10
9.139635203457928
 20
12.92321416588162
 30
0.0
 11
9.140014560007603
 21
12.92556284319653
 31
0.0
  0
LINE
  5
337A4
330
3356C
100
AcDbEntity
  8
0
100
AcDbLine
 10
9.164494879681091
 20
12.96776509290956
 30
0.0
 11
9.163760779276698
 21
12.96810717984978
 31
0.0
  0
LINE
  5
337A5
330
3356C
100
AcDbEntity
  8
0
100
AcDbLine
 10
9.176346354967352
 20
12.99042450961584
 30
0.0
 11
9.176834585590583
 21
12.99476180111982
 31
0.0
  0
LINE
  5
337A6
330
3356C
100
AcDbEntity
  8
0
100
AcDbLine
 10
9.16486552943066
 20
12.96839354843467
 30
0.0
 11
9.163760779276698
 21
12.96810717984978
 31
0.0
  0
ARC
  5
337A7
330
3356C
100
AcDbEntity
  8
0
100
AcDbCircle
 10
9.13324692222014
 20
12.90431719926542
 30
0.0
 40
0.0095028308230177
100
AcDbArc
 50
100.9885469281167
 51
151.2650612313087
  0
LINE
  5
337A8
330
3356C
100
AcDbEntity
  8
0
100
AcDbLine
 10
9.172126985249427
 20
12.99476180111982
 30
0.0
 11
9.17333989349
 21
12.98398669534685
 31
0.0
  0
ENDBLK
  5
337AA
330
3356C
100
AcDbEntity
  8
0
100
AcDbBlockEnd
  0
BLOCK
  5
33850
330
337EE
100
AcDbEntity
  8
0
100
AcDbBlockBegin
  2
LP3
 70
     0
 10
0.0
 20
0.0
 30
0.0
  3
LP3
  1

  0
ARC
  5
337EF
330
337EE
100
AcDbEntity
  8
0
100
AcDbCircle
 10
4.190943129936743
 20
1.786119730967581
 30
0.0
 40
0.2500000000000009
100
AcDbArc
 50
0.0000000000002036
 51
52.02012755514811
  0
ARC
  5
337F0
330
337EE
100
AcDbEntity
  8
0
100
AcDbCircle
 10
4.190943129936743
 20
1.786119730967581
 30
0.0
 40
0.2500000000000009
100
AcDbArc
 50
127.9798724448519
 51
0.0000000000002036
  0
ARC
  5
337F1
330
337EE
100
AcDbEntity
  8
0
100
AcDbCircle
 10
4.030943129936741
 20
1.991058746286774
 30
0.0
 40
0.0100000000000016
100
AcDbArc
 50
307.9798724448557
 51
0.0000000000002036
  0
ARC
  5
337F2
330
337EE
100
AcDbEntity
  8
0
100
AcDbCircle
 10
4.350943129936743
 20
1.991058746286774
 30
0.0
 40
0.0099999999999998
100
AcDbArc
 50
179.9999999999998
 51
232.0201275551507
  0
LINE
  5
337F3
330
337EE
100
AcDbEntity
  8
0
100
AcDbLine
 10
4.340943132620076
 20
2.371119644293605
 30
0.0
 11
4.340943132620076
 21
1.991058781455791
 31
0.0
  0
LINE
  5
337F4
330
337EE
100
AcDbEntity
  8
0
100
AcDbLine
 10
4.040943121579136
 20
1.991058781455791
 30
0.0
 11
4.040943121579136
 21
2.371119644293605
 31
0.0
  0
LINE
  5
337F5
330
337EE
100
AcDbEntity
  8
0
100
AcDbLine
 10
9.63009288191083
 20
1.773719772174573
 30
0.0
 11
9.57029287939223
 21
1.773719772174573
 31
0.0
  0
LINE
  5
337F6
330
337EE
100
AcDbEntity
  8
0
100
AcDbLine
 10
9.57029287939223
 20
11.32371968976059
 30
0.0
 11
9.63009288191083
 21
11.32371968976059
 31
0.0
  0
ARC
  5
337F7
330
337EE
100
AcDbEntity
  8
0
100
AcDbCircle
 10
9.550293129936726
 20
2.193919730967595
 30
0.0
 40
0.02
100
AcDbArc
 50
0.0000000000002036
 51
38.27932173790605
  0
ARC
  5
337F8
330
337EE
100
AcDbEntity
  8
0
100
AcDbCircle
 10
9.550293129936726
 20
10.90351973096761
 30
0.0
 40
0.02
100
AcDbArc
 50
321.7206782620891
 51
0.0000000000002036
  0
LINE
  5
337F9
330
337EE
100
AcDbEntity
  8
0
100
AcDbLine
 10
3.927493145496273
 20
1.973719755091036
 30
0.0
 11
2.890662576384816
 21
1.973719755091036
 31
0.0
  0
LINE
  5
337FA
330
337EE
100
AcDbEntity
  8
0
100
AcDbLine
 10
2.890662576384816
 20
11.12371970684413
 30
0.0
 11
3.927493145496273
 21
11.12371970684413
 31
0.0
  0
ARC
  5
337FB
330
337EE
100
AcDbEntity
  8
0
100
AcDbCircle
 10
2.890662596201027
 20
11.02371973096759
 30
0.0
 40
0.0999999999999997
100
AcDbArc
 50
89.99999999999799
 51
114.9999999999999
  0
ARC
  5
337FC
330
337EE
100
AcDbEntity
  8
0
100
AcDbCircle
 10
2.890662596201027
 20
2.073719730967575
 30
0.0
 40
0.0999999999999997
100
AcDbArc
 50
244.9999999999992
 51
270.0000000000012
  0
LINE
  5
337FD
330
337EE
100
AcDbEntity
  8
0
100
AcDbLine
 10
2.848400771263464
 20
1.983089006856641
 30
0.0
 11
1.903135931043561
 21
2.423873274879164
 31
0.0
  0
LINE
  5
337FE
330
337EE
100
AcDbEntity
  8
0
100
AcDbLine
 10
1.903135931043561
 20
10.673566187056
 30
0.0
 11
2.848400771263464
 21
11.11435045507852
 31
0.0
  0
ARC
  5
337FF
330
337EE
100
AcDbEntity
  8
0
100
AcDbCircle
 10
1.92849312993674
 20
2.478251604771021
 30
0.0
 40
0.0599999999999993
100
AcDbArc
 50
179.9999999999998
 51
244.9999999999995
  0
ARC
  5
33800
330
337EE
100
AcDbEntity
  8
0
100
AcDbCircle
 10
1.92849312993674
 20
10.61918785716414
 30
0.0
 40
0.0599999999999987
100
AcDbArc
 50
115.0000000000004
 51
179.9999999999998
  0
LINE
  5
33801
330
337EE
100
AcDbEntity
  8
0
100
AcDbLine
 10
4.419246296388578
 20
5.390226093984933
 30
0.0
 11
4.435993126261105
 21
5.361219722402347
 31
0.0
  0
LINE
  5
33802
330
337EE
100
AcDbEntity
  8
0
100
AcDbLine
 10
4.435993126261105
 20
4.986219754433976
 30
0.0
 11
4.419246296388578
 21
4.95721338285139
 31
0.0
  0
ARC
  5
33803
330
337EE
100
AcDbEntity
  8
0
100
AcDbCircle
 10
4.092871701365313
 20
2.441776873824724
 30
0.0
 40
0.0114285714285707
100
AcDbArc
 50
139.9835174818861
 51
179.9999999999998
  0
ARC
  5
33804
330
337EE
100
AcDbEntity
  8
0
100
AcDbCircle
 10
4.289014558508172
 20
2.441776873824724
 30
0.0
 40
0.0114285714285716
100
AcDbArc
 50
0.0000000000002036
 51
40.01648251811101
  0
ARC
  5
33805
330
337EE
100
AcDbEntity
  8
0
100
AcDbCircle
 10
4.092871701365313
 20
2.430348302396153
 30
0.0
 40
0.0114285714285707
100
AcDbArc
 50
179.9999999999998
 51
269.9999999999992
  0
ARC
  5
33806
330
337EE
100
AcDbEntity
  8
0
100
AcDbCircle
 10
4.289014558508172
 20
2.430348302396153
 30
0.0
 40
0.0114285714285716
100
AcDbArc
 50
269.9999999999992
 51
0.0000000000002036
  0
LINE
  5
33807
330
337EE
100
AcDbEntity
  8
0
100
AcDbLine
 10
4.081443113719771
 20
2.430348240079812
 30
0.0
 11
4.081443113719771
 21
2.441776961387581
 31
0.0
  0
LINE
  5
33808
330
337EE
100
AcDbEntity
  8
0
100
AcDbLine
 10
4.30044314047944
 20
2.441776961387581
 30
0.0
 11
4.30044314047944
 21
2.430348240079812
 31
0.0
  0
ARC
  5
33809
330
337EE
100
AcDbEntity
  8
0
100
AcDbCircle
 10
4.190943129936743
 20
2.359437085878296
 30
0.0
 40
0.139482645089285
100
AcDbArc
 50
40.01648251811394
 51
71.71915772994248
  0
ARC
  5
3380A
330
337EE
100
AcDbEntity
  8
0
100
AcDbCircle
 10
4.190943129936743
 20
2.359437085878296
 30
0.0
 40
0.1394826450892862
100
AcDbArc
 50
108.27895572374
 51
139.983517481886
  0
LINE
  5
3380B
330
337EE
100
AcDbEntity
  8
0
100
AcDbLine
 10
4.165046987920681
 20
2.494112596801855
 30
0.0
 11
4.165046987920681
 21
2.492473762400478
 31
0.0
  0
LINE
  5
3380C
330
337EE
100
AcDbEntity
  8
0
100
AcDbLine
 10
4.21683926627853
 20
2.492535361688878
 30
0.0
 11
4.21683926627853
 21
2.494115823431248
 31
0.0
  0
LINE
  5
3380D
330
337EE
100
AcDbEntity
  8
0
100
AcDbLine
 10
8.56599304114966
 20
11.70970523082268
 30
0.0
 11
9.565993249061923
 21
11.33582042997181
 31
0.0
  0
LINE
  5
3380E
330
337EE
100
AcDbEntity
  8
0
100
AcDbLine
 10
9.565993249061923
 20
1.761619031963355
 30
0.0
 11
8.56599304114966
 21
1.38773423111248
 31
0.0
  0
LINE
  5
3380F
330
337EE
100
AcDbEntity
  8
0
100
AcDbLine
 10
8.56599304114966
 20
1.38773423111248
 30
0.0
 11
4.550641442250641
 21
1.91636553765185
 31
0.0
  0
LINE
  5
33810
330
337EE
100
AcDbEntity
  8
0
100
AcDbLine
 10
6.177103851134768
 20
11.39520185065923
 30
0.0
 11
8.56599304114966
 21
11.70970523082268
 31
0.0
  0
ARC
  5
33811
330
337EE
100
AcDbEntity
  8
0
100
AcDbCircle
 10
4.978960650460833
 20
2.261391115443419
 30
0.0
 40
0.5500000000000017
100
AcDbArc
 50
189.1722178969024
 51
218.8526172527297
  0
LINE
  5
33812
330
337EE
100
AcDbEntity
  8
0
100
AcDbLine
 10
4.273858757584499
 20
2.371119644293605
 30
0.0
 11
4.273858757584499
 21
1.991119794084301
 31
0.0
  0
LINE
  5
33813
330
337EE
100
AcDbEntity
  8
0
100
AcDbLine
 10
4.273858757584499
 20
1.991119794084301
 30
0.0
 11
4.108027496614711
 21
1.991119794084301
 31
0.0
  0
LINE
  5
33814
330
337EE
100
AcDbEntity
  8
0
100
AcDbLine
 10
4.108027496614711
 20
1.991119794084301
 30
0.0
 11
4.108027496614711
 21
2.371119644293605
 31
0.0
  0
LINE
  5
33815
330
337EE
100
AcDbEntity
  8
0
100
AcDbLine
 10
4.117893135979336
 20
6.670358644951133
 30
0.0
 11
4.117893135979336
 21
9.780763114126619
 31
0.0
  0
ARC
  5
33816
330
337EE
100
AcDbEntity
  8
0
100
AcDbCircle
 10
5.117893129936738
 20
6.670358644394811
 30
0.0
 40
1.0
100
AcDbArc
 50
180.0
 51
269.9999999999992
  0
LINE
  5
33817
330
337EE
100
AcDbEntity
  8
0
100
AcDbLine
 10
6.117893148475192
 20
9.780763114126619
 30
0.0
 11
6.117893148475192
 21
6.670358644951133
 31
0.0
  0
CIRCLE
  5
33818
330
337EE
100
AcDbEntity
  8
0
100
AcDbCircle
 10
5.11789312993674
 20
6.54871973096758
 30
0.0
 40
0.0945
  0
ARC
  5
33819
330
337EE
100
AcDbEntity
  8
0
100
AcDbCircle
 10
5.11789312993674
 20
6.670358644394811
 30
0.0
 40
0.9999999999999992
100
AcDbArc
 50
269.9999999999992
 51
0.0000000000000509
  0
LINE
  5
3381A
330
337EE
100
AcDbEntity
  8
0
100
AcDbLine
 10
4.117893135979336
 20
9.841409080205908
 30
0.0
 11
4.117893135979336
 21
9.780763114126619
 31
0.0
  0
LINE
  5
3381B
330
337EE
100
AcDbEntity
  8
0
100
AcDbLine
 10
6.117893148475192
 20
9.780763114126619
 30
0.0
 11
6.117893148475192
 21
9.841409080205908
 31
0.0
  0
LINE
  5
3381C
330
337EE
100
AcDbEntity
  8
0
100
AcDbLine
 10
6.117893148475192
 20
12.94871977095432
 30
0.0
 11
6.117893148475192
 21
9.841409080205908
 31
0.0
  0
LINE
  5
3381D
330
337EE
100
AcDbEntity
  8
0
100
AcDbLine
 10
4.117893135979336
 20
9.841409080205908
 30
0.0
 11
4.117893135979336
 21
12.94871977095432
 31
0.0
  0
LINE
  5
3381E
330
337EE
100
AcDbEntity
  8
0
100
AcDbLine
 10
6.117893148475192
 20
12.94871977095432
 30
0.0
 11
4.117893135979336
 21
12.94871977095432
 31
0.0
  0
CIRCLE
  5
3381F
330
337EE
100
AcDbEntity
  8
0
100
AcDbCircle
 10
5.117893143028116
 20
6.548719724746106
 30
0.0
 40
0.1152000016672778
  0
LINE
  5
33820
330
337EE
100
AcDbEntity
  8
0
100
AcDbLine
 10
9.57029287939223
 20
1.773719772174573
 30
0.0
 11
9.57029287939223
 21
11.32371968976059
 31
0.0
  0
LINE
  5
33821
330
337EE
100
AcDbEntity
  8
0
100
AcDbLine
 10
9.63009288191083
 20
1.773719772174573
 30
0.0
 11
9.63009288191083
 21
11.32371968976059
 31
0.0
  0
LINE
  5
33822
330
337EE
100
AcDbEntity
  8
0
100
AcDbLine
 10
3.927493145496273
 20
1.973719755091036
 30
0.0
 11
3.927493145496273
 21
11.12371970684413
 31
0.0
  0
LINE
  5
33823
330
337EE
100
AcDbEntity
  8
0
100
AcDbLine
 10
1.868493077907423
 20
10.61918780190641
 30
0.0
 11
1.868493077907423
 21
2.47825166002875
 31
0.0
  0
LINE
  5
33824
330
337EE
100
AcDbEntity
  8
0
100
AcDbLine
 10
4.200943129912054
 20
2.371119644293605
 30
0.0
 11
4.200943129912054
 21
2.418919812101989
 31
0.0
  0
LINE
  5
33825
330
337EE
100
AcDbEntity
  8
0
100
AcDbLine
 10
4.200943129912054
 20
2.371119644293605
 30
0.0
 11
4.435993126261105
 21
2.371119644293605
 31
0.0
  0
LINE
  5
33826
330
337EE
100
AcDbEntity
  8
0
100
AcDbLine
 10
4.200943129912054
 20
2.418919812101989
 30
0.0
 11
4.435993126261105
 21
2.418919812101989
 31
0.0
  0
LINE
  5
33827
330
337EE
100
AcDbEntity
  8
0
100
AcDbLine
 10
3.950943114600229
 20
2.371119644293605
 30
0.0
 11
3.950943114600229
 21
2.418919812101989
 31
0.0
  0
LINE
  5
33828
330
337EE
100
AcDbEntity
  8
0
100
AcDbLine
 10
3.950943114600229
 20
2.371119644293605
 30
0.0
 11
4.200943129912054
 21
2.371119644293605
 31
0.0
  0
LINE
  5
33829
330
337EE
100
AcDbEntity
  8
0
100
AcDbLine
 10
4.200943129912054
 20
2.418919812101989
 30
0.0
 11
3.950943114600229
 21
2.418919812101989
 31
0.0
  0
LINE
  5
3382A
330
337EE
100
AcDbEntity
  8
0
100
AcDbLine
 10
4.419246296388578
 20
4.95721338285139
 30
0.0
 11
4.435993126261105
 21
4.95721338285139
 31
0.0
  0
LINE
  5
3382B
330
337EE
100
AcDbEntity
  8
0
100
AcDbLine
 10
4.419246296388578
 20
5.390226093984933
 30
0.0
 11
4.435993126261105
 21
5.390226093984933
 31
0.0
  0
LINE
  5
3382C
330
337EE
100
AcDbEntity
  8
0
100
AcDbLine
 10
4.117893135979336
 20
8.03197295629975
 30
0.0
 11
3.927493145496273
 21
8.03197295629975
 31
0.0
  0
LINE
  5
3382D
330
337EE
100
AcDbEntity
  8
0
100
AcDbLine
 10
4.117893135979336
 20
8.140226079083772
 30
0.0
 11
3.927493145496273
 21
8.140226079083772
 31
0.0
  0
LINE
  5
3382E
330
337EE
100
AcDbEntity
  8
0
100
AcDbLine
 10
4.117893135979336
 20
7.815466564066738
 30
0.0
 11
3.927493145496273
 21
7.815466564066738
 31
0.0
  0
LINE
  5
3382F
330
337EE
100
AcDbEntity
  8
0
100
AcDbLine
 10
4.117893135979336
 20
7.707213367950228
 30
0.0
 11
3.927493145496273
 21
7.707213367950228
 31
0.0
  0
LWPOLYLINE
  5
33830
330
337EE
100
AcDbEntity
  8
0
100
AcDbPolyline
 90
        3
 70
     0
 43
0.0
 10
4.435993126261105
 20
5.336099459260438
 10
4.431572827324775
 20
5.309036251896917
 10
4.419246296388578
 20
5.281972897868425
  0
LWPOLYLINE
  5
33831
330
337EE
100
AcDbEntity
  8
0
100
AcDbPolyline
 90
        3
 70
     0
 43
0.0
 10
4.419246296388578
 20
5.281972897868425
 10
4.434989186192039
 20
5.199314866074396
 10
4.435993126261105
 20
5.173719775084405
  0
LINE
  5
33832
330
337EE
100
AcDbEntity
  8
0
100
AcDbLine
 10
4.419246296388578
 20
5.065466505635411
 30
0.0
 11
3.927493145496273
 21
5.065466505635411
 31
0.0
  0
LWPOLYLINE
  5
33833
330
337EE
100
AcDbEntity
  8
0
100
AcDbPolyline
 90
        3
 70
     0
 43
0.0
 10
4.435993126261105
 20
5.173719775084405
 10
4.4252283572833
 20
5.08804851143282
 10
4.419246296388578
 20
5.065466505635411
  0
LINE
  5
33834
330
337EE
100
AcDbEntity
  8
0
100
AcDbLine
 10
4.419246296388578
 20
5.281972897868425
 30
0.0
 11
3.927493145496273
 21
5.281972897868425
 31
0.0
  0
LWPOLYLINE
  5
33835
330
337EE
100
AcDbEntity
  8
0
100
AcDbPolyline
 90
        3
 70
     0
 43
0.0
 10
4.419246296388578
 20
5.390226093984933
 10
4.43590564060508
 20
5.339869335710503
 10
4.435993126261105
 20
5.336099459260438
  0
LINE
  5
33836
330
337EE
100
AcDbEntity
  8
0
100
AcDbLine
 10
4.419246296388578
 20
5.390226093984933
 30
0.0
 11
3.927493145496273
 21
5.390226093984933
 31
0.0
  0
LWPOLYLINE
  5
33837
330
337EE
100
AcDbEntity
  8
0
100
AcDbPolyline
 90
        3
 70
     0
 43
0.0
 10
4.419246296388578
 20
5.065466505635411
 10
4.434535404767494
 20
5.026776872581353
 10
4.435993126261105
 20
5.011339944243401
  0
LINE
  5
33838
330
337EE
100
AcDbEntity
  8
0
100
AcDbLine
 10
4.419246296388578
 20
4.95721338285139
 30
0.0
 11
3.927493145496273
 21
4.95721338285139
 31
0.0
  0
LWPOLYLINE
  5
33839
330
337EE
100
AcDbEntity
  8
0
100
AcDbPolyline
 90
        3
 70
     0
 43
0.0
 10
4.435993126261105
 20
5.011339944243401
 10
4.426740656479758
 20
4.971759321482132
 10
4.419246296388578
 20
4.95721338285139
  0
LWPOLYLINE
  5
3383A
330
337EE
100
AcDbEntity
  8
0
100
AcDbPolyline
 90
        6
 70
     0
 43
0.0
 10
4.234631120745508
 20
2.491893849099684
 10
4.234682600150813
 20
2.491880355922226
 10
4.233880709414323
 20
2.492090966822564
 10
4.23222841850173
 20
2.492523921821031
 10
4.229860952517564
 20
2.493141968014643
 10
4.228676522866865
 20
2.493449964456641
  0
ARC
  5
3383B
330
337EE
100
AcDbEntity
  8
0
100
AcDbCircle
 10
4.220551943483696
 20
2.472580683015364
 30
0.0
 40
0.0223949926999013
100
AcDbArc
 50
68.7286359358655
 51
98.60966475811364
  0
LWPOLYLINE
  5
3383C
330
337EE
100
AcDbEntity
  8
0
100
AcDbPolyline
 90
        3
 70
     0
 43
0.0
 10
4.217040637285608
 20
2.494115823431248
 10
4.216952088308533
 20
2.493776734015105
 10
4.217165449177104
 20
2.493449964456641
  0
ARC
  5
3383D
330
337EE
100
AcDbEntity
  8
0
100
AcDbCircle
 10
4.210274510937301
 20
2.509864458354504
 30
0.0
 40
0.0181822048715716
100
AcDbArc
 50
244.5256553770287
 51
292.4080148797143
  0
ARC
  5
3383E
330
337EE
100
AcDbEntity
  8
0
100
AcDbCircle
 10
4.190943145432727
 20
2.454818368565786
 30
0.0
 40
0.040310110624575
100
AcDbArc
 50
73.40749887135898
 51
106.5925011286422
  0
LWPOLYLINE
  5
3383F
330
337EE
100
AcDbEntity
  8
0
100
AcDbPolyline
 90
        9
 70
     0
 43
0.0
 10
4.179432071742966
 20
2.493449964456641
 10
4.176838375038904
 20
2.492755945807337
 10
4.17382052323472
 20
2.492219152008424
 10
4.170809601350479
 20
2.49191878214499
 10
4.168173445136915
 20
2.491880062592281
 10
4.166150128510441
 20
2.49209067349262
 10
4.164904099571341
 20
2.492523628491086
 10
4.164564680159008
 20
2.493141381354753
 10
4.164720805022107
 20
2.493449964456641
  0
LINE
  5
33840
330
337EE
100
AcDbEntity
  8
0
100
AcDbLine
 10
4.164720805022107
 20
2.493449964456641
 30
0.0
 11
4.164827943784431
 21
2.494112596801855
 31
0.0
  0
ARC
  5
33841
330
337EE
100
AcDbEntity
  8
0
100
AcDbCircle
 10
4.161138107481503
 20
2.471997580041481
 30
0.0
 40
0.0228705912791584
100
AcDbArc
 50
80.53319905704645
 51
110.2833134922624
  0
LINE
  5
33842
330
337EE
100
AcDbEntity
  8
0
100
AcDbLine
 10
4.147255023454973
 20
2.491893849099684
 30
0.0
 11
4.153209731332347
 21
2.493449964456641
 31
0.0
  0
LINE
  5
33843
330
337EE
100
AcDbEntity
  8
0
100
AcDbLine
 10
8.56599304114966
 20
1.38773423111248
 30
0.0
 11
8.56599304114966
 21
11.70970523082268
 31
0.0
  0
LINE
  5
33844
330
337EE
100
AcDbEntity
  8
0
100
AcDbLine
 10
9.565993249061923
 20
1.761619031963355
 30
0.0
 11
9.565993249061923
 21
11.33582042997181
 31
0.0
  0
LINE
  5
33845
330
337EE
100
AcDbEntity
  8
0
100
AcDbLine
 10
4.550641442250641
 20
1.91636553765185
 30
0.0
 11
4.550641442250641
 21
5.84681417277382
 31
0.0
  0
LWPOLYLINE
  5
33846
330
337EE
100
AcDbEntity
  8
0
100
AcDbPolyline
 90
        4
 70
     0
 43
0.0
 10
6.116037983239553
 20
11.38350971906107
 10
6.15323471353975
 20
11.39038273299676
 10
6.179295319152077
 20
11.39541950147825
 10
6.177130690824714
 20
11.39499739968774
  0
LINE
  5
33847
330
337EE
100
AcDbEntity
  8
0
100
AcDbLine
 10
4.435993126261105
 20
2.173719738007501
 30
0.0
 11
4.435993126261105
 21
5.938913248837432
 31
0.0
  0
LINE
  5
33848
330
337EE
100
AcDbEntity
  8
0
100
AcDbLine
 10
4.037096979343433
 20
1.983176419180179
 30
0.0
 11
4.344789274855778
 21
1.983176419180179
 31
0.0
  0
LINE
  5
33849
330
337EE
100
AcDbEntity
  8
0
100
AcDbLine
 10
4.340943132620076
 20
1.991058781455791
 30
0.0
 11
4.040943121579136
 21
1.991058781455791
 31
0.0
  0
LINE
  5
3384A
330
337EE
100
AcDbEntity
  8
0
100
AcDbLine
 10
2.869018634807218
 20
1.976090130255582
 30
0.0
 11
2.869018634807218
 21
11.12134933167958
 31
0.0
  0
LINE
  5
3384B
330
337EE
100
AcDbEntity
  8
0
100
AcDbLine
 10
4.081443113719771
 20
2.441776961387581
 30
0.0
 11
4.30044314047944
 21
2.441776961387581
 31
0.0
  0
LINE
  5
3384C
330
337EE
100
AcDbEntity
  8
0
100
AcDbLine
 10
4.08411901614085
 20
2.44912546316373
 30
0.0
 11
4.29776723805836
 21
2.44912546316373
 31
0.0
  0
LINE
  5
3384D
330
337EE
100
AcDbEntity
  8
0
100
AcDbLine
 10
4.081443113719771
 20
2.430348240079812
 30
0.0
 11
4.30044314047944
 21
2.430348240079812
 31
0.0
  0
LINE
  5
3384E
330
337EE
100
AcDbEntity
  8
0
100
AcDbLine
 10
4.164720805022107
 20
2.492857144638279
 30
0.0
 11
4.164720805022107
 21
2.493449964456641
 31
0.0
  0
LINE
  5
3384F
330
337EE
100
AcDbEntity
  8
0
100
AcDbLine
 10
4.217165449177104
 20
2.492829864953416
 30
0.0
 11
4.217165449177104
 21
2.493449964456641
 31
0.0
  0
ENDBLK
  5
33851
330
337EE
100
AcDbEntity
  8
0
100
AcDbBlockEnd
  0
ENDSEC
  0
SECTION
  2
ENTITIES
  0
TEXT
  5
2E7FA
330
8270
100
AcDbEntity
  8
0
100
AcDbText
 10
-6.419581398661535
 20
11.84268898977888
 30
0.0
 40
0.125
  1
LX2031
 41
0.7500000000000002
 51
15.0
  7
P125
 72
     2
 11
-5.964224255804392
 21
11.90518898977888
 31
0.0
100
AcDbText
 73
     2
  0
LINE
  5
2E7FB
330
8270
100
AcDbEntity
  8
0
100
AcDbLine
 10
-7.543938438692981
 20
12.77821762227817
 30
0.0
 11
-7.543938438692981
 21
12.79449047536277
 31
0.0
  0
LINE
  5
2E7FC
330
8270
100
AcDbEntity
  8
0
100
AcDbLine
 10
-7.65499093869298
 20
12.77821762227817
 30
0.0
 11
-7.65499093869298
 21
12.79449047536277
 31
0.0
  0
LINE
  5
2E7FD
330
8270
100
AcDbEntity
  8
0
100
AcDbLine
 10
-7.410540406327799
 20
11.77641400745327
 30
0.0
 11
-7.796262738582012
 21
11.50866331073636
 31
0.0
  0
LINE
  5
2E7FE
330
8270
100
AcDbEntity
  8
0
100
AcDbLine
 10
-7.636487434404954
 20
12.76896324727817
 30
0.0
 11
-7.636487434404954
 21
12.41559206073635
 31
0.0
  0
LINE
  5
2E7FF
330
8270
100
AcDbEntity
  8
0
100
AcDbLine
 10
-7.562441942981013
 20
12.76896324727817
 30
0.0
 11
-7.562477315443003
 21
12.41559206073635
 31
0.0
  0
LINE
  5
2E800
330
8270
100
AcDbEntity
  8
0
100
AcDbLine
 10
-7.543938438692981
 20
12.79449047536277
 30
0.0
 11
-7.654990938692983
 21
12.79449047536277
 31
0.0
  0
LINE
  5
2E801
330
8270
100
AcDbEntity
  8
0
100
AcDbLine
 10
-7.562441942981013
 20
12.76896324727817
 30
0.0
 11
-7.636487434404954
 21
12.76896324727817
 31
0.0
  0
LINE
  5
2E802
330
8270
100
AcDbEntity
  8
0
100
AcDbLine
 10
-7.543938438692981
 20
12.77821762227817
 30
0.0
 11
-7.654990938692983
 21
12.77821762227817
 31
0.0
  0
LINE
  5
2E803
330
8270
100
AcDbEntity
  8
0
100
AcDbLine
 10
-7.410540406327807
 20
12.40633768573634
 30
0.0
 11
-7.796262738581976
 21
12.40633768573635
 31
0.0
  0
LINE
  5
2E804
330
8270
100
AcDbEntity
  8
0
100
AcDbLine
 10
-7.796262738581976
 20
12.40633768573635
 30
0.0
 11
-7.796262738581972
 21
11.5086633107364
 31
0.0
  0
LINE
  5
2E805
330
8270
100
AcDbEntity
  8
0
100
AcDbLine
 10
-7.562477315443003
 20
12.41559206073635
 30
0.0
 11
-7.636487434404954
 21
12.41559206073635
 31
0.0
  0
LINE
  5
2E806
330
8270
100
AcDbEntity
  8
0
100
AcDbLine
 10
-7.410540406327803
 20
11.77641400745327
 30
0.0
 11
-7.410540406327807
 21
12.40633768573634
 31
0.0
  0
VIEWPORT
  5
1FE31
102
{ACAD_XDICTIONARY
360
1FE32
102
}
330
826C
100
AcDbEntity
 67
     1
  8
0
348
32D36
100
AcDbViewport
 10
5.375000360443836
 20
4.124999881729364
 30
0.0
 40
11.63799974576695
 41
9.205326589880431
 68
     1
 69
     1
 12
5.375000360443836
 22
4.124999881729364
 13
0.0
 23
0.0
 14
0.5
 24
0.5
 15
0.5
 25
0.5
 16
0.0
 26
0.0
 36
1.0
 17
0.0
 27
0.0
 37
0.0
 42
50.0
 43
0.0
 44
0.0
 45
9.205326589880431
 50
0.0
 51
0.0
 72
   100
 90
    32800
  1

281
     0
 71
     1
 74
     0
110
0.0
120
0.0
130
0.0
111
1.0
121
0.0
131
0.0
112
0.0
122
1.0
132
0.0
 79
     0
146
0.0
170
     0
 61
     5
292
     1
282
     1
141
0.0
142
0.0
 63
   250
421
  3355443
  0
VIEWPORT
  5
1FE35
102
{ACAD_XDICTIONARY
360
1FE36
102
}
330
826C
100
AcDbEntity
 67
     1
  8
0
348
32D36
100
AcDbViewport
 10
5.375000121086601
 20
4.124999820716737
 30
0.0
 40
8.600000193738562
 41
6.599999713146781
 68
     2
 69
     2
 12
4.274975127507598
 22
33.54783196424385
 13
0.0
 23
0.0
 14
0.5
 24
0.5
 15
0.5
 25
0.5
 16
0.0
 26
0.0
 36
1.0
 17
0.0
 27
0.0
 37
0.0
 42
50.0
 43
0.0
 44
0.0
 45
67.55302637345669
 50
0.0
 51
0.0
 72
   100
 90
    32800
  1

281
     0
 71
     1
 74
     0
110
0.0
120
0.0
130
0.0
111
1.0
121
0.0
131
0.0
112
0.0
122
1.0
132
0.0
 79
     0
146
0.0
170
     0
 61
     5
292
     1
282
     1
141
0.0
142
0.0
 63
   250
421
  3355443
  0
ENDSEC
  0
SECTION
  2
OBJECTS
  0
DICTIONARY
  5
8208
330
0
100
AcDbDictionary
281
     1
  3
ACAD_CIP_PREVIOUS_PRODUCT_INFO
350
32D65
  3
ACAD_COLOR
350
32D49
  3
ACAD_DETAILVIEWSTYLE
350
338D7
  3
ACAD_GROUP
350
8209
  3
ACAD_IMAGE_VARS
350
2FA08
  3
ACAD_LAYOUT
350
32D5F
  3
ACAD_MATERIAL
350
32D17
  3
ACAD_MLEADERSTYLE
350
32D5D
  3
ACAD_MLINESTYLE
350
8262
  3
ACAD_PLOTSETTINGS
350
32D60
  3
ACAD_PLOTSTYLENAME
350
32D15
  3
ACAD_SCALELIST
350
8236
  3
ACAD_SECTIONVIEWSTYLE
350
338D5
  3
ACAD_TABLESTYLE
350
32D4A
  3
ACAD_VISUALSTYLE
350
32D30
  3
ACDB_RECOMPOSE_DATA
350
33A3A
  3
ACDBVARIABLEDICTIONARY
350
C8F3
  3
APPDATA
350
2FA07
  0
DICTIONARY
  5
8308
330
81FE
100
AcDbDictionary
280
     1
281
     1
  3
ACAD_LAYERSTATES
360
8309
  0
DICTIONARY
  5
C8D7
330
8258
100
AcDbDictionary
280
     1
281
     1
  3
ADSK_XREC_LAYER_RECONCILED
360
334EE
  0
DICTIONARY
  5
98DA
330
8270
100
AcDbDictionary
280
     1
281
     1
  3
ACAD_SORTENTS
360
98DB
  0
DICTIONARY
  5
334E7
330
333DC
100
AcDbDictionary
280
     1
281
     1
  3
ACAD_SORTENTS
360
334E8
  0
DICTIONARY
  5
1FE32
330
1FE31
100
AcDbDictionary
280
     1
281
     1
  3
ASDK_XREC_ANNOTATION_SCALE_INFO
360
1FE33
  0
DICTIONARY
  5
1FE36
330
1FE35
100
AcDbDictionary
280
     1
281
     1
  3
ASDK_XREC_ANNOTATION_SCALE_INFO
360
1FE37
  0
XRECORD
  5
32D65
102
{ACAD_REACTORS
330
8208
102
}
330
8208
100
AcDbXrecord
280
     1
300
ACDLT
300
2014
300
ACDLT_F_S
  0
DICTIONARY
  5
32D49
102
{ACAD_REACTORS
330
8208
102
}
330
8208
100
AcDbDictionary
281
     1
  0
DICTIONARY
  5
338D7
102
{ACAD_REACTORS
330
8208
102
}
330
8208
100
AcDbDictionary
281
     1
  3
Imperial24
350
338D8
  0
DICTIONARY
  5
8209
102
{ACAD_REACTORS
330
8208
102
}
330
8208
100
AcDbDictionary
281
     1
  0
RASTERVARIABLES
  5
2FA08
102
{ACAD_REACTORS
330
8208
102
}
330
8208
100
AcDbRasterVariables
 90
        0
 70
     1
 71
     1
 72
     0
  0
DICTIONARY
  5
32D5F
102
{ACAD_REACTORS
330
8208
102
}
330
8208
100
AcDbDictionary
281
     1
  3
Layout1
350
32D62
  3
Model
350
32D61
  0
DICTIONARY
  5
32D17
102
{ACAD_REACTORS
330
8208
102
}
330
8208
100
AcDbDictionary
281
     1
  3
ByBlock
350
32D20
  3
ByLayer
350
32D18
  3
Global
350
32D28
  0
DICTIONARY
  5
32D5D
102
{ACAD_REACTORS
330
8208
102
}
330
8208
100
AcDbDictionary
281
     1
  3
Standard
350
32D5E
  0
DICTIONARY
  5
8262
102
{ACAD_REACTORS
330
8208
102
}
330
8208
100
AcDbDictionary
281
     1
  3
STANDARD
350
8263
  0
DICTIONARY
  5
32D60
102
{ACAD_REACTORS
330
8208
102
}
330
8208
100
AcDbDictionary
281
     1
  0
ACDBDICTIONARYWDFLT
  5
32D15
102
{ACAD_REACTORS
330
8208
102
}
330
8208
100
AcDbDictionary
281
     1
  3
Normal
350
32D16
100
AcDbDictionaryWithDefault
340
32D16
  0
DICTIONARY
  5
8236
102
{ACAD_REACTORS
330
8208
102
}
330
8208
100
AcDbDictionary
281
     1
  3
A0
350
32D4C
  3
A1
350
32D4D
  3
A2
350
32D4E
  3
A3
350
32D4F
  3
A4
350
32D50
  3
A5
350
32D51
  3
A6
350
32D52
  3
A7
350
32D53
  3
A8
350
32D54
  3
A9
350
32D55
  3
B0
350
32D56
  3
B1
350
32D57
  3
B2
350
32D58
  3
B3
350
32D59
  3
B4
350
32D5A
  3
B5
350
32D5B
  3
B6
350
32D5C
  0
DICTIONARY
  5
338D5
102
{ACAD_REACTORS
330
8208
102
}
330
8208
100
AcDbDictionary
281
     1
  3
Imperial24
350
338D6
  0
DICTIONARY
  5
32D4A
102
{ACAD_REACTORS
330
8208
102
}
330
8208
100
AcDbDictionary
281
     1
  3
Standard
350
32D4B
  0
DICTIONARY
  5
32D30
102
{ACAD_REACTORS
330
8208
102
}
330
8208
100
AcDbDictionary
281
     1
  3
2dWireframe
350
32D36
  3
Basic
350
32D35
  3
Brighten
350
32D3C
  3
ColorChange
350
32D40
  3
Conceptual
350
32D39
  3
Dim
350
32D3B
  3
EdgeColorOff
350
32D48
  3
Facepattern
350
32D3F
  3
Flat
350
32D31
  3
FlatWithEdges
350
32D32
  3
Gouraud
350
32D33
  3
GouraudWithEdges
350
32D34
  3
Hidden
350
32D38
  3
JitterOff
350
32D46
  3
Linepattern
350
32D3E
  3
OverhangOff
350
32D47
  3
Realistic
350
32D3A
  3
Shaded
350
32D45
  3
Shaded with edges
350
32D44
  3
Shades of Gray
350
32D41
  3
Sketchy
350
32D42
  3
Thicken
350
32D3D
  3
Wireframe
350
32D37
  3
X-Ray
350
32D43
  0
XRECORD
  5
33A3A
102
{ACAD_REACTORS
330
8208
102
}
330
8208
100
AcDbXrecord
280
     1
 90
        1
330
32D4B
330
338D6
330
338D8
  0
DICTIONARY
  5
C8F3
102
{ACAD_REACTORS
330
8208
102
}
330
8208
100
AcDbDictionary
281
     1
  3
CANNOSCALE
350
32D0D
  3
CMLEADERSTYLE
350
33896
  3
CTABLESTYLE
350
33895
  3
CVIEWDETAILSTYLE
350
33A2B
  3
CVIEWSECTIONSTYLE
350
33A2C
  3
LAYEREVAL
350
33899
  3
LAYERNOTIFY
350
3389A
  3
LIGHTINGUNITS
350
33898
  3
MSLTSCALE
350
33897
  0
DICTIONARY
  5
2FA07
102
{ACAD_REACTORS
330
8208
102
}
330
8208
100
AcDbDictionary
281
     1
  0
DICTIONARY
  5
8309
102
{ACAD_REACTORS
330
8308
102
}
330
8308
100
AcDbDictionary
281
     1
  0
XRECORD
  5
334EE
102
{ACAD_REACTORS
330
C8D7
102
}
330
C8D7
100
AcDbXrecord
280
     1
290
     1
  0
SORTENTSTABLE
  5
98DB
102
{ACAD_REACTORS
330
98DA
102
}
330
98DA
100
AcDbSortentsTable
330
8270
331
2E802
  5
32F89
331
2E7FD
  5
32F84
331
2E7FA
  5
32F81
331
2E804
  5
32F8B
331
2E7FF
  5
32F86
331
2E801
  5
32F88
331
2E7FC
  5
32F83
331
2E806
  5
32F8D
331
2E803
  5
32F8A
331
2E7FE
  5
32F85
331
2E800
  5
32F87
331
2E7FB
  5
32F82
331
2E805
  5
32F8C
  0
SORTENTSTABLE
  5
334E8
102
{ACAD_REACTORS
330
334E7
102
}
330
334E7
100
AcDbSortentsTable
330
333DC
  0
XRECORD
  5
1FE33
102
{ACAD_REACTORS
330
1FE32
102
}
330
1FE32
100
AcDbXrecord
280
     1
 90
        1
340
0
  0
XRECORD
  5
1FE37
102
{ACAD_REACTORS
330
1FE36
102
}
330
1FE36
100
AcDbXrecord
280
     1
 90
        1
340
0
  0
ACDBDETAILVIEWSTYLE
  5
338D8
102
{ACAD_XDICTIONARY
360
33A38
102
}
102
{ACAD_REACTORS
330
338D7
102
}
330
338D7
100
AcDbModelDocViewStyle
 70
     0
  3
Imperial24
290
     0
100
AcDbDetailViewStyle
 70
     0
 71
     0
 90
        3
 71
     1
340
8259
 62
   256
 40
0.24
340
0
 62
   256
 40
0.24
300

 40
0.36
280
     3
 71
     2
340
8260
 90
       25
 62
   256
 71
     3
340
8259
 62
   256
 40
0.24
 90
        1
 40
0.75
 90
        1
300
%<\AcVar ViewType \f "%tc1">% %<\AcVar ViewDetailId>%\PSCALE %<\AcVar ViewScale \f "%sn">%
 71
     4
340
8260
 90
       25
 62
   256
340
8260
 90
       25
 62
   256
280
     0
  0
LAYOUT
  5
32D62
102
{ACAD_REACTORS
330
32D5F
102
}
330
32D5F
100
AcDbPlotSettings
  1

  2
Adobe PDF
  4

  6

 40
0.0
 41
0.0
 42
0.0
 43
0.0
 44
0.0
 45
0.0
 46
0.0
 47
0.0
 48
0.0
 49
0.0
140
0.0
141
0.0
142
1.0
143
1.0
 70
   688
 72
     0
 73
     0
 74
     5
  7

 75
    16
147
1.0
 76
     0
 77
     2
 78
   300
148
0.0
149
0.0
100
AcDbLayout
  1
Layout1
 70
     1
 71
     1
 10
-0.1249995194082185
 20
-0.1249999981226883
 11
10.87500024029589
 21
8.374999761581422
 12
0.0
 22
0.0
 32
0.0
 14
1.075000024217318
 24
0.8249999641433474
 34
0.0
 15
9.675000217955883
 25
7.424999677290128
 35
0.0
146
0.0
 13
0.0
 23
0.0
 33
0.0
 16
1.0
 26
0.0
 36
0.0
 17
0.0
 27
1.0
 37
0.0
 76
     0
330
826C
331
1FE31
  0
LAYOUT
  5
32D61
102
{ACAD_XDICTIONARY
360
33530
102
}
102
{ACAD_REACTORS
330
32D5F
102
}
330
32D5F
100
AcDbPlotSettings
  1

  2
Adobe PDF
  4

  6

 40
0.0
 41
0.0
 42
0.0
 43
0.0
 44
0.0
 45
0.0
 46
0.0
 47
0.0
 48
0.0
 49
0.0
140
0.0
141
0.0
142
1.0
143
1.0
 70
  1712
 72
     0
 73
     0
 74
     0
  7

 75
     0
147
1.0
 76
     0
 77
     2
 78
   300
148
0.0
149
0.0
100
AcDbLayout
  1
Model
 70
     1
 71
     0
 10
0.0
 20
0.0
 11
12.0
 21
9.0
 12
0.0
 22
0.0
 32
0.0
 14
0.0
 24
0.0
 34
0.0
 15
0.0
 25
0.0
 35
0.0
146
0.0
 13
0.0
 23
0.0
 33
0.0
 16
1.0
 26
0.0
 36
0.0
 17
0.0
 27
1.0
 37
0.0
 76
     0
330
8270
331
8274
  0
MATERIAL
  5
32D20
102
{ACAD_XDICTIONARY
360
32D21
102
}
102
{ACAD_REACTORS
330
32D17
102
}
330
32D17
100
AcDbMaterial
  1
ByBlock
 72
     0
 43
0.0208333333333333
 43
0.0
 43
0.0
 43
0.0
 43
0.0
 43
0.0208333333333333
 43
0.0
 43
0.0
 43
0.0
 43
0.0
 43
1.0
 43
0.0
 43
0.0
 43
0.0
 43
0.0
 43
1.0
 77
     0
 47
0.0208333333333333
 47
0.0
 47
0.0
 47
0.0
 47
0.0
 47
0.0208333333333333
 47
0.0
 47
0.0
 47
0.0
 47
0.0
 47
1.0
 47
0.0
 47
0.0
 47
0.0
 47
0.0
 47
1.0
171
     0
 49
0.0208333333333333
 49
0.0
 49
0.0
 49
0.0
 49
0.0
 49
0.0208333333333333
 49
0.0
 49
0.0
 49
0.0
 49
0.0
 49
1.0
 49
0.0
 49
0.0
 49
0.0
 49
0.0
 49
1.0
175
     0
142
0.0208333333333333
142
0.0
142
0.0
142
0.0
142
0.0
142
0.0208333333333333
142
0.0
142
0.0
142
0.0
142
0.0
142
1.0
142
0.0
142
0.0
142
0.0
142
0.0
142
1.0
179
     0
144
0.0208333333333333
144
0.0
144
0.0
144
0.0
144
0.0
144
0.0208333333333333
144
0.0
144
0.0
144
0.0
144
0.0
144
1.0
144
0.0
144
0.0
144
0.0
144
0.0
144
1.0
147
0.0208333333333333
147
0.0
147
0.0
147
0.0
147
0.0
147
0.0208333333333333
147
0.0
147
0.0
147
0.0
147
0.0
147
1.0
147
0.0
147
0.0
147
0.0
147
0.0
147
1.0
  0
MATERIAL
  5
32D18
102
{ACAD_XDICTIONARY
360
32D19
102
}
102
{ACAD_REACTORS
330
32D17
102
}
330
32D17
100
AcDbMaterial
  1
ByLayer
 72
     0
 43
0.0208333333333333
 43
0.0
 43
0.0
 43
0.0
 43
0.0
 43
0.0208333333333333
 43
0.0
 43
0.0
 43
0.0
 43
0.0
 43
1.0
 43
0.0
 43
0.0
 43
0.0
 43
0.0
 43
1.0
 77
     0
 47
0.0208333333333333
 47
0.0
 47
0.0
 47
0.0
 47
0.0
 47
0.0208333333333333
 47
0.0
 47
0.0
 47
0.0
 47
0.0
 47
1.0
 47
0.0
 47
0.0
 47
0.0
 47
0.0
 47
1.0
171
     0
 49
0.0208333333333333
 49
0.0
 49
0.0
 49
0.0
 49
0.0
 49
0.0208333333333333
 49
0.0
 49
0.0
 49
0.0
 49
0.0
 49
1.0
 49
0.0
 49
0.0
 49
0.0
 49
0.0
 49
1.0
175
     0
142
0.0208333333333333
142
0.0
142
0.0
142
0.0
142
0.0
142
0.0208333333333333
142
0.0
142
0.0
142
0.0
142
0.0
142
1.0
142
0.0
142
0.0
142
0.0
142
0.0
142
1.0
179
     0
144
0.0208333333333333
144
0.0
144
0.0
144
0.0
144
0.0
144
0.0208333333333333
144
0.0
144
0.0
144
0.0
144
0.0
144
1.0
144
0.0
144
0.0
144
0.0
144
0.0
144
1.0
147
0.0208333333333333
147
0.0
147
0.0
147
0.0
147
0.0
147
0.0208333333333333
147
0.0
147
0.0
147
0.0
147
0.0
147
1.0
147
0.0
147
0.0
147
0.0
147
0.0
147
1.0
  0
MATERIAL
  5
32D28
102
{ACAD_XDICTIONARY
360
32D29
102
}
102
{ACAD_REACTORS
330
32D17
102
}
330
32D17
100
AcDbMaterial
  1
Global
 72
     0
 43
0.0208333333333333
 43
0.0
 43
0.0
 43
0.0
 43
0.0
 43
0.0208333333333333
 43
0.0
 43
0.0
 43
0.0
 43
0.0
 43
1.0
 43
0.0
 43
0.0
 43
0.0
 43
0.0
 43
1.0
 77
     0
 47
0.0208333333333333
 47
0.0
 47
0.0
 47
0.0
 47
0.0
 47
0.0208333333333333
 47
0.0
 47
0.0
 47
0.0
 47
0.0
 47
1.0
 47
0.0
 47
0.0
 47
0.0
 47
0.0
 47
1.0
171
     0
 49
0.0208333333333333
 49
0.0
 49
0.0
 49
0.0
 49
0.0
 49
0.0208333333333333
 49
0.0
 49
0.0
 49
0.0
 49
0.0
 49
1.0
 49
0.0
 49
0.0
 49
0.0
 49
0.0
 49
1.0
175
     0
142
0.0208333333333333
142
0.0
142
0.0
142
0.0
142
0.0
142
0.0208333333333333
142
0.0
142
0.0
142
0.0
142
0.0
142
1.0
142
0.0
142
0.0
142
0.0
142
0.0
142
1.0
179
     0
144
0.0208333333333333
144
0.0
144
0.0
144
0.0
144
0.0
144
0.0208333333333333
144
0.0
144
0.0
144
0.0
144
0.0
144
1.0
144
0.0
144
0.0
144
0.0
144
0.0
144
1.0
147
0.0208333333333333
147
0.0
147
0.0
147
0.0
147
0.0
147
0.0208333333333333
147
0.0
147
0.0
147
0.0
147
0.0
147
1.0
147
0.0
147
0.0
147
0.0
147
0.0
147
1.0
  0
MLEADERSTYLE
  5
32D5E
102
{ACAD_REACTORS
330
32D5D
102
}
330
32D5D
100
AcDbMLeaderStyle
179
     2
170
     2
171
     1
172
     0
 90
        2
 40
0.0
 41
0.0
173
     1
 91
-1056964608
340
825E
 92
       -2
290
     1
 42
0.09
291
     1
 43
0.36
  3
Standard
 44
0.18
300

342
8259
174
     1
178
     6
175
     1
176
     0
 93
-1056964608
 45
0.18
292
     0
297
     0
 46
0.18
 94
-1056964608
 47
1.0
 49
1.0
140
1.0
293
     1
141
0.0
294
     1
177
     0
142
1.0
295
     0
296
     0
143
0.125
271
     0
272
     9
273
     9
298
     0
  0
MLINESTYLE
  5
8263
102
{ACAD_REACTORS
330
8262
102
}
330
8262
100
AcDbMlineStyle
  2
STANDARD
 70
     0
  3

 62
   256
 51
90.0
 52
90.0
 71
     2
 49
0.5
 62
   256
  6
BYLAYER
 49
-0.5
 62
   256
  6
BYLAYER
  0
ACDBPLACEHOLDER
  5
32D16
102
{ACAD_REACTORS
330
32D15
102
}
330
32D15
  0
SCALE
  5
32D4C
102
{ACAD_REACTORS
330
8236
102
}
330
8236
100
AcDbScale
 70
     0
300
1:1
140
1.0
141
1.0
290
     1
  0
SCALE
  5
32D4D
102
{ACAD_REACTORS
330
8236
102
}
330
8236
100
AcDbScale
 70
     0
300
1/128" = 1'-0"
140
0.0078125
141
12.0
290
     0
  0
SCALE
  5
32D4E
102
{ACAD_REACTORS
330
8236
102
}
330
8236
100
AcDbScale
 70
     0
300
1/64" = 1'-0"
140
0.015625
141
12.0
290
     0
  0
SCALE
  5
32D4F
102
{ACAD_REACTORS
330
8236
102
}
330
8236
100
AcDbScale
 70
     0
300
1/32" = 1'-0"
140
0.03125
141
12.0
290
     0
  0
SCALE
  5
32D50
102
{ACAD_REACTORS
330
8236
102
}
330
8236
100
AcDbScale
 70
     0
300
1/16" = 1'-0"
140
0.0625
141
12.0
290
     0
  0
SCALE
  5
32D51
102
{ACAD_REACTORS
330
8236
102
}
330
8236
100
AcDbScale
 70
     0
300
3/32" = 1'-0"
140
0.09375
141
12.0
290
     0
  0
SCALE
  5
32D52
102
{ACAD_REACTORS
330
8236
102
}
330
8236
100
AcDbScale
 70
     0
300
1/8" = 1'-0"
140
0.125
141
12.0
290
     0
  0
SCALE
  5
32D53
102
{ACAD_REACTORS
330
8236
102
}
330
8236
100
AcDbScale
 70
     0
300
3/16" = 1'-0"
140
0.1875
141
12.0
290
     0
  0
SCALE
  5
32D54
102
{ACAD_REACTORS
330
8236
102
}
330
8236
100
AcDbScale
 70
     0
300
1/4" = 1'-0"
140
0.25
141
12.0
290
     0
  0
SCALE
  5
32D55
102
{ACAD_REACTORS
330
8236
102
}
330
8236
100
AcDbScale
 70
     0
300
3/8" = 1'-0"
140
0.375
141
12.0
290
     0
  0
SCALE
  5
32D56
102
{ACAD_REACTORS
330
8236
102
}
330
8236
100
AcDbScale
 70
     0
300
1/2" = 1'-0"
140
0.5
141
12.0
290
     0
  0
SCALE
  5
32D57
102
{ACAD_REACTORS
330
8236
102
}
330
8236
100
AcDbScale
 70
     0
300
3/4" = 1'-0"
140
0.75
141
12.0
290
     0
  0
SCALE
  5
32D58
102
{ACAD_REACTORS
330
8236
102
}
330
8236
100
AcDbScale
 70
     0
300
1" = 1'-0"
140
1.0
141
12.0
290
     0
  0
SCALE
  5
32D59
102
{ACAD_REACTORS
330
8236
102
}
330
8236
100
AcDbScale
 70
     0
300
1-1/2" = 1'-0"
140
1.5
141
12.0
290
     0
  0
SCALE
  5
32D5A
102
{ACAD_REACTORS
330
8236
102
}
330
8236
100
AcDbScale
 70
     0
300
3" = 1'-0"
140
3.0
141
12.0
290
     0
  0
SCALE
  5
32D5B
102
{ACAD_REACTORS
330
8236
102
}
330
8236
100
AcDbScale
 70
     0
300
6" = 1'-0"
140
6.0
141
12.0
290
     0
  0
SCALE
  5
32D5C
102
{ACAD_REACTORS
330
8236
102
}
330
8236
100
AcDbScale
 70
     0
300
1'-0" = 1'-0"
140
12.0
141
12.0
290
     0
  0
ACDBSECTIONVIEWSTYLE
  5
338D6
102
{ACAD_XDICTIONARY
360
33A36
102
}
102
{ACAD_REACTORS
330
338D5
102
}
330
338D5
100
AcDbModelDocViewStyle
 70
     0
  3
Imperial24
290
     0
100
AcDbSectionViewStyle
 70
     0
 71
     0
 90
       78
 71
     1
340
8259
 62
   256
 40
0.24
340
0
340
0
 62
   256
 40
0.24
300
I, O, Q, S, X, Z
 40
0.48
 90
        3
 40
0.18
 90
        1
 71
     2
340
8260
 90
       25
 62
   256
340
8260
 90
       50
 62
   256
 40
0.24
 40
0.0
 40
0.24
 71
     3
340
8259
 62
   256
 40
0.24
 90
        1
 40
0.75
 90
        1
300
%<\AcVar ViewType \f "%tc1">% %<\AcVar ViewSectionStartId>%-%<\AcVar ViewSectionEndId>%\PSCALE %<\AcVar ViewScale \f "%sn">%
 71
     4
 62
   256
 62
   257
300
ANSI31
 40
1.0
 90
        0
290
     0
290
     0
 90
        6
 40
0.0
 40
1.570796326794896
 40
0.2617993877991494
 40
1.308996938995747
 40
-0.2617993877991494
 40
1.832595714594046
  0
TABLESTYLE
  5
32D4B
102
{ACAD_XDICTIONARY
360
3389C
102
}
102
{ACAD_REACTORS
330
32D4A
102
}
330
32D4A
100
AcDbTableStyle
280
     0
  3
Standard
 70
     0
 71
     0
 40
0.06
 41
0.06
280
     0
281
     0
  7
STANDARD
140
0.18
170
     2
 62
     0
 63
     7
283
     0
 90
      512
 91
        0
  1

274
    -2
284
     1
 64
     0
275
    -2
285
     1
 65
     0
276
    -2
286
     1
 66
     0
277
    -2
287
     1
 67
     0
278
    -2
288
     1
 68
     0
279
    -2
289
     1
 69
     0
  7
STANDARD
140
0.25
170
     5
 62
     0
 63
     7
283
     0
 90
      512
 91
        0
  1

274
    -2
284
     1
 64
     0
275
    -2
285
     1
 65
     0
276
    -2
286
     1
 66
     0
277
    -2
287
     1
 67
     0
278
    -2
288
     1
 68
     0
279
    -2
289
     1
 69
     0
  7
STANDARD
140
0.18
170
     5
 62
     0
 63
     7
283
     0
 90
      512
 91
        0
  1

274
    -2
284
     1
 64
     0
275
    -2
285
     1
 65
     0
276
    -2
286
     1
 66
     0
277
    -2
287
     1
 67
     0
278
    -2
288
     1
 68
     0
279
    -2
289
     1
 69
     0
  0
VISUALSTYLE
  5
32D36
102
{ACAD_REACTORS
330
32D30
102
}
330
32D30
100
AcDbVisualStyle
  2

 70
     4
177
     3
291
     0
 70
    58
 90
        0
176
     1
 90
        2
176
     1
 90
        0
176
     1
 90
        0
176
     1
 40
0.6
176
     1
 40
30.0
176
     1
 62
     7
420
 16777215
176
     1
 90
        1
176
     1
 90
        4
176
     1
 62
     7
176
     1
 62
   257
176
     1
 90
        1
176
     1
 90
        1
176
     1
 40
1.0
176
     1
 90
        0
176
     1
 62
   257
176
     1
 40
1.0
176
     1
 90
        1
176
     1
 90
        6
176
     1
 90
        2
176
     1
 62
     7
176
     1
 90
        5
176
     1
 90
        0
176
     1
 90
        0
176
     1
290
     0
176
     1
 90
        1
176
     1
 40
0.0
176
     1
 90
        0
176
     1
290
     1
176
     1
290
     1
176
     1
290
     0
176
     1
290
     0
176
     1
290
     0
176
     1
290
     0
176
     1
290
     0
176
     1
290
     0
176
     1
290
     0
176
     1
 90
       50
176
     1
 40
0.0
176
     1
 40
1.0
176
     1
 90
        0
176
     1
 62
    18
420
        0
176
     1
 90
       50
176
     1
 90
        3
176
     1
 62
     5
420
      255
176
     1
290
     0
176
     1
 90
       50
176
     1
 90
       50
176
     1
 90
       50
176
     1
290
     0
176
     1
 90
       50
176
     1
 62
   256
176
     0
 40
1.0
176
     0
 90
        2
176
     1
  1
strokes_ogs.tif
176
     1
290
     0
176
     1
 40
1.0
176
     1
 40
1.0
176
     1
  0
VISUALSTYLE
  5
32D35
102
{ACAD_REACTORS
330
32D30
102
}
330
32D30
100
AcDbVisualStyle
  2

 70
     7
177
     3
291
     1
 70
    58
 90
        1
176
     1
 90
        0
176
     1
 90
        1
176
     1
 90
        0
176
     1
 40
0.6
176
     1
 40
30.0
176
     1
 62
     7
420
 16777215
176
     1
 90
        0
176
     1
 90
        4
176
     1
 62
     7
176
     1
 62
   257
176
     1
 90
        1
176
     1
 90
        1
176
     1
 40
1.0
176
     1
 90
        8
176
     1
 62
     7
176
     1
 40
1.0
176
     1
 90
        1
176
     1
 90
        6
176
     1
 90
        2
176
     1
 62
     7
176
     1
 90
        5
176
     1
 90
        0
176
     1
 90
        0
176
     1
290
     0
176
     1
 90
        1
176
     1
 40
0.0
176
     1
 90
        0
176
     1
290
     0
176
     1
290
     1
176
     1
290
     1
176
     1
290
     0
176
     1
290
     0
176
     1
290
     0
176
     1
290
     0
176
     1
290
     0
176
     1
290
     0
176
     1
 90
       50
176
     1
 40
0.0
176
     1
 40
1.0
176
     1
 90
        0
176
     1
 62
    18
420
        0
176
     1
 90
       50
176
     1
 90
        3
176
     1
 62
     5
420
      255
176
     1
290
     0
176
     1
 90
       50
176
     1
 90
       50
176
     1
 90
       50
176
     1
290
     0
176
     1
 90
       50
176
     1
 62
   256
176
     0
 40
1.0
176
     0
 90
        2
176
     1
  1
strokes_ogs.tif
176
     1
290
     0
176
     1
 40
1.0
176
     1
 40
1.0
176
     1
  0
VISUALSTYLE
  5
32D3C
102
{ACAD_REACTORS
330
32D30
102
}
330
32D30
100
AcDbVisualStyle
  2

 70
    12
177
     3
291
     1
 70
    58
 90
        2
176
     1
 90
        2
176
     1
 90
        0
176
     1
 90
        0
176
     1
 40
0.6
176
     1
 40
30.0
176
     1
 62
     7
420
 16777215
176
     1
 90
        1
176
     1
 90
        4
176
     1
 62
     7
176
     1
 62
   257
176
     1
 90
        1
176
     1
 90
        1
176
     1
 40
1.0
176
     1
 90
        8
176
     1
 62
     7
176
     1
 40
1.0
176
     1
 90
        1
176
     1
 90
        6
176
     1
 90
        2
176
     1
 62
     7
176
     1
 90
        5
176
     1
 90
        0
176
     1
 90
        0
176
     1
290
     0
176
     1
 90
        1
176
     1
 40
50.0
176
     1
 90
        0
176
     1
290
     0
176
     1
290
     1
176
     1
290
     1
176
     1
290
     0
176
     1
290
     0
176
     1
290
     0
176
     1
290
     0
176
     1
290
     0
176
     1
290
     0
176
     1
 90
       50
176
     1
 40
0.0
176
     1
 40
1.0
176
     1
 90
        0
176
     1
 62
    18
420
        0
176
     1
 90
       50
176
     1
 90
        3
176
     1
 62
     5
420
      255
176
     1
290
     0
176
     1
 90
       50
176
     1
 90
       50
176
     1
 90
       50
176
     1
290
     0
176
     1
 90
       50
176
     1
 62
   256
176
     0
 40
1.0
176
     0
 90
        2
176
     1
  1
strokes_ogs.tif
176
     1
290
     0
176
     1
 40
1.0
176
     1
 40
1.0
176
     1
  0
VISUALSTYLE
  5
32D40
102
{ACAD_REACTORS
330
32D30
102
}
330
32D30
100
AcDbVisualStyle
  2

 70
    16
177
     3
291
     1
 70
    58
 90
        2
176
     1
 90
        2
176
     1
 90
        3
176
     1
 90
        0
176
     1
 40
0.6
176
     1
 40
30.0
176
     1
 62
     8
420
  8421504
176
     1
 90
        1
176
     1
 90
        4
176
     1
 62
     7
176
     1
 62
   257
176
     1
 90
        1
176
     1
 90
        1
176
     1
 40
1.0
176
     1
 90
        8
176
     1
 62
     8
420
  8421504
176
     1
 40
1.0
176
     1
 90
        1
176
     1
 90
        6
176
     1
 90
        2
176
     1
 62
     7
176
     1
 90
        5
176
     1
 90
        0
176
     1
 90
        0
176
     1
290
     0
176
     1
 90
        1
176
     1
 40
0.0
176
     1
 90
        0
176
     1
290
     0
176
     1
290
     1
176
     1
290
     1
176
     1
290
     0
176
     1
290
     0
176
     1
290
     0
176
     1
290
     0
176
     1
290
     0
176
     1
290
     0
176
     1
 90
       50
176
     1
 40
0.0
176
     1
 40
1.0
176
     1
 90
        0
176
     1
 62
    18
420
        0
176
     1
 90
       50
176
     1
 90
        3
176
     1
 62
     5
420
      255
176
     1
290
     0
176
     1
 90
       50
176
     1
 90
       50
176
     1
 90
       50
176
     1
290
     0
176
     1
 90
       50
176
     1
 62
   256
176
     0
 40
1.0
176
     0
 90
        2
176
     1
  1
strokes_ogs.tif
176
     1
290
     0
176
     1
 40
1.0
176
     1
 40
1.0
176
     1
  0
VISUALSTYLE
  5
32D39
102
{ACAD_REACTORS
330
32D30
102
}
330
32D30
100
AcDbVisualStyle
  2

 70
     9
177
     3
291
     0
 70
    58
 90
        3
176
     1
 90
        2
176
     1
 90
        0
176
     1
 90
        0
176
     1
 40
0.6
176
     1
 40
30.0
176
     1
 62
     7
420
 16777215
176
     1
 90
        2
176
     1
 90
        2
176
     1
 62
     7
176
     1
 62
   257
176
     1
 90
        1
176
     1
 90
        1
176
     1
 40
179.0
176
     1
 90
        8
176
     1
 62
     7
176
     1
 40
1.0
176
     1
 90
        1
176
     1
 90
        6
176
     1
 90
        2
176
     1
 62
     7
176
     1
 90
        3
176
     1
 90
        0
176
     1
 90
        0
176
     1
290
     0
176
     1
 90
        1
176
     1
 40
0.0
176
     1
 90
        0
176
     1
290
     0
176
     1
290
     1
176
     1
290
     1
176
     1
290
     0
176
     1
290
     0
176
     1
290
     0
176
     1
290
     0
176
     1
290
     0
176
     1
290
     0
176
     1
 90
       50
176
     1
 40
0.0
176
     1
 40
1.0
176
     1
 90
        0
176
     1
 62
    18
420
        0
176
     1
 90
       50
176
     1
 90
        3
176
     1
 62
     5
420
      255
176
     1
290
     0
176
     1
 90
       50
176
     1
 90
       50
176
     1
 90
       50
176
     1
290
     0
176
     1
 90
       50
176
     1
 62
   256
176
     0
 40
1.0
176
     0
 90
        2
176
     1
  1
strokes_ogs.tif
176
     1
290
     0
176
     1
 40
1.0
176
     1
 40
1.0
176
     1
  0
VISUALSTYLE
  5
32D3B
102
{ACAD_REACTORS
330
32D30
102
}
330
32D30
100
AcDbVisualStyle
  2

 70
    11
177
     3
291
     1
 70
    58
 90
        2
176
     1
 90
        2
176
     1
 90
        0
176
     1
 90
        0
176
     1
 40
0.6
176
     1
 40
30.0
176
     1
 62
     7
420
 16777215
176
     1
 90
        1
176
     1
 90
        4
176
     1
 62
     7
176
     1
 62
   257
176
     1
 90
        1
176
     1
 90
        1
176
     1
 40
1.0
176
     1
 90
        8
176
     1
 62
     7
176
     1
 40
1.0
176
     1
 90
        1
176
     1
 90
        6
176
     1
 90
        2
176
     1
 62
     7
176
     1
 90
        5
176
     1
 90
        0
176
     1
 90
        0
176
     1
290
     0
176
     1
 90
        1
176
     1
 40
-50.0
176
     1
 90
        0
176
     1
290
     0
176
     1
290
     1
176
     1
290
     1
176
     1
290
     0
176
     1
290
     0
176
     1
290
     0
176
     1
290
     0
176
     1
290
     0
176
     1
290
     0
176
     1
 90
       50
176
     1
 40
0.0
176
     1
 40
1.0
176
     1
 90
        0
176
     1
 62
    18
420
        0
176
     1
 90
       50
176
     1
 90
        3
176
     1
 62
     5
420
      255
176
     1
290
     0
176
     1
 90
       50
176
     1
 90
       50
176
     1
 90
       50
176
     1
290
     0
176
     1
 90
       50
176
     1
 62
   256
176
     0
 40
1.0
176
     0
 90
        2
176
     1
  1
strokes_ogs.tif
176
     1
290
     0
176
     1
 40
1.0
176
     1
 40
1.0
176
     1
  0
VISUALSTYLE
  5
32D48
102
{ACAD_REACTORS
330
32D30
102
}
330
32D30
100
AcDbVisualStyle
  2

 70
    22
177
     3
291
     1
 70
    58
 90
        2
176
     0
 90
        2
176
     0
 90
        0
176
     0
 90
        0
176
     0
 40
0.6
176
     0
 40
30.0
176
     0
 62
     7
420
 16777215
176
     0
 90
        1
176
     0
 90
        4
176
     0
 62
     7
176
     0
 62
   257
176
     0
 90
        1
176
     0
 90
        1
176
     0
 40
1.0
176
     0
 90
        8
176
     2
 62
     7
176
     0
 40
1.0
176
     0
 90
        1
176
     0
 90
        6
176
     0
 90
        2
176
     0
 62
     7
176
     0
 90
        5
176
     0
 90
        0
176
     0
 90
        0
176
     0
290
     0
176
     0
 90
        1
176
     0
 40
0.0
176
     0
 90
        0
176
     0
290
     0
176
     0
290
     1
176
     0
290
     1
176
     0
290
     0
176
     0
290
     0
176
     0
290
     0
176
     1
290
     0
176
     1
290
     0
176
     1
290
     0
176
     1
 90
       50
176
     1
 40
0.0
176
     1
 40
1.0
176
     1
 90
        0
176
     1
 62
    18
420
        0
176
     1
 90
       50
176
     1
 90
        3
176
     1
 62
     5
420
      255
176
     1
290
     0
176
     1
 90
       50
176
     1
 90
       50
176
     1
 90
       50
176
     1
290
     0
176
     1
 90
       50
176
     1
 62
   256
176
     0
 40
1.0
176
     0
 90
        2
176
     1
  1
strokes_ogs.tif
176
     1
290
     0
176
     1
 40
1.0
176
     1
 40
1.0
176
     1
  0
VISUALSTYLE
  5
32D3F
102
{ACAD_REACTORS
330
32D30
102
}
330
32D30
100
AcDbVisualStyle
  2

 70
    15
177
     3
291
     1
 70
    58
 90
        2
176
     1
 90
        2
176
     1
 90
        0
176
     1
 90
        0
176
     1
 40
0.6
176
     1
 40
30.0
176
     1
 62
     7
420
 16777215
176
     1
 90
        1
176
     1
 90
        4
176
     1
 62
     7
176
     1
 62
   257
176
     1
 90
        1
176
     1
 90
        1
176
     1
 40
1.0
176
     1
 90
        8
176
     1
 62
     7
176
     1
 40
1.0
176
     1
 90
        1
176
     1
 90
        6
176
     1
 90
        2
176
     1
 62
     7
176
     1
 90
        5
176
     1
 90
        0
176
     1
 90
        0
176
     1
290
     0
176
     1
 90
        1
176
     1
 40
0.0
176
     1
 90
        0
176
     1
290
     0
176
     1
290
     1
176
     1
290
     1
176
     1
290
     0
176
     1
290
     0
176
     1
290
     0
176
     1
290
     0
176
     1
290
     0
176
     1
290
     0
176
     1
 90
       50
176
     1
 40
0.0
176
     1
 40
1.0
176
     1
 90
        0
176
     1
 62
    18
420
        0
176
     1
 90
       50
176
     1
 90
        3
176
     1
 62
     5
420
      255
176
     1
290
     0
176
     1
 90
       50
176
     1
 90
       50
176
     1
 90
       50
176
     1
290
     0
176
     1
 90
       50
176
     1
 62
   256
176
     0
 40
1.0
176
     0
 90
        2
176
     1
  1
strokes_ogs.tif
176
     1
290
     0
176
     1
 40
1.0
176
     1
 40
1.0
176
     1
  0
VISUALSTYLE
  5
32D31
102
{ACAD_REACTORS
330
32D30
102
}
330
32D30
100
AcDbVisualStyle
  2

 70
     0
177
     3
291
     1
 70
    58
 90
        2
176
     1
 90
        1
176
     1
 90
        1
176
     1
 90
        2
176
     1
 40
0.6
176
     1
 40
30.0
176
     1
 62
     7
420
 16777215
176
     1
 90
        0
176
     1
 90
        0
176
     1
 62
     7
176
     1
 62
   257
176
     1
 90
        1
176
     1
 90
        1
176
     1
 40
1.0
176
     1
 90
        8
176
     1
 62
     7
176
     1
 40
1.0
176
     1
 90
        1
176
     1
 90
        6
176
     1
 90
        2
176
     1
 62
     7
176
     1
 90
        5
176
     1
 90
        0
176
     1
 90
        0
176
     1
290
     0
176
     1
 90
       13
176
     1
 40
0.0
176
     1
 90
        0
176
     1
290
     0
176
     1
290
     1
176
     1
290
     1
176
     1
290
     0
176
     1
290
     0
176
     1
290
     0
176
     1
290
     0
176
     1
290
     0
176
     1
290
     0
176
     1
 90
       50
176
     1
 40
0.0
176
     1
 40
1.0
176
     1
 90
        0
176
     1
 62
    18
420
        0
176
     1
 90
       50
176
     1
 90
        3
176
     1
 62
     5
420
      255
176
     1
290
     0
176
     1
 90
       50
176
     1
 90
       50
176
     1
 90
       50
176
     1
290
     0
176
     1
 90
       50
176
     1
 62
   256
176
     0
 40
1.0
176
     0
 90
        2
176
     1
  1
strokes_ogs.tif
176
     1
290
     0
176
     1
 40
1.0
176
     1
 40
1.0
176
     1
  0
VISUALSTYLE
  5
32D32
102
{ACAD_REACTORS
330
32D30
102
}
330
32D30
100
AcDbVisualStyle
  2

 70
     1
177
     3
291
     1
 70
    58
 90
        2
176
     1
 90
        1
176
     1
 90
        1
176
     1
 90
        2
176
     1
 40
0.6
176
     1
 40
30.0
176
     1
 62
     7
420
 16777215
176
     1
 90
        1
176
     1
 90
        0
176
     1
 62
     7
176
     1
 62
   257
176
     1
 90
        1
176
     1
 90
        1
176
     1
 40
1.0
176
     1
 90
        0
176
     1
 62
   257
176
     1
 40
1.0
176
     1
 90
        1
176
     1
 90
        6
176
     1
 90
        2
176
     1
 62
     7
176
     1
 90
        5
176
     1
 90
        0
176
     1
 90
        0
176
     1
290
     0
176
     1
 90
       13
176
     1
 40
0.0
176
     1
 90
        0
176
     1
290
     0
176
     1
290
     1
176
     1
290
     1
176
     1
290
     0
176
     1
290
     0
176
     1
290
     0
176
     1
290
     0
176
     1
290
     0
176
     1
290
     0
176
     1
 90
       50
176
     1
 40
0.0
176
     1
 40
1.0
176
     1
 90
        0
176
     1
 62
    18
420
        0
176
     1
 90
       50
176
     1
 90
        3
176
     1
 62
     5
420
      255
176
     1
290
     0
176
     1
 90
       50
176
     1
 90
       50
176
     1
 90
       50
176
     1
290
     0
176
     1
 90
       50
176
     1
 62
   256
176
     0
 40
1.0
176
     0
 90
        2
176
     1
  1
strokes_ogs.tif
176
     1
290
     0
176
     1
 40
1.0
176
     1
 40
1.0
176
     1
  0
VISUALSTYLE
  5
32D33
102
{ACAD_REACTORS
330
32D30
102
}
330
32D30
100
AcDbVisualStyle
  2

 70
     2
177
     3
291
     1
 70
    58
 90
        2
176
     1
 90
        2
176
     1
 90
        1
176
     1
 90
        2
176
     1
 40
0.6
176
     1
 40
30.0
176
     1
 62
     7
420
 16777215
176
     1
 90
        0
176
     1
 90
        0
176
     1
 62
     7
176
     1
 62
   257
176
     1
 90
        1
176
     1
 90
        1
176
     1
 40
1.0
176
     1
 90
        0
176
     1
 62
     7
176
     1
 40
1.0
176
     1
 90
        1
176
     1
 90
        6
176
     1
 90
        2
176
     1
 62
     7
176
     1
 90
        5
176
     1
 90
        0
176
     1
 90
        0
176
     1
290
     0
176
     1
 90
       13
176
     1
 40
0.0
176
     1
 90
        0
176
     1
290
     0
176
     1
290
     1
176
     1
290
     1
176
     1
290
     0
176
     1
290
     0
176
     1
290
     0
176
     1
290
     0
176
     1
290
     0
176
     1
290
     0
176
     1
 90
       50
176
     1
 40
0.0
176
     1
 40
1.0
176
     1
 90
        0
176
     1
 62
    18
420
        0
176
     1
 90
       50
176
     1
 90
        3
176
     1
 62
     5
420
      255
176
     1
290
     0
176
     1
 90
       50
176
     1
 90
       50
176
     1
 90
       50
176
     1
290
     0
176
     1
 90
       50
176
     1
 62
   256
176
     0
 40
1.0
176
     0
 90
        2
176
     1
  1
strokes_ogs.tif
176
     1
290
     0
176
     1
 40
1.0
176
     1
 40
1.0
176
     1
  0
VISUALSTYLE
  5
32D34
102
{ACAD_REACTORS
330
32D30
102
}
330
32D30
100
AcDbVisualStyle
  2

 70
     3
177
     3
291
     1
 70
    58
 90
        2
176
     1
 90
        2
176
     1
 90
        1
176
     1
 90
        2
176
     1
 40
0.6
176
     1
 40
30.0
176
     1
 62
     7
420
 16777215
176
     1
 90
        1
176
     1
 90
        0
176
     1
 62
     7
176
     1
 62
   257
176
     1
 90
        1
176
     1
 90
        1
176
     1
 40
1.0
176
     1
 90
        0
176
     1
 62
   257
176
     1
 40
1.0
176
     1
 90
        1
176
     1
 90
        6
176
     1
 90
        2
176
     1
 62
     7
176
     1
 90
        5
176
     1
 90
        0
176
     1
 90
        0
176
     1
290
     0
176
     1
 90
       13
176
     1
 40
0.0
176
     1
 90
        0
176
     1
290
     0
176
     1
290
     1
176
     1
290
     1
176
     1
290
     0
176
     1
290
     0
176
     1
290
     0
176
     1
290
     0
176
     1
290
     0
176
     1
290
     0
176
     1
 90
       50
176
     1
 40
0.0
176
     1
 40
1.0
176
     1
 90
        0
176
     1
 62
    18
420
        0
176
     1
 90
       50
176
     1
 90
        3
176
     1
 62
     5
420
      255
176
     1
290
     0
176
     1
 90
       50
176
     1
 90
       50
176
     1
 90
       50
176
     1
290
     0
176
     1
 90
       50
176
     1
 62
   256
176
     0
 40
1.0
176
     0
 90
        2
176
     1
  1
strokes_ogs.tif
176
     1
290
     0
176
     1
 40
1.0
176
     1
 40
1.0
176
     1
  0
VISUALSTYLE
  5
32D38
102
{ACAD_REACTORS
330
32D30
102
}
330
32D30
100
AcDbVisualStyle
  2

 70
     6
177
     3
291
     0
 70
    58
 90
        1
176
     1
 90
        2
176
     1
 90
        2
176
     1
 90
        0
176
     1
 40
0.6
176
     1
 40
30.0
176
     1
 62
     7
420
 16777215
176
     1
 90
        2
176
     1
 90
        2
176
     1
 62
     7
176
     1
 62
   257
176
     1
 90
        2
176
     1
 90
        1
176
     1
 40
40.0
176
     1
 90
        0
176
     1
 62
   257
176
     1
 40
1.0
176
     1
 90
        1
176
     1
 90
        6
176
     1
 90
        2
176
     1
 62
     7
176
     1
 90
        3
176
     1
 90
        0
176
     1
 90
        0
176
     1
290
     0
176
     1
 90
        1
176
     1
 40
0.0
176
     1
 90
        0
176
     1
290
     0
176
     1
290
     1
176
     1
290
     1
176
     1
290
     0
176
     1
290
     0
176
     1
290
     0
176
     1
290
     0
176
     1
290
     0
176
     1
290
     0
176
     1
 90
       50
176
     1
 40
0.0
176
     1
 40
1.0
176
     1
 90
        0
176
     1
 62
    18
420
        0
176
     1
 90
       50
176
     1
 90
        3
176
     1
 62
     5
420
      255
176
     1
290
     0
176
     1
 90
       50
176
     1
 90
       50
176
     1
 90
       50
176
     1
290
     0
176
     1
 90
       50
176
     1
 62
   256
176
     0
 40
1.0
176
     0
 90
        2
176
     1
  1
strokes_ogs.tif
176
     1
290
     0
176
     1
 40
1.0
176
     1
 40
1.0
176
     1
  0
VISUALSTYLE
  5
32D46
102
{ACAD_REACTORS
330
32D30
102
}
330
32D30
100
AcDbVisualStyle
  2

 70
    20
177
     3
291
     1
 70
    58
 90
        2
176
     0
 90
        2
176
     0
 90
        0
176
     0
 90
        0
176
     0
 40
0.6
176
     0
 40
30.0
176
     0
 62
     7
420
 16777215
176
     0
 90
        1
176
     0
 90
        4
176
     0
 62
     7
176
     0
 62
   257
176
     0
 90
        1
176
     0
 90
        1
176
     0
 40
1.0
176
     0
 90
       10
176
     2
 62
     7
176
     0
 40
1.0
176
     0
 90
        1
176
     0
 90
        6
176
     0
 90
        2
176
     0
 62
     7
176
     0
 90
        5
176
     0
 90
        0
176
     0
 90
        0
176
     0
290
     0
176
     0
 90
        1
176
     0
 40
0.0
176
     0
 90
        0
176
     0
290
     0
176
     0
290
     1
176
     0
290
     1
176
     0
290
     0
176
     0
290
     0
176
     0
290
     0
176
     1
290
     0
176
     1
290
     0
176
     1
290
     0
176
     1
 90
       50
176
     1
 40
0.0
176
     1
 40
1.0
176
     1
 90
        0
176
     1
 62
    18
420
        0
176
     1
 90
       50
176
     1
 90
        3
176
     1
 62
     5
420
      255
176
     1
290
     0
176
     1
 90
       50
176
     1
 90
       50
176
     1
 90
       50
176
     1
290
     0
176
     1
 90
       50
176
     1
 62
   256
176
     0
 40
1.0
176
     0
 90
        2
176
     1
  1
strokes_ogs.tif
176
     1
290
     0
176
     1
 40
1.0
176
     1
 40
1.0
176
     1
  0
VISUALSTYLE
  5
32D3E
102
{ACAD_REACTORS
330
32D30
102
}
330
32D30
100
AcDbVisualStyle
  2

 70
    14
177
     3
291
     1
 70
    58
 90
        2
176
     1
 90
        2
176
     1
 90
        0
176
     1
 90
        0
176
     1
 40
0.6
176
     1
 40
30.0
176
     1
 62
     7
420
 16777215
176
     1
 90
        1
176
     1
 90
        4
176
     1
 62
     7
176
     1
 62
   257
176
     1
 90
        7
176
     1
 90
        7
176
     1
 40
1.0
176
     1
 90
        8
176
     1
 62
     7
176
     1
 40
1.0
176
     1
 90
        1
176
     1
 90
        6
176
     1
 90
        2
176
     1
 62
     7
176
     1
 90
        5
176
     1
 90
        0
176
     1
 90
        0
176
     1
290
     0
176
     1
 90
        1
176
     1
 40
0.0
176
     1
 90
        0
176
     1
290
     0
176
     1
290
     1
176
     1
290
     1
176
     1
290
     0
176
     1
290
     0
176
     1
290
     0
176
     1
290
     0
176
     1
290
     0
176
     1
290
     0
176
     1
 90
       50
176
     1
 40
0.0
176
     1
 40
1.0
176
     1
 90
        0
176
     1
 62
    18
420
        0
176
     1
 90
       50
176
     1
 90
        3
176
     1
 62
     5
420
      255
176
     1
290
     0
176
     1
 90
       50
176
     1
 90
       50
176
     1
 90
       50
176
     1
290
     0
176
     1
 90
       50
176
     1
 62
   256
176
     0
 40
1.0
176
     0
 90
        2
176
     1
  1
strokes_ogs.tif
176
     1
290
     0
176
     1
 40
1.0
176
     1
 40
1.0
176
     1
  0
VISUALSTYLE
  5
32D47
102
{ACAD_REACTORS
330
32D30
102
}
330
32D30
100
AcDbVisualStyle
  2

 70
    21
177
     3
291
     1
 70
    58
 90
        2
176
     0
 90
        2
176
     0
 90
        0
176
     0
 90
        0
176
     0
 40
0.6
176
     0
 40
30.0
176
     0
 62
     7
420
 16777215
176
     0
 90
        1
176
     0
 90
        4
176
     0
 62
     7
176
     0
 62
   257
176
     0
 90
        1
176
     0
 90
        1
176
     0
 40
1.0
176
     0
 90
        9
176
     2
 62
     7
176
     0
 40
1.0
176
     0
 90
        1
176
     0
 90
        6
176
     0
 90
        2
176
     0
 62
     7
176
     0
 90
        5
176
     0
 90
        0
176
     0
 90
        0
176
     0
290
     0
176
     0
 90
        1
176
     0
 40
0.0
176
     0
 90
        0
176
     0
290
     0
176
     0
290
     1
176
     0
290
     1
176
     0
290
     0
176
     0
290
     0
176
     0
290
     0
176
     1
290
     0
176
     1
290
     0
176
     1
290
     0
176
     1
 90
       50
176
     1
 40
0.0
176
     1
 40
1.0
176
     1
 90
        0
176
     1
 62
    18
420
        0
176
     1
 90
       50
176
     1
 90
        3
176
     1
 62
     5
420
      255
176
     1
290
     0
176
     1
 90
       50
176
     1
 90
       50
176
     1
 90
       50
176
     1
290
     0
176
     1
 90
       50
176
     1
 62
   256
176
     0
 40
1.0
176
     0
 90
        2
176
     1
  1
strokes_ogs.tif
176
     1
290
     0
176
     1
 40
1.0
176
     1
 40
1.0
176
     1
  0
VISUALSTYLE
  5
32D3A
102
{ACAD_REACTORS
330
32D30
102
}
330
32D30
100
AcDbVisualStyle
  2

 70
     8
177
     3
291
     0
 70
    58
 90
        2
176
     1
 90
        2
176
     1
 90
        0
176
     1
 90
        2
176
     1
 40
0.6
176
     1
 40
30.0
176
     1
 62
     7
420
 16777215
176
     1
 90
        0
176
     1
 90
        0
176
     1
 62
     7
176
     1
 62
   257
176
     1
 90
        1
176
     1
 90
        1
176
     1
 40
1.0
176
     1
 90
        8
176
     1
 62
   257
176
     1
 40
1.0
176
     1
 90
        1
176
     1
 90
        6
176
     1
 90
        2
176
     1
 62
     7
176
     1
 90
        3
176
     1
 90
        0
176
     1
 90
        0
176
     1
290
     0
176
     1
 90
       13
176
     1
 40
0.0
176
     1
 90
        0
176
     1
290
     0
176
     1
290
     1
176
     1
290
     1
176
     1
290
     0
176
     1
290
     0
176
     1
290
     0
176
     1
290
     0
176
     1
290
     0
176
     1
290
     0
176
     1
 90
       50
176
     1
 40
0.0
176
     1
 40
1.0
176
     1
 90
        0
176
     1
 62
    18
420
        0
176
     1
 90
       50
176
     1
 90
        3
176
     1
 62
     5
420
      255
176
     1
290
     0
176
     1
 90
       50
176
     1
 90
       50
176
     1
 90
       50
176
     1
290
     0
176
     1
 90
       50
176
     1
 62
   256
176
     0
 40
1.0
176
     0
 90
        2
176
     1
  1
strokes_ogs.tif
176
     1
290
     0
176
     1
 40
1.0
176
     1
 40
1.0
176
     1
  0
VISUALSTYLE
  5
32D45
102
{ACAD_REACTORS
330
32D30
102
}
330
32D30
100
AcDbVisualStyle
  2

 70
    27
177
     3
291
     0
 70
    58
 90
        2
176
     1
 90
        2
176
     1
 90
        1
176
     1
 90
        2
176
     1
 40
0.6
176
     1
 40
30.0
176
     1
 62
     7
420
 16777215
176
     1
 90
        0
176
     1
 90
        4
176
     1
 62
     7
176
     1
 62
   257
176
     1
 90
        1
176
     1
 90
        1
176
     1
 40
1.0
176
     1
 90
        8
176
     1
 62
   257
176
     1
 40
1.0
176
     1
 90
        1
176
     1
 90
        6
176
     1
 90
        2
176
     1
 62
     8
420
  7895160
176
     1
 90
        3
176
     1
 90
        0
176
     1
 90
        0
176
     1
290
     0
176
     1
 90
        5
176
     1
 40
0.0
176
     1
 90
        0
176
     1
290
     0
176
     1
290
     1
176
     1
290
     1
176
     1
290
     0
176
     1
290
     0
176
     1
290
     0
176
     1
290
     0
176
     1
290
     0
176
     1
290
     0
176
     1
 90
       50
176
     1
 40
0.0
176
     1
 40
1.0
176
     1
 90
        0
176
     1
 62
    18
420
        0
176
     1
 90
       50
176
     1
 90
        3
176
     1
 62
     5
420
      255
176
     1
290
     0
176
     1
 90
       50
176
     1
 90
       50
176
     1
 90
       50
176
     1
290
     0
176
     1
 90
       50
176
     1
 62
   256
176
     0
 40
1.0
176
     0
 90
        2
176
     1
  1
strokes_ogs.tif
176
     1
290
     0
176
     1
 40
1.0
176
     1
 40
1.0
176
     1
  0
VISUALSTYLE
  5
32D44
102
{ACAD_REACTORS
330
32D30
102
}
330
32D30
100
AcDbVisualStyle
  2

 70
    26
177
     3
291
     0
 70
    58
 90
        2
176
     1
 90
        2
176
     1
 90
        1
176
     1
 90
        2
176
     1
 40
0.6
176
     1
 40
30.0
176
     1
 62
     7
420
 16777215
176
     1
 90
        1
176
     1
 90
       10
176
     1
 62
     7
176
     1
 62
   257
176
     1
 90
        2
176
     1
 90
        1
176
     1
 40
1.0
176
     1
 90
        8
176
     1
 62
   257
176
     1
 40
1.0
176
     1
 90
        1
176
     1
 90
        6
176
     1
 90
        2
176
     1
 62
     7
176
     1
 90
        3
176
     1
 90
        0
176
     1
 90
        0
176
     1
290
     0
176
     1
 90
        5
176
     1
 40
0.0
176
     1
 90
        0
176
     1
290
     0
176
     1
290
     1
176
     1
290
     1
176
     1
290
     0
176
     1
290
     0
176
     1
290
     0
176
     1
290
     0
176
     1
290
     0
176
     1
290
     0
176
     1
 90
       50
176
     1
 40
0.0
176
     1
 40
1.0
176
     1
 90
        0
176
     1
 62
    18
420
        0
176
     1
 90
       50
176
     1
 90
        3
176
     1
 62
     5
420
      255
176
     1
290
     0
176
     1
 90
       50
176
     1
 90
       50
176
     1
 90
       50
176
     1
290
     0
176
     1
 90
       50
176
     1
 62
   256
176
     0
 40
1.0
176
     0
 90
        2
176
     1
  1
strokes_ogs.tif
176
     1
290
     0
176
     1
 40
1.0
176
     1
 40
1.0
176
     1
  0
VISUALSTYLE
  5
32D41
102
{ACAD_REACTORS
330
32D30
102
}
330
32D30
100
AcDbVisualStyle
  2

 70
    23
177
     3
291
     0
 70
    58
 90
        2
176
     1
 90
        2
176
     1
 90
        3
176
     1
 90
        0
176
     1
 40
0.6
176
     1
 40
30.0
176
     1
 62
     7
420
 16777215
176
     1
 90
        2
176
     1
 90
        2
176
     1
 62
     7
176
     1
 62
     7
176
     1
 90
        1
176
     1
 90
        1
176
     1
 40
40.0
176
     1
 90
        8
176
     1
 62
     7
176
     1
 40
1.0
176
     1
 90
        1
176
     1
 90
        6
176
     1
 90
        2
176
     1
 62
     7
176
     1
 90
        3
176
     1
 90
        0
176
     1
 90
        0
176
     1
290
     0
176
     1
 90
        1
176
     1
 40
0.0
176
     1
 90
        0
176
     1
290
     0
176
     1
290
     1
176
     1
290
     1
176
     1
290
     0
176
     1
290
     0
176
     1
290
     0
176
     1
290
     0
176
     1
290
     0
176
     1
290
     0
176
     1
 90
       50
176
     1
 40
0.0
176
     1
 40
1.0
176
     1
 90
        0
176
     1
 62
    18
420
        0
176
     1
 90
       50
176
     1
 90
        3
176
     1
 62
     5
420
      255
176
     1
290
     0
176
     1
 90
       50
176
     1
 90
       50
176
     1
 90
       50
176
     1
290
     0
176
     1
 90
       50
176
     1
 62
   256
176
     0
 40
1.0
176
     0
 90
        2
176
     1
  1
strokes_ogs.tif
176
     1
290
     0
176
     1
 40
1.0
176
     1
 40
1.0
176
     1
  0
VISUALSTYLE
  5
32D42
102
{ACAD_REACTORS
330
32D30
102
}
330
32D30
100
AcDbVisualStyle
  2

 70
    24
177
     3
291
     0
 70
    58
 90
        1
176
     1
 90
        2
176
     1
 90
        2
176
     1
 90
        0
176
     1
 40
0.6
176
     1
 40
30.0
176
     1
 62
     7
420
 16777215
176
     1
 90
        2
176
     1
 90
        2
176
     1
 62
     7
176
     1
 62
     7
176
     1
 90
        1
176
     1
 90
        1
176
     1
 40
40.0
176
     1
 90
       11
176
     1
 62
     7
176
     1
 40
1.0
176
     1
 90
        1
176
     1
 90
        6
176
     1
 90
        2
176
     1
 62
     7
176
     1
 90
        6
176
     1
 90
        0
176
     1
 90
        0
176
     1
290
     0
176
     1
 90
        1
176
     1
 40
0.0
176
     1
 90
        0
176
     1
290
     0
176
     1
290
     1
176
     1
290
     1
176
     1
290
     0
176
     1
290
     0
176
     1
290
     0
176
     1
290
     0
176
     1
290
     0
176
     1
290
     0
176
     1
 90
       50
176
     1
 40
0.0
176
     1
 40
1.0
176
     1
 90
        0
176
     1
 62
    18
420
        0
176
     1
 90
       50
176
     1
 90
        3
176
     1
 62
     5
420
      255
176
     1
290
     0
176
     1
 90
       50
176
     1
 90
       50
176
     1
 90
       50
176
     1
290
     0
176
     1
 90
       50
176
     1
 62
   256
176
     0
 40
1.0
176
     0
 90
        2
176
     1
  1
strokes_ogs.tif
176
     1
290
     0
176
     1
 40
1.0
176
     1
 40
1.0
176
     1
  0
VISUALSTYLE
  5
32D3D
102
{ACAD_REACTORS
330
32D30
102
}
330
32D30
100
AcDbVisualStyle
  2

 70
    13
177
     3
291
     1
 70
    58
 90
        2
176
     1
 90
        2
176
     1
 90
        0
176
     1
 90
        0
176
     1
 40
0.6
176
     1
 40
30.0
176
     1
 62
     7
420
 16777215
176
     1
 90
        1
176
     1
 90
        4
176
     1
 62
     7
176
     1
 62
   257
176
     1
 90
        1
176
     1
 90
        1
176
     1
 40
1.0
176
     1
 90
       12
176
     1
 62
     7
176
     1
 40
1.0
176
     1
 90
        1
176
     1
 90
        6
176
     1
 90
        2
176
     1
 62
     7
176
     1
 90
        5
176
     1
 90
        0
176
     1
 90
        0
176
     1
290
     0
176
     1
 90
        1
176
     1
 40
0.0
176
     1
 90
        0
176
     1
290
     0
176
     1
290
     1
176
     1
290
     1
176
     1
290
     0
176
     1
290
     0
176
     1
290
     0
176
     1
290
     0
176
     1
290
     0
176
     1
290
     0
176
     1
 90
       50
176
     1
 40
0.0
176
     1
 40
1.0
176
     1
 90
        0
176
     1
 62
    18
420
        0
176
     1
 90
       50
176
     1
 90
        3
176
     1
 62
     5
420
      255
176
     1
290
     0
176
     1
 90
       50
176
     1
 90
       50
176
     1
 90
       50
176
     1
290
     0
176
     1
 90
       50
176
     1
 62
   256
176
     0
 40
1.0
176
     0
 90
        2
176
     1
  1
strokes_ogs.tif
176
     1
290
     0
176
     1
 40
1.0
176
     1
 40
1.0
176
     1
  0
VISUALSTYLE
  5
32D37
102
{ACAD_REACTORS
330
32D30
102
}
330
32D30
100
AcDbVisualStyle
  2

 70
     5
177
     3
291
     0
 70
    58
 90
        0
176
     1
 90
        2
176
     1
 90
        0
176
     1
 90
        0
176
     1
 40
0.6
176
     1
 40
30.0
176
     1
 62
     7
420
 16777215
176
     1
 90
        1
176
     1
 90
        4
176
     1
 62
     7
176
     1
 62
   257
176
     1
 90
        1
176
     1
 90
        1
176
     1
 40
1.0
176
     1
 90
        0
176
     1
 62
   257
176
     1
 40
1.0
176
     1
 90
        1
176
     1
 90
        6
176
     1
 90
        2
176
     1
 62
     7
176
     1
 90
        3
176
     1
 90
        0
176
     1
 90
        0
176
     1
290
     0
176
     1
 90
        1
176
     1
 40
0.0
176
     1
 90
        0
176
     1
290
     0
176
     1
290
     1
176
     1
290
     1
176
     1
290
     0
176
     1
290
     0
176
     1
290
     0
176
     1
290
     0
176
     1
290
     0
176
     1
290
     0
176
     1
 90
       50
176
     1
 40
0.0
176
     1
 40
1.0
176
     1
 90
        0
176
     1
 62
    18
420
        0
176
     1
 90
       50
176
     1
 90
        3
176
     1
 62
     5
420
      255
176
     1
290
     0
176
     1
 90
       50
176
     1
 90
       50
176
     1
 90
       50
176
     1
290
     0
176
     1
 90
       50
176
     1
 62
   256
176
     0
 40
1.0
176
     0
 90
        2
176
     1
  1
strokes_ogs.tif
176
     1
290
     0
176
     1
 40
1.0
176
     1
 40
1.0
176
     1
  0
VISUALSTYLE
  5
32D43
102
{ACAD_REACTORS
330
32D30
102
}
330
32D30
100
AcDbVisualStyle
  2

 70
    25
177
     3
291
     0
 70
    58
 90
        2
176
     1
 90
        2
176
     1
 90
        1
176
     1
 90
        1
176
     1
 40
0.5
176
     1
 40
30.0
176
     1
 62
     7
420
 16777215
176
     1
 90
        1
176
     1
 90
        0
176
     1
 62
     7
176
     1
 62
   257
176
     1
 90
        1
176
     1
 90
        1
176
     1
 40
1.0
176
     1
 90
        8
176
     1
 62
     7
176
     1
 40
1.0
176
     1
 90
        1
176
     1
 90
        6
176
     1
 90
        2
176
     1
 62
     7
176
     1
 90
        3
176
     1
 90
        0
176
     1
 90
        0
176
     1
290
     0
176
     1
 90
       13
176
     1
 40
0.0
176
     1
 90
        0
176
     1
290
     0
176
     1
290
     1
176
     1
290
     1
176
     1
290
     0
176
     1
290
     0
176
     1
290
     0
176
     1
290
     0
176
     1
290
     0
176
     1
290
     0
176
     1
 90
       50
176
     1
 40
0.0
176
     1
 40
1.0
176
     1
 90
        0
176
     1
 62
    18
420
        0
176
     1
 90
       50
176
     1
 90
        3
176
     1
 62
     5
420
      255
176
     1
290
     0
176
     1
 90
       50
176
     1
 90
       50
176
     1
 90
       50
176
     1
290
     0
176
     1
 90
       50
176
     1
 62
   256
176
     0
 40
1.0
176
     0
 90
        2
176
     1
  1
strokes_ogs.tif
176
     1
290
     0
176
     1
 40
1.0
176
     1
 40
1.0
176
     1
  0
DICTIONARYVAR
  5
32D0D
102
{ACAD_REACTORS
330
C8F3
102
}
330
C8F3
100
DictionaryVariables
280
     0
  1
1:1
  0
DICTIONARYVAR
  5
33896
102
{ACAD_REACTORS
330
C8F3
102
}
330
C8F3
100
DictionaryVariables
280
     0
  1
STANDARD
  0
DICTIONARYVAR
  5
33895
102
{ACAD_REACTORS
330
C8F3
102
}
330
C8F3
100
DictionaryVariables
280
     0
  1
STANDARD
  0
DICTIONARYVAR
  5
33A2B
102
{ACAD_REACTORS
330
C8F3
102
}
330
C8F3
100
DictionaryVariables
280
     0
  1
Imperial24
  0
DICTIONARYVAR
  5
33A2C
102
{ACAD_REACTORS
330
C8F3
102
}
330
C8F3
100
DictionaryVariables
280
     0
  1
Imperial24
  0
DICTIONARYVAR
  5
33899
102
{ACAD_REACTORS
330
C8F3
102
}
330
C8F3
100
DictionaryVariables
280
     0
  1
1
  0
DICTIONARYVAR
  5
3389A
102
{ACAD_REACTORS
330
C8F3
102
}
330
C8F3
100
DictionaryVariables
280
     0
  1
15
  0
DICTIONARYVAR
  5
33898
102
{ACAD_REACTORS
330
C8F3
102
}
330
C8F3
100
DictionaryVariables
280
     0
  1
0
  0
DICTIONARYVAR
  5
33897
102
{ACAD_REACTORS
330
C8F3
102
}
330
C8F3
100
DictionaryVariables
280
     0
  1
0
  0
DICTIONARY
  5
33A38
330
338D8
100
AcDbDictionary
280
     1
281
     1
  3
ACAD_XREC_ROUNDTRIP
360
33A39
  0
DICTIONARY
  5
33530
330
32D61
100
AcDbDictionary
280
     1
281
     1
  0
DICTIONARY
  5
32D21
330
32D20
100
AcDbDictionary
280
     1
281
     1
  3
BUMPTILE
360
32D23
  3
DIFFUSETILE
360
32D22
  3
OPACITYTILE
360
32D26
  3
REFLECTIONTILE
360
32D25
  3
REFRACTIONTILE
360
32D27
  3
SPECULARTILE
360
32D24
  0
DICTIONARY
  5
32D19
330
32D18
100
AcDbDictionary
280
     1
281
     1
  3
BUMPTILE
360
32D1B
  3
DIFFUSETILE
360
32D1A
  3
OPACITYTILE
360
32D1E
  3
REFLECTIONTILE
360
32D1D
  3
REFRACTIONTILE
360
32D1F
  3
SPECULARTILE
360
32D1C
  0
DICTIONARY
  5
32D29
330
32D28
100
AcDbDictionary
280
     1
281
     1
  3
BUMPTILE
360
32D2B
  3
DIFFUSETILE
360
32D2A
  3
OPACITYTILE
360
32D2E
  3
REFLECTIONTILE
360
32D2D
  3
REFRACTIONTILE
360
32D2F
  3
SPECULARTILE
360
32D2C
  0
DICTIONARY
  5
33A36
330
338D6
100
AcDbDictionary
280
     1
281
     1
  3
ACAD_XREC_ROUNDTRIP
360
33A37
  0
DICTIONARY
  5
3389C
330
32D4B
100
AcDbDictionary
280
     1
281
     1
  3
ACAD_ROUNDTRIP_2008_TABLESTYLE_CELLSTYLEMAP
360
33A35
  0
XRECORD
  5
33A39
102
{ACAD_REACTORS
330
33A38
102
}
330
33A38
100
AcDbXrecord
280
     1
102
DISPLAYNAME
  1
Imperial24
102
FLAGS
 90
        0
  0
XRECORD
  5
32D23
102
{ACAD_REACTORS
330
32D21
102
}
330
32D21
100
AcDbXrecord
280
     1
270
     1
271
     1
  0
XRECORD
  5
32D22
102
{ACAD_REACTORS
330
32D21
102
}
330
32D21
100
AcDbXrecord
280
     1
270
     1
271
     1
  0
XRECORD
  5
32D26
102
{ACAD_REACTORS
330
32D21
102
}
330
32D21
100
AcDbXrecord
280
     1
270
     1
271
     1
  0
XRECORD
  5
32D25
102
{ACAD_REACTORS
330
32D21
102
}
330
32D21
100
AcDbXrecord
280
     1
270
     1
271
     1
  0
XRECORD
  5
32D27
102
{ACAD_REACTORS
330
32D21
102
}
330
32D21
100
AcDbXrecord
280
     1
270
     1
271
     1
  0
XRECORD
  5
32D24
102
{ACAD_REACTORS
330
32D21
102
}
330
32D21
100
AcDbXrecord
280
     1
270
     1
271
     1
  0
XRECORD
  5
32D1B
102
{ACAD_REACTORS
330
32D19
102
}
330
32D19
100
AcDbXrecord
280
     1
270
     1
271
     1
  0
XRECORD
  5
32D1A
102
{ACAD_REACTORS
330
32D19
102
}
330
32D19
100
AcDbXrecord
280
     1
270
     1
271
     1
  0
XRECORD
  5
32D1E
102
{ACAD_REACTORS
330
32D19
102
}
330
32D19
100
AcDbXrecord
280
     1
270
     1
271
     1
  0
XRECORD
  5
32D1D
102
{ACAD_REACTORS
330
32D19
102
}
330
32D19
100
AcDbXrecord
280
     1
270
     1
271
     1
  0
XRECORD
  5
32D1F
102
{ACAD_REACTORS
330
32D19
102
}
330
32D19
100
AcDbXrecord
280
     1
270
     1
271
     1
  0
XRECORD
  5
32D1C
102
{ACAD_REACTORS
330
32D19
102
}
330
32D19
100
AcDbXrecord
280
     1
270
     1
271
     1
  0
XRECORD
  5
32D2B
102
{ACAD_REACTORS
330
32D29
102
}
330
32D29
100
AcDbXrecord
280
     1
270
     1
271
     1
  0
XRECORD
  5
32D2A
102
{ACAD_REACTORS
330
32D29
102
}
330
32D29
100
AcDbXrecord
280
     1
270
     1
271
     1
  0
XRECORD
  5
32D2E
102
{ACAD_REACTORS
330
32D29
102
}
330
32D29
100
AcDbXrecord
280
     1
270
     1
271
     1
  0
XRECORD
  5
32D2D
102
{ACAD_REACTORS
330
32D29
102
}
330
32D29
100
AcDbXrecord
280
     1
270
     1
271
     1
  0
XRECORD
  5
32D2F
102
{ACAD_REACTORS
330
32D29
102
}
330
32D29
100
AcDbXrecord
280
     1
270
     1
271
     1
  0
XRECORD
  5
32D2C
102
{ACAD_REACTORS
330
32D29
102
}
330
32D29
100
AcDbXrecord
280
     1
270
     1
271
     1
  0
XRECORD
  5
33A37
102
{ACAD_REACTORS
330
33A36
102
}
330
33A36
100
AcDbXrecord
280
     1
102
DISPLAYNAME
  1
Imperial24
102
FLAGS
 90
        0
  0
CELLSTYLEMAP
  5
33A35
102
{ACAD_REACTORS
330
3389C
102
}
330
3389C
100
AcDbCellStyleMap
 90
        3
300
CELLSTYLE
  1
TABLEFORMAT_BEGIN
 90
        5
170
     1
 91
        0
 92
    32768
 62
   257
 93
        1
300
CONTENTFORMAT
  1
CONTENTFORMAT_BEGIN
 90
        0
 91
        0
 92
      512
 93
        0
300

 40
0.0
140
1.0
 94
        5
 62
     0
340
8259
144
0.25
309
CONTENTFORMAT_END
171
     1
301
MARGIN
  1
CELLMARGIN_BEGIN
 40
0.06
 40
0.06
 40
0.06
 40
0.06
 40
0.18
 40
0.18
309
CELLMARGIN_END
 94
        6
 95
        1
302
GRIDFORMAT
  1
GRIDFORMAT_BEGIN
 90
        0
 91
        1
 62
     0
 92
       -2
340
0
 93
        0
 40
0.045
309
GRIDFORMAT_END
 95
        2
302
GRIDFORMAT
  1
GRIDFORMAT_BEGIN
 90
        0
 91
        1
 62
     0
 92
       -2
340
0
 93
        0
 40
0.045
309
GRIDFORMAT_END
 95
        4
302
GRIDFORMAT
  1
GRIDFORMAT_BEGIN
 90
        0
 91
        1
 62
     0
 92
       -2
340
0
 93
        0
 40
0.045
309
GRIDFORMAT_END
 95
        8
302
GRIDFORMAT
  1
GRIDFORMAT_BEGIN
 90
        0
 91
        1
 62
     0
 92
       -2
340
0
 93
        0
 40
0.045
309
GRIDFORMAT_END
 95
       16
302
GRIDFORMAT
  1
GRIDFORMAT_BEGIN
 90
        0
 91
        1
 62
     0
 92
       -2
340
0
 93
        0
 40
0.045
309
GRIDFORMAT_END
 95
       32
302
GRIDFORMAT
  1
GRIDFORMAT_BEGIN
 90
        0
 91
        1
 62
     0
 92
       -2
340
0
 93
        0
 40
0.045
309
GRIDFORMAT_END
309
TABLEFORMAT_END
  1
CELLSTYLE_BEGIN
 90
        1
 91
        1
300
_TITLE
309
CELLSTYLE_END
300
CELLSTYLE
  1
TABLEFORMAT_BEGIN
 90
        5
170
     1
 91
        0
 92
        0
 62
   257
 93
        1
300
CONTENTFORMAT
  1
CONTENTFORMAT_BEGIN
 90
        0
 91
        0
 92
      512
 93
        0
300

 40
0.0
140
1.0
 94
        5
 62
     0
340
8259
144
0.18
309
CONTENTFORMAT_END
171
     1
301
MARGIN
  1
CELLMARGIN_BEGIN
 40
0.06
 40
0.06
 40
0.06
 40
0.06
 40
0.18
 40
0.18
309
CELLMARGIN_END
 94
        6
 95
        1
302
GRIDFORMAT
  1
GRIDFORMAT_BEGIN
 90
        0
 91
        1
 62
     0
 92
       -2
340
0
 93
        0
 40
0.045
309
GRIDFORMAT_END
 95
        2
302
GRIDFORMAT
  1
GRIDFORMAT_BEGIN
 90
        0
 91
        1
 62
     0
 92
       -2
340
0
 93
        0
 40
0.045
309
GRIDFORMAT_END
 95
        4
302
GRIDFORMAT
  1
GRIDFORMAT_BEGIN
 90
        0
 91
        1
 62
     0
 92
       -2
340
0
 93
        0
 40
0.045
309
GRIDFORMAT_END
 95
        8
302
GRIDFORMAT
  1
GRIDFORMAT_BEGIN
 90
        0
 91
        1
 62
     0
 92
       -2
340
0
 93
        0
 40
0.045
309
GRIDFORMAT_END
 95
       16
302
GRIDFORMAT
  1
GRIDFORMAT_BEGIN
 90
        0
 91
        1
 62
     0
 92
       -2
340
0
 93
        0
 40
0.045
309
GRIDFORMAT_END
 95
       32
302
GRIDFORMAT
  1
GRIDFORMAT_BEGIN
 90
        0
 91
        1
 62
     0
 92
       -2
340
0
 93
        0
 40
0.045
309
GRIDFORMAT_END
309
TABLEFORMAT_END
  1
CELLSTYLE_BEGIN
 90
        2
 91
        1
300
_HEADER
309
CELLSTYLE_END
300
CELLSTYLE
  1
TABLEFORMAT_BEGIN
 90
        5
170
     1
 91
        0
 92
        0
 62
   257
 93
        1
300
CONTENTFORMAT
  1
CONTENTFORMAT_BEGIN
 90
        0
 91
        0
 92
      512
 93
        0
300

 40
0.0
140
1.0
 94
        2
 62
     0
340
8259
144
0.18
309
CONTENTFORMAT_END
171
     1
301
MARGIN
  1
CELLMARGIN_BEGIN
 40
0.06
 40
0.06
 40
0.06
 40
0.06
 40
0.18
 40
0.18
309
CELLMARGIN_END
 94
        6
 95
        1
302
GRIDFORMAT
  1
GRIDFORMAT_BEGIN
 90
        0
 91
        1
 62
     0
 92
       -2
340
0
 93
        0
 40
0.045
309
GRIDFORMAT_END
 95
        2
302
GRIDFORMAT
  1
GRIDFORMAT_BEGIN
 90
        0
 91
        1
 62
     0
 92
       -2
340
0
 93
        0
 40
0.045
309
GRIDFORMAT_END
 95
        4
302
GRIDFORMAT
  1
GRIDFORMAT_BEGIN
 90
        0
 91
        1
 62
     0
 92
       -2
340
0
 93
        0
 40
0.045
309
GRIDFORMAT_END
 95
        8
302
GRIDFORMAT
  1
GRIDFORMAT_BEGIN
 90
        0
 91
        1
 62
     0
 92
       -2
340
0
 93
        0
 40
0.045
309
GRIDFORMAT_END
 95
       16
302
GRIDFORMAT
  1
GRIDFORMAT_BEGIN
 90
        0
 91
        1
 62
     0
 92
       -2
340
0
 93
        0
 40
0.045
309
GRIDFORMAT_END
 95
       32
302
GRIDFORMAT
  1
GRIDFORMAT_BEGIN
 90
        0
 91
        1
 62
     0
 92
       -2
340
0
 93
        0
 40
0.045
309
GRIDFORMAT_END
309
TABLEFORMAT_END
  1
CELLSTYLE_BEGIN
 90
        3
 91
        2
300
_DATA
309
CELLSTYLE_END
  0
ENDSEC
  0
SECTION
  2
ACDSDATA
 70
     2
 71
     6
  0
ACDSSCHEMA
 90
        0
  1
AcDb_Thumbnail_Schema
  2
AcDbDs::ID
280
    10
 91
        8
  2
Thumbnail_Data
280
    15
 91
        0
101
ACDSRECORD
 95
        0
 90
        1
  2
AcDbDs::TreatedAsObjectData
280
     1
291
     1
101
ACDSRECORD
 95
        0
 90
        2
  2
AcDbDs::Legacy
280
     1
291
     1
101
ACDSRECORD
  1
AcDbDs::ID
 90
        3
  2
AcDs:Indexable
280
     1
291
     1
101
ACDSRECORD
  1
AcDbDs::ID
 90
        4
  2
AcDbDs::HandleAttribute
280
     7
282
     1
  0
ACDSSCHEMA
 90
        1
  1
AcDbDs::TreatedAsObjectDataSchema
  2
AcDbDs::TreatedAsObjectData
280
     1
 91
        0
  0
ACDSSCHEMA
 90
        2
  1
AcDbDs::LegacySchema
  2
AcDbDs::Legacy
280
     1
 91
        0
  0
ACDSSCHEMA
 90
        3
  1
AcDbDs::IndexedPropertySchema
  2
AcDs:Indexable
280
     1
 91
        0
  0
ACDSSCHEMA
 90
        4
  1
AcDbDs::HandleAttributeSchema
  2
AcDbDs::HandleAttribute
280
     7
 91
        1
284
     1
  0
ACDSRECORD
 90
        0
  2
AcDbDs::ID
280
    10
320
32D61
  2
Thumbnail_Data
280
    15
 94
     2050
310
89504E470D0A1A0A0000000D49484452000001000000008108030000001837949D00000300504C544500000000FFFF0000000000000000000000000000000000000000000000000000000000330000660000990000CC0000FF0033000033330033660033990033CC0033FF0066000066330066660066990066CC0066FF0099
310
000099330099660099990099CC0099FF00CC0000CC3300CC6600CC9900CCCC00CCFF00FF0000FF3300FF6600FF9900FFCC00FFFF3300003300333300663300993300CC3300FF3333003333333333663333993333CC3333FF3366003366333366663366993366CC3366FF3399003399333399663399993399CC3399FF33CC00
310
33CC3333CC6633CC9933CCCC33CCFF33FF0033FF3333FF6633FF9933FFCC33FFFF6600006600336600666600996600CC6600FF6633006633336633666633996633CC6633FF6666006666336666666666996666CC6666FF6699006699336699666699996699CC6699FF66CC0066CC3366CC6666CC9966CCCC66CCFF66FF0066
310
FF3366FF6666FF9966FFCC66FFFF9900009900339900669900999900CC9900FF9933009933339933669933999933CC9933FF9966009966339966669966999966CC9966FF9999009999339999669999999999CC9999FF99CC0099CC3399CC6699CC9999CCCC99CCFF99FF0099FF3399FF6699FF9999FFCC99FFFFCC0000CC00
310
33CC0066CC0099CC00CCCC00FFCC3300CC3333CC3366CC3399CC33CCCC33FFCC6600CC6633CC6666CC6699CC66CCCC66FFCC9900CC9933CC9966CC9999CC99CCCC99FFCCCC00CCCC33CCCC66CCCC99CCCCCCCCCCFFCCFF00CCFF33CCFF66CCFF99CCFFCCCCFFFFFF0000FF0033FF0066FF0099FF00CCFF00FFFF3300FF3333
310
FF3366FF3399FF33CCFF33FFFF6600FF6633FF6666FF6699FF66CCFF66FFFF9900FF9933FF9966FF9999FF99CCFF99FFFFCC00FFCC33FFCC66FFCC99FFCCCCFFCCFFFFFF00FFFF33FFFF66FFFF99FFFFCCFFFFFF0000000D0D0D1A1A1A2828283535354343435050505D5D5D6B6B6B787878868686939393A1A1A1AEAEAEBB
310
BBBBC9C9C9D6D6D6E4E4E4F1F1F1FFFFFF00000000000000000000000000000000000000000000000000000000000088A9E46A000004BD4944415478DAED9C6B96E4200885D9C1DDFF6EE774773DA272118D31198539F3A3ABBB2AC927E0059212090B0B0B0B0B0B0B0B0B0B0BFB35009B03F84180ADD7FF07410008000160
310
4F0AF8CD809B0390DD4320009400B05912D8198041656B79BCB9177C00ECEA066F00491CEC04430D8145F3827A513A8035F302240038B7C1750138431B9F9D012B02A86358D503D0EA018B56C49B03C0C0BFFB2F550FFA9C62590FD8BE18FC6B1406805DAE56D706258045A34203F0F180E497AB6E026AC27BBD9602905D76
310
41BB6E5ACD119A01ACEA01F5859DB7F4539BB22F008F923E7700B867A903C00301E0632ECDB00080EC5A3FE300B0335B0C8072F0FB0160E66D3BF003C07C00B87E500BFDE00FC901D703503EFD73C8EC77D3B4C2D4F13C1F0DDD0860EE368833DEB20C806475D98562D26468B60ED0A0DCAA05A72B410D00B66E8A0AD8D478
310
6F00326F1BBC3508795B7C1B00A2758567023092E0E853805122E28100B272FD7CB6F6AB4EDC21858B83BEA6360301484353F4391E30BC21E25282A2C6C5E41C30E30C6E57829561C5D56787BB952097C2F8863D2E06901DE019DA1847BB2E1C3421F49867EB30300BB20F2A3DE0BDF39C38EE13AB0888311D4F12FEF7E1C2
310
290030A92706CB0B8AAEC97400CE1C3008804DDC1C168C05F0BE3A1D4201E054681D3FA9385A76778CCCF500C9E602D70504783D4460759E0A9A16C672C9B1B7B079017C5FB81E8053098C5185D4BB4EFB5C7E87192E01705D68281E80FE351F18C4C6F03EB7C1005AFA43C5D01D52EE35870D087935DA71FEC300803D4F5C
310
F426E0EE32A89B6D0580B52EFA1629C93F4FEDCE9F8ED2BA6179F66D075032F56CCF597F88E50024C7F5352F40821D5E007488E6CA01D0676DC7B52BDCA3F8393DC6E1BF2704D203958B93BB650E006C7BF301606F3675007DA6B927078044A79411741042A886AAD7036EAF111BB36576D784ED012EFE201C27361F68397C
310
4E4689FB49B48EAEDFE5932356895900D23E9E975F1700E80DAA71228897A2C45394DDC97545FC460CF3128EDF7EA5EC0F5701A89D955DF018E3763D037001C1BEFAE7BBF71F2B379C0250E8B696A2B69E2C682B826FCFC2ABF25C08B90070C589F22B34C8C8D80F40A9106A0D113D007823B32D041AE3A5106E561243510E
310
43171BC3F6EE760068F76B77165784108C1C909EB5750923C79348FCDA331CED0660BD1F8ADEE73DC1A183610A40BC0F945700A0D7C9270100E930428CA4ED11821E0080D98EB34240FFB9470390370C0350DF25CE024803076EE7ED5182A23F660F1A5D15547D7306BECE506AE55E21248A101218AA0C7C6198B0E8D5ACE0
310
DB60E901BEA6407D38DA0EA0FE812F418FF65AA02A8486EDE6E4227A83CAADC2267F9F614343A46C933510107F0A55B641D2149D0BE04C4B0B0D3B0575B477B370E82D3246BFB6F69A05003E22D053A8A7EFA9EB805100D415536725DD000E5DD6B6F3EE6BA3B455830400CABF8213EB903B44ECFE92AA1351F342BAA5EAFA
310
D0DB3C85B800F4AC251542980F408CBE385C9D971A00D0D129E909F6485EDEEDD5849032DFD4CB095AFA6750CA13A7DB604DA9F72741F51C44BD6FC809205B2015003BF115BEF0FD5C57366CA20C36EEC6ABBE5851F3B54A85CB5A23988D72B847243700385BFC98BACE23CE2E011016161616161616161616B685FD03607C
310
953E335054290000000049454E44AE426082
  0
ENDSEC
  0
EOF
