  0
SECTION
  2
HEADER
  9
$ACADVER
  1
AC1009
  9
$INSBASE
 10
0.0
 20
0.0
 30
0.0
  9
$EXTMIN
 10
0.2980957546947778
 20
0.2459106843987371
 30
-0.0015258207003583
  9
$EXTMAX
 10
1.763397244461117
 20
2.1058044656014578
 30
0.0000000349246037
  9
$LIMMIN
 10
0.0
 20
0.0
  9
$LIMMAX
 10
22.0
 20
17.0
  9
$ORTHOMODE
 70
     0
  9
$REGENMODE
 70
     1
  9
$FILLMODE
 70
     1
  9
$QTEXTMODE
 70
     0
  9
$MIRRTEXT
 70
     1
  9
$DRAGMODE
 70
     2
  9
$LTSCALE
 40
1.0
  9
$OSMODE
 70
    39
  9
$ATTMODE
 70
     1
  9
$TEXTSIZE
 40
0.12
  9
$TRACEWID
 40
0.05
  9
$TEXTSTYLE
  7
STANDARD
  9
$CLAYER
  8
0
  9
$CELTYPE
  6
BYLAYER
  9
$CECOLOR
 62
   256
  9
$DIMSCALE
 40
1.0
  9
$DIMASZ
 40
0.156
  9
$DIMEXO
 40
0.05
  9
$DIMDLI
 40
0.38
  9
$DIMRND
 40
0.0
  9
$DIMDLE
 40
0.0
  9
$DIMEXE
 40
0.125
  9
$DIMTP
 40
0.0
  9
$DIMTM
 40
0.0
  9
$DIMTXT
 40
0.12
  9
$DIMCEN
 40
0.09
  9
$DIMTSZ
 40
0.0
  9
$DIMTOL
 70
     0
  9
$DIMLIM
 70
     0
  9
$DIMTIH
 70
     1
  9
$DIMTOH
 70
     1
  9
$DIMSE1
 70
     0
  9
$DIMSE2
 70
     0
  9
$DIMTAD
 70
     0
  9
$DIMZIN
 70
     0
  9
$DIMBLK
  1

  9
$DIMASO
 70
     1
  9
$DIMSHO
 70
     1
  9
$DIMPOST
  1

  9
$DIMAPOST
  1

  9
$DIMALT
 70
     0
  9
$DIMALTD
 70
     2
  9
$DIMALTF
 40
25.399999999999999
  9
$DIMLFAC
 40
1.0
  9
$DIMTOFL
 70
     0
  9
$DIMTVP
 40
0.0
  9
$DIMTIX
 70
     0
  9
$DIMSOXD
 70
     0
  9
$DIMSAH
 70
     0
  9
$DIMBLK1
  1

  9
$DIMBLK2
  1

  9
$DIMSTYLE
  2
STANDARD
  9
$DIMCLRD
 70
     0
  9
$DIMCLRE
 70
     0
  9
$DIMCLRT
 70
     0
  9
$DIMTFAC
 40
1.0
  9
$DIMGAP
 40
0.06
  9
$LUNITS
 70
     2
  9
$LUPREC
 70
     3
  9
$SKETCHINC
 40
0.1
  9
$FILLETRAD
 40
0.5
  9
$AUNITS
 70
     0
  9
$AUPREC
 70
     2
  9
$MENU
  1
.
  9
$ELEVATION
 40
0.0
  9
$PELEVATION
 40
0.0
  9
$THICKNESS
 40
0.0
  9
$LIMCHECK
 70
     0
  9
$BLIPMODE
 70
     0
  9
$CHAMFERA
 40
0.0
  9
$CHAMFERB
 40
0.0
  9
$SKPOLY
 70
     0
  9
$TDCREATE
 40
2457492.7438837499
  9
$TDUPDATE
 40
2457492.5785840158
  9
$TDINDWG
 40
0.0011383102
  9
$TDUSRTIMER
 40
0.0011383102
  9
$USRTIMER
 70
     1
  9
$ANGBASE
 50
0.0
  9
$ANGDIR
 70
     0
  9
$PDMODE
 70
     0
  9
$PDSIZE
 40
-1.0
  9
$PLINEWID
 40
0.0
  9
$COORDS
 70
     1
  9
$SPLFRAME
 70
     0
  9
$SPLINETYPE
 70
     6
  9
$SPLINESEGS
 70
     8
  9
$ATTDIA
 70
     0
  9
$ATTREQ
 70
     1
  9
$HANDLING
 70
     1
  9
$HANDSEED
  5
638
  9
$SURFTAB1
 70
     6
  9
$SURFTAB2
 70
     6
  9
$SURFTYPE
 70
     6
  9
$SURFU
 70
     6
  9
$SURFV
 70
     6
  9
$UCSNAME
  2

  9
$UCSORG
 10
0.0
 20
0.0
 30
0.0
  9
$UCSXDIR
 10
1.0
 20
0.0
 30
0.0
  9
$UCSYDIR
 10
0.0
 20
1.0
 30
0.0
  9
$PUCSNAME
  2

  9
$PUCSORG
 10
0.0
 20
0.0
 30
0.0
  9
$PUCSXDIR
 10
1.0
 20
0.0
 30
0.0
  9
$PUCSYDIR
 10
0.0
 20
1.0
 30
0.0
  9
$USERI1
 70
     0
  9
$USERI2
 70
     0
  9
$USERI3
 70
     0
  9
$USERI4
 70
     0
  9
$USERI5
 70
     0
  9
$USERR1
 40
0.0
  9
$USERR2
 40
0.0
  9
$USERR3
 40
0.0
  9
$USERR4
 40
0.0
  9
$USERR5
 40
0.0
  9
$WORLDVIEW
 70
     0
  9
$SHADEDGE
 70
     3
  9
$SHADEDIF
 70
    70
  9
$TILEMODE
 70
     1
  9
$MAXACTVP
 70
    64
  9
$PLIMCHECK
 70
     0
  9
$PEXTMIN
 10
1.0000000000000000E+020
 20
1.0000000000000000E+020
 30
1.0000000000000000E+020
  9
$PEXTMAX
 10
-1.0000000000000000E+020
 20
-1.0000000000000000E+020
 30
-1.0000000000000000E+020
  9
$PLIMMIN
 10
0.0
 20
0.0
  9
$PLIMMAX
 10
12.0
 20
9.0
  9
$UNITMODE
 70
     0
  9
$VISRETAIN
 70
     1
  9
$PLINEGEN
 70
     0
  9
$PSLTSCALE
 70
     1
  0
ENDSEC
  0
SECTION
  2
TABLES
  0
TABLE
  2
VPORT
 70
     1
  0
VPORT
  2
*ACTIVE
 70
     0
 10
0.0
 20
0.0
 11
1.0
 21
1.0
 12
1.0018912159233171
 22
1.1335719645052611
 13
0.0
 23
0.0
 14
0.5
 24
0.5
 15
0.5
 25
0.5
 16
0.0
 26
0.0
 36
1.0
 17
0.0
 27
0.0
 37
0.0
 40
2.9979728176229008
 41
2.0328467153284668
 42
50.0
 43
0.0
 44
0.0
 50
0.0
 51
0.0
 71
     0
 72
  2000
 73
     1
 74
     3
 75
     0
 76
     0
 77
     0
 78
     0
  0
ENDTAB
  0
TABLE
  2
LTYPE
 70
     7
  0
LTYPE
  2
CONTINUOUS
 70
     0
  3
Solid line
 72
    65
 73
     0
 40
0.0
  0
ENDTAB
  0
TABLE
  2
LAYER
 70
     2
  0
LAYER
  2
0
 70
     0
 62
     7
  6
CONTINUOUS
  0
ENDTAB
  0
TABLE
  2
STYLE
 70
     3
  0
STYLE
  2
STANDARD
 70
     0
 40
0.0
 41
1.0
 50
0.0
 71
     0
 42
0.12
  3
txt
  4

  0
STYLE
  2
P125
 70
     0
 40
0.125
 41
0.75
 50
15.0
 71
     0
 42
0.125
  3
print
  4

  0
ENDTAB
  0
TABLE
  2
VIEW
 70
     1
  0
ENDTAB
  0
TABLE
  2
UCS
 70
     0
  0
ENDTAB
  0
TABLE
  2
APPID
 70
    19
  0
APPID
  2
ACAD
 70
     0
  0
APPID
  2
ACADANNOTATIVE
 70
     0
  0
APPID
  2
ACAD_EXEMPT_FROM_CAD_STANDARDS
 70
     0
  0
APPID
  2
ACAD_NAV_VCDISPLAY
 70
     0
  0
APPID
  2
ACAD_MLEADERVER
 70
     0
  0
APPID
  2
ACAD_PSEXT
 70
     0
  0
APPID
  2
ACAD_DSTYLE_DIMJAG
 70
     0
  0
APPID
  2
ACAD_DSTYLE_DIMTALN
 70
     0
  0
APPID
  2
ACAECLAYERSTANDARD
 70
     0
  0
APPID
  2
ACAD_EXEMPT_FROM_CAD_STAND
 70
     0
  0
APPID
  2
ACAD_DSTYLE_DIMBREAK
 70
     0
  0
APPID
  2
ACAUTHENVIRON
 70
     0
  0
APPID
  2
ACDBDYNAMICBLOCKTRUENAME
 70
     0
  0
APPID
  2
ACDBDYNAMICBLOCKGUID
 70
     0
  0
APPID
  2
ACDBBLOCKREPETAG
 70
     0
  0
APPID
  2
ACAD_DSTYLE_DIMRADIAL_EXTE
 70
     0
  0
APPID
  2
GRADIENTCOLOR1ACI
 70
     0
  0
APPID
  2
GRADIENTCOLOR2ACI
 70
     0
  0
APPID
  2
ACCMTRANSPARENCY
 70
     0
  0
ENDTAB
  0
TABLE
  2
DIMSTYLE
 70
     2
  0
DIMSTYLE
  2
STANDARD
 70
     0
  3

  4

  5

  6

  7

 40
1.0
 41
0.18
 42
0.0625
 43
0.38
 44
0.18
 45
0.0
 46
0.0
 47
0.0
 48
0.0
140
0.18
141
0.09
142
0.0
143
25.399999999999999
144
1.0
145
0.0
146
1.0
147
0.09
 71
     0
 72
     0
 73
     1
 74
     1
 75
     0
 76
     0
 77
     0
 78
     0
170
     0
171
     2
172
     0
173
     0
174
     0
175
     0
176
     0
177
     0
178
     0
  0
ENDTAB
  0
ENDSEC
  0
SECTION
  2
BLOCKS
  0
BLOCK
  8
0
  2
$MODEL_SPACE
 70
     0
 10
0.0
 20
0.0
 30
0.0
  3
$MODEL_SPACE
  1

  0
ENDBLK
  5
516
  8
0
  0
BLOCK
 67
     1
  8
0
  2
$PAPER_SPACE
 70
     0
 10
0.0
 20
0.0
 30
0.0
  3
$PAPER_SPACE
  1

  0
ENDBLK
  5
514
 67
     1
  8
0
  0
ENDSEC
  0
SECTION
  2
ENTITIES
  0
LINE
  5
F7
  8
0
  6
CONTINUOUS
 62
     5
 10
0.5220922687112886
 20
1.9998753605933319
 30
0.0
 11
0.5220922687112886
 21
1.3843699374178371
 31
0.0
  0
LINE
  5
F8
  8
0
  6
CONTINUOUS
 62
     5
 10
0.6124559049295187
 20
1.3843699374178371
 30
0.0
 11
0.6124559049295187
 21
1.9998753605933319
 31
0.0
  0
LINE
  5
F9
  8
0
  6
CONTINUOUS
 62
     5
 10
0.474328632640888
 20
2.1052135455309648
 30
0.0
 11
0.4750136327277091
 21
2.0659699075968181
 31
0.0
  0
LINE
  5
FA
  8
0
  6
CONTINUOUS
 62
     5
 10
0.6595345409130982
 20
2.0659699075968181
 30
0.0
 11
0.6602195409999183
 21
2.1052135455309648
 31
0.0
  0
LINE
  5
FB
  8
0
  6
CONTINUOUS
 62
     5
 10
0.4847507139507821
 20
2.0659699075968181
 30
0.0
 11
0.4882145802825697
 21
1.9998753605933319
 31
0.0
  0
LINE
  5
FC
  8
0
  6
CONTINUOUS
 62
     5
 10
0.6463335933582375
 20
1.9998753605933319
 30
0.0
 11
0.6497974596900252
 21
2.0659699075968181
 31
0.0
  0
LINE
  5
FD
  8
0
  6
CONTINUOUS
 62
     5
 10
0.5132449870758409
 20
2.1054717250551191
 30
0.0
 11
0.5132449870758409
 21
2.1052135455309648
 31
0.0
  0
LINE
  5
FE
  8
0
  6
CONTINUOUS
 62
     5
 10
0.5197133001400031
 20
2.1054717250551191
 30
0.0
 11
0.5197133001400031
 21
2.1052135455309648
 31
0.0
  0
LINE
  5
FF
  8
0
  6
CONTINUOUS
 62
     5
 10
0.5300517122297848
 20
2.1052135455309648
 30
0.0
 11
0.5300517122297848
 21
2.1054717250551191
 31
0.0
  0
LINE
  5
100
  8
0
  6
CONTINUOUS
 62
     5
 10
0.502143263750563
 20
2.1054717250551191
 30
0.0
 11
0.502143263750563
 21
2.1052135455309648
 31
0.0
  0
LINE
  5
101
  8
0
  6
CONTINUOUS
 62
     5
 10
0.4923810469245247
 20
2.1054717250551191
 30
0.0
 11
0.4923810469245247
 21
2.1052135455309648
 31
0.0
  0
LINE
  5
102
  8
0
  6
CONTINUOUS
 62
     5
 10
0.5116761096796463
 20
2.1052135455309648
 30
0.0
 11
0.5116761096796463
 21
2.1054717250551191
 31
0.0
  0
LINE
  5
103
  8
0
  6
CONTINUOUS
 62
     5
 10
0.5042866210703157
 20
2.1054717250551191
 30
0.0
 11
0.5042866210703157
 21
2.1052135455309648
 31
0.0
  0
LINE
  5
104
  8
0
  6
CONTINUOUS
 62
     5
 10
0.5209950909326464
 20
2.1054717250551191
 30
0.0
 11
0.5209950909326464
 21
2.1052135455309648
 31
0.0
  0
LINE
  5
105
  8
0
  6
CONTINUOUS
 62
     5
 10
0.5159783873393682
 20
2.1054717250551191
 30
0.0
 11
0.5159783873393682
 21
2.1052135455309648
 31
0.0
  0
LINE
  5
106
  8
0
  6
CONTINUOUS
 62
     5
 10
0.52614601137544
 20
2.1052135455309648
 30
0.0
 11
0.52614601137544
 21
2.1054717250551191
 31
0.0
  0
LINE
  5
107
  8
0
  6
CONTINUOUS
 62
     5
 10
0.6602195409999183
 20
1.2790317221872209
 30
0.0
 11
0.6595345409130982
 21
1.318275373374548
 31
0.0
  0
LINE
  5
108
  8
0
  6
CONTINUOUS
 62
     5
 10
0.4750136327277091
 20
1.318275373374548
 30
0.0
 11
0.474328632640888
 21
1.2790317221872209
 31
0.0
  0
LINE
  5
109
  8
0
  6
CONTINUOUS
 62
     5
 10
0.6497974596900252
 20
1.318275373374548
 30
0.0
 11
0.6463335933582375
 21
1.3843699374178371
 31
0.0
  0
LINE
  5
10A
  8
0
  6
CONTINUOUS
 62
     5
 10
0.4882145802825697
 20
1.3843699374178371
 30
0.0
 11
0.4847507139507821
 21
1.318275373374548
 31
0.0
  0
LINE
  5
10B
  8
0
  6
CONTINUOUS
 62
     5
 10
0.2982486446519346
 20
1.2790317221872209
 30
0.0
 11
0.2982486446519346
 21
0.2463044770871505
 31
0.0
  0
LINE
  5
10C
  8
0
  6
CONTINUOUS
 62
     5
 10
0.8362995289888717
 20
0.2463044770871505
 30
0.0
 11
0.8362995289888717
 21
1.2790317221872209
 31
0.0
  0
LINE
  5
197
  8
0
  6
CONTINUOUS
 62
     5
 10
0.5672740868204036
 20
2.0659699075968181
 30
0.0
 11
0.6595345409130982
 21
2.0659699075968181
 31
0.0
  0
LINE
  5
198
  8
0
  6
CONTINUOUS
 62
     5
 10
0.4750136327277091
 20
2.0659699075968181
 30
0.0
 11
0.5672740868204036
 21
2.0659699075968181
 31
0.0
  0
LINE
  5
199
  8
0
  6
CONTINUOUS
 62
     5
 10
0.5672740868204036
 20
2.1052135455309648
 30
0.0
 11
0.6602195409999183
 21
2.1052135455309648
 31
0.0
  0
LINE
  5
19A
  8
0
  6
CONTINUOUS
 62
     5
 10
0.474328632640888
 20
2.1052135455309648
 30
0.0
 11
0.5672740868204036
 21
2.1052135455309648
 31
0.0
  0
LINE
  5
19B
  8
0
  6
CONTINUOUS
 62
     5
 10
0.6463335933582375
 20
1.9998753605933319
 30
0.0
 11
0.4882145802825697
 21
1.9998753605933319
 31
0.0
  0
LINE
  5
1A2
  8
0
  6
CONTINUOUS
 62
     5
 10
0.5672740868204036
 20
1.318275373374548
 30
0.0
 11
0.4750136327277091
 21
1.318275373374548
 31
0.0
  0
LINE
  5
1A3
  8
0
  6
CONTINUOUS
 62
     5
 10
0.6595345409130982
 20
1.318275373374548
 30
0.0
 11
0.5672740868204036
 21
1.318275373374548
 31
0.0
  0
LINE
  5
1A4
  8
0
  6
CONTINUOUS
 62
     5
 10
0.4882145802825697
 20
1.3843699374178371
 30
0.0
 11
0.6463335933582375
 21
1.3843699374178371
 31
0.0
  0
LINE
  5
1A5
  8
0
  6
CONTINUOUS
 62
     5
 10
0.2982486446519346
 20
1.2790317221872209
 30
0.0
 11
0.8362995289888717
 21
1.2790317221872209
 31
0.0
  0
LINE
  5
1A6
  8
0
  6
CONTINUOUS
 62
     5
 10
0.2982486446519346
 20
0.2463044770871505
 30
0.0
 11
0.8362995289888717
 21
0.2463044770871505
 31
0.0
  0
TEXT
  5
5C0
  8
0
 62
     5
 10
1.242697071666218
 20
0.7100940884686833
 30
0.0
 40
0.125
  1
LX2038
 41
0.7500000000000002
 51
15.0
  7
P125
 72
     2
 11
1.738232785951932
 21
0.7725940884686833
 31
0.0
 73
     2
  0
ENDSEC
  0
EOF
