  0
SECTION
  2
HEADER
  9
$ACADVER
  1
AC1009
  9
$INSBASE
 10
0.0
 20
0.0
 30
0.0
  9
$EXTMIN
 10
0.3352395707548226
 20
0.3369724396624463
 30
-0.0015258207003583
  9
$EXTMAX
 10
2.2128398330220018
 20
3.3058741172153239
 30
0.0000000349246037
  9
$LIMMIN
 10
0.0
 20
0.0
  9
$LIMMAX
 10
12.0
 20
9.0
  9
$ORTHOMODE
 70
     1
  9
$REGENMODE
 70
     1
  9
$FILLMODE
 70
     1
  9
$QTEXTMODE
 70
     0
  9
$MIRRTEXT
 70
     0
  9
$DRAGMODE
 70
     2
  9
$LTSCALE
 40
1.0
  9
$OSMODE
 70
    39
  9
$ATTMODE
 70
     2
  9
$TEXTSIZE
 40
0.25
  9
$TRACEWID
 40
0.05
  9
$TEXTSTYLE
  7
LSI_B_CUSTOMER
  9
$CLAYER
  8
0
  9
$CELTYPE
  6
BYLAYER
  9
$CECOLOR
 62
   256
  9
$DIMSCALE
 40
1.0
  9
$DIMASZ
 40
0.36
  9
$DIMEXO
 40
0.0625
  9
$DIMDLI
 40
0.38
  9
$DIMRND
 40
0.0
  9
$DIMDLE
 40
0.0
  9
$DIMEXE
 40
0.0625
  9
$DIMTP
 40
0.0
  9
$DIMTM
 40
0.0
  9
$DIMTXT
 40
0.25
  9
$DIMCEN
 40
0.05
  9
$DIMTSZ
 40
0.0
  9
$DIMTOL
 70
     0
  9
$DIMLIM
 70
     0
  9
$DIMTIH
 70
     1
  9
$DIMTOH
 70
     1
  9
$DIMSE1
 70
     0
  9
$DIMSE2
 70
     0
  9
$DIMTAD
 70
     0
  9
$DIMZIN
 70
     1
  9
$DIMBLK
  1

  9
$DIMASO
 70
     1
  9
$DIMSHO
 70
     1
  9
$DIMPOST
  1
"\X
  9
$DIMAPOST
  1
mm
  9
$DIMALT
 70
     1
  9
$DIMALTD
 70
     0
  9
$DIMALTF
 40
25.399999999999999
  9
$DIMLFAC
 40
1.0
  9
$DIMTOFL
 70
     0
  9
$DIMTVP
 40
0.0
  9
$DIMTIX
 70
     0
  9
$DIMSOXD
 70
     0
  9
$DIMSAH
 70
     0
  9
$DIMBLK1
  1

  9
$DIMBLK2
  1

  9
$DIMSTYLE
  2
LSI_B_CUSTOMER
  9
$DIMCLRD
 70
     1
  9
$DIMCLRE
 70
     1
  9
$DIMCLRT
 70
     3
  9
$DIMTFAC
 40
1.0
  9
$DIMGAP
 40
0.09
  9
$LUNITS
 70
     2
  9
$LUPREC
 70
     4
  9
$SKETCHINC
 40
0.1
  9
$FILLETRAD
 40
0.0
  9
$AUNITS
 70
     0
  9
$AUPREC
 70
     0
  9
$MENU
  1
.
  9
$ELEVATION
 40
0.0
  9
$PELEVATION
 40
0.0
  9
$THICKNESS
 40
0.0
  9
$LIMCHECK
 70
     0
  9
$BLIPMODE
 70
     0
  9
$CHAMFERA
 40
0.0
  9
$CHAMFERB
 40
0.0
  9
$SKPOLY
 70
     0
  9
$TDCREATE
 40
2457284.591522662
  9
$TDUPDATE
 40
2457492.5864780438
  9
$TDINDWG
 40
0.0909081829
  9
$TDUSRTIMER
 40
0.0909073148
  9
$USRTIMER
 70
     1
  9
$ANGBASE
 50
0.0
  9
$ANGDIR
 70
     0
  9
$PDMODE
 70
     0
  9
$PDSIZE
 40
0.0
  9
$PLINEWID
 40
0.0
  9
$COORDS
 70
     1
  9
$SPLFRAME
 70
     0
  9
$SPLINETYPE
 70
     6
  9
$SPLINESEGS
 70
     8
  9
$ATTDIA
 70
     0
  9
$ATTREQ
 70
     1
  9
$HANDLING
 70
     1
  9
$HANDSEED
  5
1722E
  9
$SURFTAB1
 70
     6
  9
$SURFTAB2
 70
     6
  9
$SURFTYPE
 70
     6
  9
$SURFU
 70
     6
  9
$SURFV
 70
     6
  9
$UCSNAME
  2

  9
$UCSORG
 10
0.0
 20
0.0
 30
0.0
  9
$UCSXDIR
 10
1.0
 20
0.0
 30
0.0
  9
$UCSYDIR
 10
0.0
 20
1.0
 30
0.0
  9
$PUCSNAME
  2

  9
$PUCSORG
 10
0.0
 20
0.0
 30
0.0
  9
$PUCSXDIR
 10
1.0
 20
0.0
 30
0.0
  9
$PUCSYDIR
 10
0.0
 20
1.0
 30
0.0
  9
$USERI1
 70
     0
  9
$USERI2
 70
     0
  9
$USERI3
 70
     0
  9
$USERI4
 70
     0
  9
$USERI5
 70
     0
  9
$USERR1
 40
0.0
  9
$USERR2
 40
0.0
  9
$USERR3
 40
0.0
  9
$USERR4
 40
0.0
  9
$USERR5
 40
0.0
  9
$WORLDVIEW
 70
     1
  9
$SHADEDGE
 70
     3
  9
$SHADEDIF
 70
    70
  9
$TILEMODE
 70
     1
  9
$MAXACTVP
 70
    48
  9
$PLIMCHECK
 70
     0
  9
$PEXTMIN
 10
0.0149390193522963
 20
0.2418213518841529
 30
0.0
  9
$PEXTMAX
 10
16.02469164112021
 20
10.24176838194118
 30
0.0
  9
$PLIMMIN
 10
-0.4803754614516135
 20
-0.2582442667273526
  9
$PLIMMAX
 10
16.519625259436062
 20
10.741755492976759
  9
$UNITMODE
 70
     0
  9
$VISRETAIN
 70
     1
  9
$PLINEGEN
 70
     0
  9
$PSLTSCALE
 70
     1
  0
ENDSEC
  0
SECTION
  2
TABLES
  0
TABLE
  2
VPORT
 70
     1
  0
VPORT
  2
*ACTIVE
 70
     0
 10
0.0
 20
0.0
 11
1.0
 21
1.0
 12
1.2740396000277341
 22
1.821423194692348
 13
0.0
 23
0.0
 14
0.5
 24
0.5
 15
0.5
 25
0.5
 16
0.0
 26
0.0
 36
1.0
 17
0.0
 27
0.0
 37
0.0
 40
3.409222726667263
 41
2.0328467153284668
 42
50.0
 43
0.0
 44
0.0
 50
0.0
 51
0.0
 71
     0
 72
  1000
 73
     1
 74
     0
 75
     0
 76
     0
 77
     0
 78
     0
  0
ENDTAB
  0
TABLE
  2
LTYPE
 70
     5
  0
LTYPE
  2
CONTINUOUS
 70
     0
  3
Solid line
 72
    65
 73
     0
 40
0.0
  0
LTYPE
  2
CENTER2
 70
     0
  3
Center (.5x) ___ _ ___ _ ___ _ ___ _ ___ _ ___
 72
    65
 73
     4
 40
1.125
 49
0.75
 49
-0.125
 49
0.125
 49
-0.125
  0
ENDTAB
  0
TABLE
  2
LAYER
 70
    11
  0
LAYER
  2
0
 70
     0
 62
     7
  6
CONTINUOUS
  0
LAYER
  2
BORDER_BLUE-DON_T_USE
 70
     0
 62
     4
  6
CONTINUOUS
  0
LAYER
  2
TEXT_GREEN
 70
     0
 62
     3
  6
CONTINUOUS
  0
LAYER
  2
TEXT_RED-DON_T_USE
 70
     0
 62
     1
  6
CONTINUOUS
  0
LAYER
  2
HATCH-BLUE
 70
     0
 62
     5
  6
CONTINUOUS
  0
LAYER
  2
CENTER_LINE-RED
 70
     0
 62
     1
  6
CENTER2
  0
LAYER
  2
OBJECT_LINE-DON_T_USE
 70
     0
 62
     7
  6
CONTINUOUS
  0
LAYER
  2
H-DON_T_USE
 70
     0
 62
     1
  6
CONTINUOUS
  0
ENDTAB
  0
TABLE
  2
STYLE
 70
     9
  0
STYLE
  2
STANDARD
 70
     0
 40
0.0
 41
1.0
 50
0.0
 71
     0
 42
0.2
  3
txt
  4

  0
STYLE
  2
LSI_B_CUSTOMER
 70
     0
 40
0.25
 41
0.75
 50
15.0
 71
     0
 42
0.25
  3
txt
  4

  0
STYLE
  2
P125
 70
     0
 40
0.125
 41
0.75
 50
15.0
 71
     0
 42
0.125
  3
simplex.shx
  4

  0
STYLE
  2
ROMANS
 70
     0
 40
0.08
 41
0.9
 50
0.0
 71
     0
 42
0.08
  3
romans
  4

  0
STYLE
  2
GERRY
 70
     0
 40
0.095
 41
0.75
 50
15.0
 71
     0
 42
0.095
  3
simplex.shx
  4

  0
STYLE
  2
STYLE1
 70
     0
 40
0.085
 41
1.0
 50
0.0
 71
     0
 42
0.085
  3
txt
  4

  0
ENDTAB
  0
TABLE
  2
VIEW
 70
     2
  0
ENDTAB
  0
TABLE
  2
UCS
 70
     0
  0
ENDTAB
  0
TABLE
  2
APPID
 70
    29
  0
APPID
  2
ACAD
 70
     0
  0
APPID
  2
ACADANNOTATIVE
 70
     0
  0
APPID
  2
ACAD_DIMASSOC_CALC_DIMLFAC
 70
     0
  0
APPID
  2
ACAD_DIMASSOC_DIMLFAC
 70
     0
  0
APPID
  2
ACAD_DIMASSOC_OVERRIDDEN_D
 70
     0
  0
APPID
  2
DCO15
 70
     0
  0
APPID
  2
ACAD_DSTYLE_DIMTEXT_FILL
 70
     0
  0
APPID
  2
AVE_RENDER
 70
     0
  0
APPID
  2
ACAD_PSEXT
 70
     0
  0
APPID
  2
ACAD_EXEMPT_FROM_CAD_STANDARDS
 70
     0
  0
APPID
  2
CONTENTBLOCKICON
 70
     0
  0
APPID
  2
ACAD_MLEADERVER
 70
     0
  0
APPID
  2
ACAUTHENVIRON
 70
     0
  0
APPID
  2
ACDBDYNAMICBLOCKTRUENAME
 70
     0
  0
APPID
  2
ACDBDYNAMICBLOCKGUID
 70
     0
  0
APPID
  2
ACDBBLOCKREPETAG
 70
     0
  0
APPID
  2
ACDBBLOCKREPBTAG
 70
     0
  0
APPID
  2
ACAECLAYERSTANDARD
 70
     0
  0
APPID
  2
ACAD_NAV_VCDISPLAY
 70
     0
  0
APPID
  2
GRADIENTCOLOR1ACI
 70
     0
  0
APPID
  2
GRADIENTCOLOR2ACI
 70
     0
  0
APPID
  2
ACAD_DSTYLE_DIMJAG
 70
     0
  0
APPID
  2
ACAD_DSTYLE_DIMTALN
 70
     0
  0
APPID
  2
ACAD_DSTYLE_DIMRADIAL_EXTENSION
 70
     0
  0
APPID
  2
ACCMTRANSPARENCY
 70
     0
  0
APPID
  2
ACADANNOMONITORALERTICONDI
 70
     0
  0
APPID
  2
ACAD_EXEMPT_FROM_CAD_STAND
 70
     0
  0
APPID
  2
ACAD_DSTYLE_DIMBREAK
 70
     0
  0
APPID
  2
ACAD_DSTYLE_DIMRADIAL_EXTE
 70
     0
  0
ENDTAB
  0
TABLE
  2
DIMSTYLE
 70
     6
  0
DIMSTYLE
  2
LSI_B_CUSTOMER
 70
     0
  3

  4
mm
  5

  6

  7

 40
1.0
 41
0.36
 42
0.0625
 43
0.38
 44
0.0625
 45
0.0
 46
0.0
 47
0.0
 48
0.0
140
0.25
141
0.05
142
0.0
143
25.399999999999999
144
1.0
145
0.0
146
1.0
147
0.09
 71
     0
 72
     0
 73
     1
 74
     1
 75
     0
 76
     0
 77
     0
 78
     1
170
     1
171
     0
172
     0
173
     0
174
     0
175
     0
176
     1
177
     1
178
     3
  0
ENDTAB
  0
ENDSEC
  0
SECTION
  2
BLOCKS
  0
BLOCK
  8
0
  2
$MODEL_SPACE
 70
     0
 10
0.0
 20
0.0
 30
0.0
  3
$MODEL_SPACE
  1

  0
ENDBLK
  5
1704E
  8
0
  0
BLOCK
 67
     1
  8
0
  2
$PAPER_SPACE
 70
     0
 10
0.0
 20
0.0
 30
0.0
  3
$PAPER_SPACE
  1

  0
ENDBLK
  5
1704A
 67
     1
  8
0
  0
BLOCK
  8
0
  2
A$C5FB205A1
 70
     0
 10
0.0
 20
0.0
 30
0.0
  3
A$C5FB205A1
  1

  0
LINE
  5
3BB3
  8
0
 10
-0.2253482481737592
 20
-0.1226010713423093
 30
0.0
 11
-0.124098248173766
 21
-0.1226010713423093
 31
0.0
  0
LINE
  5
3BB4
  8
0
 10
-0.2253482481737592
 20
-0.460101071342301
 30
0.0
 11
0.1037142518262186
 21
-0.460101071342301
 31
0.0
  0
LINE
  5
3BB5
  8
0
 10
-0.2253482481737592
 20
-0.460101071342301
 30
0.0
 11
-0.2253482481737592
 21
-0.1226010713423093
 31
0.0
  0
LINE
  5
3BB6
  8
0
 10
0.0080893217348432
 20
-0.1226010713423093
 30
0.0
 11
0.3371517518262408
 21
-0.1226010713423093
 31
0.0
  0
LINE
  5
3BB7
  8
0
 10
0.2359017518262476
 20
-0.460101071342301
 30
0.0
 11
0.3371517518262408
 21
-0.460101071342301
 31
0.0
  0
LINE
  5
3BB8
  8
0
 10
0.3371517518262408
 20
-0.2407260713423085
 30
0.0
 11
0.3371517518262408
 21
-0.460101071342301
 31
0.0
  0
LINE
  5
3BB9
  8
0
 10
0.2359017518262476
 20
-0.460101071342301
 30
0.0
 11
0.2359017518262476
 21
-0.2238510713423025
 31
0.0
  0
ARC
  5
3BBA
  8
0
 10
0.1037142518262186
 20
-0.350413571342294
 30
0.0
 40
0.0084374999999911
 50
270.0
 51
90.0
  0
ARC
  5
3BBB
  8
0
 10
0.0080892518263056
 20
-0.2322885713422949
 30
0.0
 40
0.0084374999999901
 50
89.999999999993165
 51
270.00000000000682
  0
LINE
  5
3BBC
  8
0
 10
0.0080892518263056
 20
-0.341976071342323
 30
0.0
 11
0.1037142518262186
 21
-0.341976071342323
 31
0.0
  0
LINE
  5
3BBD
  8
0
 10
0.0080892518263056
 20
-0.2407260713423085
 30
0.0
 11
0.1037142518262186
 21
-0.2407260713423085
 31
0.0
  0
LINE
  5
3BBE
  8
0
 10
0.0080892518263056
 20
-0.2238510713423025
 30
0.0
 11
0.2359017518262476
 21
-0.2238510713423025
 31
0.0
  0
LINE
  5
3BBF
  8
0
 10
-0.124098248173766
 20
-0.3588510713423076
 30
0.0
 11
0.1037142518262186
 21
-0.3588510713423076
 31
0.0
  0
ARC
  5
3BC0
  8
0
 10
0.1037142518262186
 20
-0.350413571342294
 30
0.0
 40
0.1096875000000002
 50
269.99999999999949
 51
90.000000000000469
  0
LINE
  5
3BC1
  8
0
 10
-0.124098248173766
 20
-0.3588510713423076
 30
0.0
 11
-0.124098248173766
 21
-0.1226010713423093
 31
0.0
  0
ARC
  5
3BC2
  8
0
 10
0.0080892518263056
 20
-0.2322885713422949
 30
0.0
 40
0.1096875000000002
 50
89.999963482946583
 51
270.00003651705339
  0
LINE
  5
3BC3
  8
0
 10
0.3371517518262408
 20
-0.460101071342301
 30
0.0
 11
0.3371517518262408
 21
-0.1226010713423093
 31
0.0
  0
ENDBLK
  5
3BC5
  8
0
  0
BLOCK
  8
0
  2
A$C6EE9597A
 70
     2
 10
0.0
 20
0.0
 30
0.0
  3
A$C6EE9597A
  1

  0
LINE
  5
6937
  8
0
 10
0.1432989498828974
 20
-0.2000000000000011
 30
0.0
 11
5.1274400761568302
 21
-0.2000000000000011
 31
0.0
  0
LINE
  5
6938
  8
0
 10
0.0
 20
-0.4000000000000006
 30
0.0
 11
5.1274400761568302
 21
-0.4000000000000006
 31
0.0
  0
LINE
  5
6939
  8
0
 10
0.0
 20
-0.3999999999999932
 30
0.0
 11
0.0
 21
-0.2000000000000011
 31
0.0
  0
LINE
  5
693A
  8
0
 10
0.3125
 20
-0.3999999999999932
 30
0.0
 11
0.3125
 21
-0.2000000000000011
 31
0.0
  0
LINE
  5
693B
  8
0
 10
1.1418895937506051
 20
-0.3999999999999932
 30
0.0
 11
1.1418895937506031
 21
-0.2000000000000011
 31
0.0
  0
LINE
  5
693C
  8
0
 10
0.8293895937506015
 20
-0.3999999999999932
 30
0.0
 11
0.8293895937506031
 21
-0.2000000000000011
 31
0.0
  0
LINE
  5
693D
  8
0
 10
2.179297856756405
 20
-0.3999999999999932
 30
0.0
 11
2.179297856756405
 21
-0.2000000000000011
 31
0.0
  0
LINE
  5
693E
  8
0
 10
1.8667978567564061
 20
-0.3999999999999932
 30
0.0
 11
1.8667978567564081
 21
-0.2000000000000011
 31
0.0
  0
TEXT
  5
693F
  8
TEXT_RED-DON_T_USE
 10
3.263892922037575
 20
-0.1493962654001812
 30
0.0
 40
0.08
  1
Description
 41
0.9
  7
ROMANS
  0
LINE
  5
6940
  8
0
 10
2.179297856756405
 20
-0.2000000000000028
 30
0.0
 11
2.179297856756405
 21
0.0
 31
0.0
  0
LINE
  5
6941
  8
0
 10
1.8667978567564001
 20
-0.2000000000000028
 30
0.0
 11
1.866797856756409
 21
0.0
 31
0.0
  0
TEXT
  5
6942
  8
TEXT_RED-DON_T_USE
 10
1.3899136716840821
 20
-0.1497179782064393
 30
0.0
 40
0.08
  1
Date   
 41
0.9
  7
ROMANS
  0
TEXT
  5
6943
  8
TEXT_RED-DON_T_USE
 10
1.932094199071221
 20
-0.1493962654001812
 30
0.0
 40
0.08
  1
App.
 41
0.9
  7
ROMANS
  0
LINE
  5
6944
  8
0
 10
1.1418895937506
 20
-0.2000000000000028
 30
0.0
 11
1.1418895937506
 21
0.0
 31
0.0
  0
LINE
  5
6945
  8
0
 10
0.8293895937506015
 20
-0.2000000000000028
 30
0.0
 11
0.8293895937506048
 21
0.0
 31
0.0
  0
TEXT
  5
6946
  8
TEXT_RED-DON_T_USE
 10
0.9301768538898116
 20
-0.1497179782064393
 30
0.0
 40
0.08
  1
By 
 41
0.9
  7
ROMANS
  0
LINE
  5
6947
  8
0
 10
0.3125000000000035
 20
-0.2000000000000011
 30
0.0
 11
0.3125
 21
0.0
 31
0.0
  0
LINE
  5
6948
  8
0
 10
0.0
 20
-0.2000000000000011
 30
0.0
 11
0.0
 21
0.0
 31
0.0
  0
TEXT
  5
6949
  8
TEXT_RED-DON_T_USE
 10
0.0646763072904975
 20
-0.1497179782064393
 30
0.0
 40
0.08
  1
Rev.   
 41
0.9
  7
ROMANS
  0
TEXT
  5
694A
  8
TEXT_RED-DON_T_USE
 10
0.4571217675186789
 20
-0.1497179782064393
 30
0.0
 40
0.08
  1
ECO  
 41
0.9
  7
ROMANS
  0
LINE
  5
694B
  8
0
 10
0.0
 20
-0.2000000000000011
 30
0.0
 11
5.1274400761568302
 21
-0.2000000000000011
 31
0.0
  0
ATTDEF
  5
694C
  8
0
 62
     3
 10
2.205796766852083
 20
-0.357231346766687
 30
0.0
 40
0.095
  1

 41
0.75
 51
15.0
  7
GERRY
  3
DESCRIPTION
  2
DESCRIPTION
 70
     0
  0
ATTDEF
  5
694D
  8
0
 62
     3
 10
2.0082057774463991
 20
-0.3552024216838205
 30
0.0
 40
0.095
  1

 41
0.75
 51
15.0
  7
GERRY
 72
     1
 11
2.0082057774463991
 21
-0.3552024216838205
 31
0.0
  3
APP
  2
APP
 70
     0
  0
ATTDEF
  5
694E
  8
0
 62
     3
 10
1.467692985548805
 20
-0.3537665647337036
 30
0.0
 40
0.095
  1

 41
0.75
 51
15.0
  7
GERRY
 72
     1
 11
1.467692985548805
 21
-0.3537665647337036
 31
0.0
  3
DATE
  2
DATE
 70
     0
  0
ATTDEF
  5
694F
  8
0
 62
     3
 10
0.975931687765872
 20
-0.3527512828016093
 30
0.0
 40
0.095
  1

 41
0.75
 51
15.0
  7
GERRY
 72
     1
 11
0.975931687765872
 21
-0.3527512828016093
 31
0.0
  3
CHANGED BY
  2
BY
 70
     0
  0
ATTDEF
  5
6950
  8
0
 62
     3
 10
0.5496072094573175
 20
-0.3541903217548974
 30
0.0
 40
0.095
  1

 41
0.75
 51
15.0
  7
GERRY
 72
     1
 11
0.5496072094573175
 21
-0.3541903217548974
 31
0.0
  3
ECO #
  2
ECO000
 70
     0
  0
ATTDEF
  5
6951
  8
0
 62
     3
 10
0.1387608039535557
 20
-0.3535565662385487
 30
0.0
 40
0.095
  1

 41
0.75
 51
15.0
  7
GERRY
 72
     1
 11
0.1387608039535557
 21
-0.3535565662385487
 31
0.0
  3
REV
  2
REV
 70
     0
  0
ENDBLK
  5
6952
  8
0
  0
BLOCK
  8
0
  2
A$C600D094D
 70
     2
 10
0.0
 20
0.0
 30
0.0
  3
A$C600D094D
  1

  0
LINE
  5
6957
  8
0
 10
0.0
 20
-0.1999999999999922
 30
0.0
 11
5.1274400761568302
 21
-0.1999999999999993
 31
0.0
  0
LINE
  5
6958
  8
0
 10
0.0
 20
-0.1999999999999922
 30
0.0
 11
0.0
 21
0.0
 31
0.0
  0
LINE
  5
6959
  8
0
 10
0.3125
 20
-0.1999999999999922
 30
0.0
 11
0.3125
 21
0.0
 31
0.0
  0
LINE
  5
695A
  8
0
 10
1.1418895937506051
 20
-0.1999999999999922
 30
0.0
 11
1.1418895937506031
 21
0.0
 31
0.0
  0
LINE
  5
695B
  8
0
 10
0.8293895937506015
 20
-0.1999999999999922
 30
0.0
 11
0.8293895937506031
 21
0.0
 31
0.0
  0
LINE
  5
695C
  8
0
 10
2.179297856756405
 20
-0.1999999999999922
 30
0.0
 11
2.179297856756405
 21
0.0
 31
0.0
  0
LINE
  5
695D
  8
0
 10
1.8667978567564061
 20
-0.1999999999999922
 30
0.0
 11
1.8667978567564081
 21
0.0
 31
0.0
  0
ATTDEF
  5
695E
  8
0
 62
     3
 10
0.1387608039535557
 20
-0.1535565662385476
 30
0.0
 40
0.095
  1

 41
0.75
 51
15.0
  7
GERRY
 72
     1
 11
0.1387608039535557
 21
-0.1535565662385476
 31
0.0
  3
REV
  2
REV
 70
     0
  0
ATTDEF
  5
695F
  8
0
 62
     3
 10
0.5496072094573175
 20
-0.1541903217548963
 30
0.0
 40
0.095
  1

 41
0.75
 51
15.0
  7
GERRY
 72
     1
 11
0.5496072094573175
 21
-0.1541903217548963
 31
0.0
  3
ECO #
  2
ECO000
 70
     0
  0
ATTDEF
  5
6960
  8
0
 62
     3
 10
0.975931687765872
 20
-0.1527512828016082
 30
0.0
 40
0.095
  1

 41
0.75
 51
15.0
  7
GERRY
 72
     1
 11
0.975931687765872
 21
-0.1527512828016082
 31
0.0
  3
CHANGED BY
  2
BY
 70
     0
  0
ATTDEF
  5
6961
  8
0
 62
     3
 10
1.467692985548805
 20
-0.1537665647337025
 30
0.0
 40
0.095
  1

 41
0.75
 51
15.0
  7
GERRY
 72
     1
 11
1.467692985548805
 21
-0.1537665647337025
 31
0.0
  3
DATE
  2
DATE
 70
     0
  0
ATTDEF
  5
6962
  8
0
 62
     3
 10
2.0082057774463991
 20
-0.1552024216838195
 30
0.0
 40
0.095
  1

 41
0.75
 51
15.0
  7
GERRY
 72
     1
 11
2.0082057774463991
 21
-0.1552024216838195
 31
0.0
  3
CHECKED BY
  2
CHK
 70
     0
  0
ATTDEF
  5
6963
  8
0
 62
     3
 10
2.205796766852083
 20
-0.1572313467666859
 30
0.0
 40
0.095
  1

 41
0.75
 51
15.0
  7
GERRY
  3
DESCRIPTION
  2
DESCRIPTION
 70
     0
  0
ENDBLK
  5
6964
  8
0
  0
BLOCK
  8
0
  2
A$C679F6DC7
 70
     2
 10
0.0
 20
0.0
 30
0.0
  3
A$C679F6DC7
  1

  0
LINE
  5
6AAF
  8
0
 10
-2.870903676193457
 20
-0.0000018766873806
 30
0.0
 11
-2.870903676193453
 21
0.3750000000000004
 31
0.0
  0
LINE
  5
6AB0
  8
0
 10
-3.6286925471963039
 20
0.0000000000000009
 30
0.0
 11
-3.6286925471963039
 21
0.3750000000000004
 31
0.0
  0
LINE
  5
6AB1
  8
0
 10
-4.1564999999999932
 20
0.3750000000000004
 30
0.0
 11
-4.1564999999999932
 21
0.0000000000000013
 31
0.0
  0
LINE
  5
6AB2
  8
0
 10
-6.2347499999999947
 20
0.3750000000000004
 30
0.0
 11
-6.234749999999992
 21
0.0000000000000018
 31
0.0
  0
LINE
  5
6AB3
  8
0
 10
-4.1564999999999932
 20
0.3750000000000004
 30
0.0
 11
-4.1564999999999932
 21
1.125
 31
0.0
  0
LINE
  5
6AB4
  8
0
 10
0.0000000000000018
 20
1.124999999999998
 30
0.0
 11
0.0000000000000018
 21
-0.0000000000000013
 31
0.0
  0
TEXT
  5
6AB5
  8
TEXT_RED-DON_T_USE
 10
-0.32532947578221
 20
0.2659803181805742
 30
0.0
 40
0.08
  1
Rev          
 41
0.9
  7
ROMANS
  0
LINE
  5
6AB6
  8
0
 10
-0.3620088185105086
 20
0.0000000000000004
 30
0.0
 11
-0.3620088185105086
 21
0.3750000000000004
 31
0.0
  0
TEXT
  5
6AB7
  8
TEXT_RED-DON_T_USE
 10
-4.1159695461283361
 20
1.006056708962445
 30
0.0
 40
0.08
  1
Description
 41
0.9
  7
ROMANS
  0
TEXT
  5
6AB8
  8
TEXT_RED-DON_T_USE
 10
-3.5978923652503361
 20
0.2659803181805747
 30
0.0
 40
0.08
  1
Sheet
 41
0.9
  7
ROMANS
  0
TEXT
  5
6AB9
  8
TEXT_RED-DON_T_USE
 10
-4.9076196537983181
 20
0.9988238002897528
 30
0.0
 40
0.08
  1
Type
 41
0.9
  7
ROMANS
  0
TEXT
  5
6ABA
  8
TEXT_RED-DON_T_USE
 10
-4.125970538789856
 20
0.2659803181805747
 30
0.0
 40
0.08
  1
Scale   
 41
0.9
  7
ROMANS
  0
TEXT
  5
6ABB
  8
TEXT_RED-DON_T_USE
 10
-1.905325378160432
 20
0.2659803181805751
 30
0.0
 40
0.08
  1
Drawing No.
 41
0.9
  7
ROMANS
  0
TEXT
  5
6ABC
  8
TEXT_RED-DON_T_USE
 10
-8.2759970256201818
 20
0.9949114751455636
 30
0.0
 40
0.08
  1
Title
 41
0.9
  7
ROMANS
  0
LINE
  5
6ABD
  8
0
 10
-8.3129999999999971
 20
1.125
 30
0.0
 11
-8.3129999999999971
 21
0.0000000000000022
 31
0.0
  0
TEXT
  5
6ABE
  8
TEXT_RED-DON_T_USE
 10
-8.2763206572716932
 20
0.2659803181805742
 30
0.0
 40
0.08
  1
Drawn by             Date           
 41
0.9
  7
ROMANS
  0
LINE
  5
6ABF
  8
0
 10
-8.3129999999999971
 20
0.0000000000000022
 30
0.0
 11
0.0000000000000018
 21
0.0
 31
0.0
  0
LINE
  5
6AC0
  8
0
 10
-8.3129999999999971
 20
1.125
 30
0.0
 11
0.0000000000000018
 21
1.125
 31
0.0
  0
LINE
  5
6AC1
  8
0
 10
-8.3129999999999971
 20
0.3750000000000004
 30
0.0
 11
0.0000000000000018
 21
0.3750000000000004
 31
0.0
  0
TEXT
  5
6AC2
  8
TEXT_RED-DON_T_USE
 10
-8.2810528024124945
 20
0.2659803181805747
 30
0.0
 40
0.08
  1
                             Checked by          Date   
 41
0.9
  7
ROMANS
  0
ATTDEF
  5
6AC3
  8
TEXT_GREEN
 10
-2.0782499999999962
 20
0.9434363455094151
 30
0.0
 40
0.125
  1

 41
0.75
 51
15.0
  7
P125
 72
     1
 11
-2.0782499999999962
 21
0.9434363455094151
 31
0.0
  3
DESC TOP LINE 
  2
TOP
 70
     0
  0
ATTDEF
  5
6AC4
  8
TEXT_GREEN
 10
-0.1912712325355184
 20
0.067323235540024
 30
0.0
 40
0.125
  1

 41
0.75
 51
15.0
  7
P125
 72
     1
 11
-0.1912712325355184
 21
0.067323235540024
 31
0.0
  3
REV
  2
~
 70
     0
  0
ATTDEF
  5
6AC5
  8
TEXT_GREEN
 10
-1.60330549827236
 20
0.0673232355400235
 30
0.0
 40
0.125
  1

 41
0.75
 51
15.0
  7
P125
 72
     1
 11
-1.60330549827236
 21
0.0673232355400235
 31
0.0
  3
DRAWING NO.
  2
S2-00000
 70
     0
  0
ATTDEF
  5
6AC6
  8
TEXT_GREEN
 10
-3.2604176265670182
 20
0.0651199324036651
 30
0.0
 40
0.125
  1

 41
0.75
 51
15.0
  7
P125
 72
     1
 11
-3.2604176265670182
 21
0.0651199324036651
 31
0.0
  3
SHEET
  2
SHT1OF1
 70
     0
  0
ATTDEF
  5
6AC7
  8
TEXT_GREEN
 10
-4.82431250592865
 20
0.6842015841021794
 30
0.0
 40
0.125
  1

 41
0.75
 51
15.0
  7
P125
 72
     1
 11
-4.82431250592865
 21
0.6842015841021794
 31
0.0
  3
TYPE
  2
TYPE
 70
     0
  0
ATTDEF
  5
6AC8
  8
TEXT_GREEN
 10
-4.725574439747934
 20
0.0673232355400235
 30
0.0
 40
0.125
  1

 41
0.75
 51
15.0
  7
P125
 72
     1
 11
-4.725574439747934
 21
0.0673232355400235
 31
0.0
  3
DATE APPROVED BY
  2
12/12/04
 70
     0
  0
ATTDEF
  5
6AC9
  8
TEXT_GREEN
 10
-3.909737838076218
 20
0.0673232355400235
 30
0.0
 40
0.125
  1

 41
0.75
 51
15.0
  7
P125
 72
     1
 11
-3.909737838076218
 21
0.0673232355400235
 31
0.0
  3
SCALE
  2
SCALE
 70
     0
  0
ATTDEF
  5
6ACA
  8
TEXT_GREEN
 10
-2.0782499999999962
 20
0.6849629225208425
 30
0.0
 40
0.125
  1

 41
0.75
 51
15.0
  7
P125
 72
     1
 11
-2.0782499999999962
 21
0.6849629225208425
 31
0.0
  3
DESC MIDDLE LINE
  2
MIDDLE
 70
     0
  0
ATTDEF
  5
6ACB
  8
TEXT_GREEN
 10
-2.0782499999999962
 20
0.4251105697567188
 30
0.0
 40
0.125
  1

 41
0.75
 51
15.0
  7
P125
 72
     1
 11
-2.0782499999999962
 21
0.4251105697567188
 31
0.0
  3
DESC BOTTOM LINE
  2
BOTTOM
 70
     0
  0
ATTDEF
  5
6ACC
  8
TEXT_GREEN
 10
-5.9151048240527491
 20
0.0673232355400235
 30
0.0
 40
0.125
  1

 41
0.75
 51
15.0
  7
P125
 72
     1
 11
-5.9151048240527491
 21
0.0673232355400235
 31
0.0
  3
CHECKED BY
  2
VG
 70
     0
  0
ATTDEF
  5
6ACD
  8
TEXT_GREEN
 10
-6.692299329237402
 20
0.0673232355400235
 30
0.0
 40
0.125
  1

 41
0.75
 51
15.0
  7
P125
 72
     1
 11
-6.692299329237402
 21
0.0673232355400235
 31
0.0
  3
DATE
  2
12/12/04
 70
     0
  0
ATTDEF
  5
6ACE
  8
TEXT_GREEN
 10
-8.0527230201207765
 20
0.0671532648857363
 30
0.0
 40
0.125
  1

 41
0.75
 51
15.0
  7
P125
 72
     1
 11
-8.0527230201207765
 21
0.0671532648857363
 31
0.0
  3
DRAWN
  2
VG
 70
     0
  0
ENDBLK
  5
6AD2
  8
0
  0
BLOCK
  8
0
  2
A$C36893C35
 70
     0
 10
0.0
 20
0.0
 30
0.0
  3
A$C36893C35
  1

  0
TEXT
  5
6EF5
  8
0
 62
     3
 10
0.099999999999997
 20
0.9293953105832535
 30
0.0
 40
0.090993375
  1
CONFIDENTIAL-PROPRIETARY INFORMATION.
 41
0.9
  7
ROMANS
  0
TEXT
  5
6EF6
  8
H-DON_T_USE
 10
0.099999999999997
 20
0.7025381677261118
 30
0.0
 40
0.075
  1
DISSEMINATION IN WHOLE OR IN PART, IS EXPRESSLY PROHIBITED.  THE INFORMATION CONTAINED HEREIN IS AND REMAINS THE PROPERTY OF
 41
0.9
  7
ROMANS
  0
TEXT
  5
6EF7
  8
H-DON_T_USE
 10
0.099999999999997
 20
0.8159667391546825
 30
0.0
 40
0.075
  1
NATURE AND IS SUBMITTED IN CONFIDENCE FOR USE BY OUR CLIENTS ONLY.  UNAUTHORIZED REPRODUCTION, PUBLICATION, DISTRIBUTION OR
 41
0.9
  7
ROMANS
  0
LINE
  5
6EF8
  8
OBJECT_LINE-DON_T_USE
 10
-0.0000000000000011
 20
0.3000843906531054
 30
0.0
 11
7.6869999999999932
 21
0.3000843906531054
 31
0.0
  0
TEXT
  5
6EF9
  8
H-DON_T_USE
 10
0.0999999999999968
 20
0.4756810248689698
 30
0.0
 40
0.075
  1
TO OTHERS THE SUBJECT MATTER CONTAINED HEREIN  FOR ANY BUT AUTHORIZED PURPOSES.  COPYRIGHT LIGHTING SERVICES INC   
 41
0.9
  7
ROMANS
  0
TEXT
  5
6EFA
  8
H-DON_T_USE
 10
0.099999999999997
 20
0.5891095962975408
 30
0.0
 40
0.075
  1
LIGHTING SERVICES INC  AND RECEIPT OR POSSESSION OF THIS INFORMATION  CONFERS NO RIGHT IN OR LICENSE TO USE OR TO DISCLOSE
 41
0.9
  7
ROMANS
  0
LINE
  5
6EFB
  8
OBJECT_LINE-DON_T_USE
 10
7.6869999999999958
 20
1.1250843906531021
 30
0.0
 11
0.0
 21
1.1250843906531061
 31
0.0
  0
LINE
  5
6EFC
  8
OBJECT_LINE-DON_T_USE
 10
0.0
 20
1.1250843906531061
 30
0.0
 11
0.0
 21
0.0
 31
0.0
  0
TEXT
  5
6EFD
  8
H-DON_T_USE
 10
0.0999999999999968
 20
0.3622524534403988
 30
0.0
 40
0.075
  1
ALL RIGHTS RESERVED.
 41
0.9
  7
ROMANS
  0
TEXT
  5
6EFE
  8
H-DON_T_USE
 10
2.9840252388455362
 20
0.9233830339916844
 30
0.0
 40
0.075
  1
THE INFORMATION HEREIN IS PROTECTED UNDER COPYRIGHT AND IS OF A PROPRIETARY
 41
0.9
  7
ROMANS
  0
LINE
  5
6EFF
  8
OBJECT_LINE-DON_T_USE
 10
7.6869999999999932
 20
1.1250843906531021
 30
0.0
 11
7.6869999999999932
 21
-0.0000000000000036
 31
0.0
  0
LINE
  5
6F00
  8
OBJECT_LINE-DON_T_USE
 10
7.6855948053431602
 20
0.0000843906531056
 30
0.0
 11
0.0
 21
0.0000843906531056
 31
0.0
  0
INSERT
  5
6F01
  8
0
  2
*U7
 10
0.0
 20
0.0
 30
0.0
  0
ENDBLK
  5
6F02
  8
0
  0
BLOCK
  8
0
  2
*U7
 70
     1
 10
0.0
 20
0.0
 30
0.0
  3
*U7
  1

  0
TEXT
  5
16E0A
  8
0
 62
     3
 10
0.1988893047387025
 20
0.1152817350143111
 30
0.0
 40
0.095
  1
Lighting Services Inc    2 Holt Drive   Stony Point, NY 10980-1996   Tel: 845-942-2800    www.LightingServicesInc.com
  7
STYLE1
  0
ENDBLK
  5
16E0C
  8
0
  0
BLOCK
  8
0
  2
STICKER_2008
 70
     0
 10
0.0
 20
0.0
 30
0.0
  3
STICKER_2008
  1

  0
INSERT
  5
6F09
  8
0
  2
A$C36893C35
 10
-0.0097526217679236
 20
0.0001111296356742
 30
0.0
  0
ENDBLK
  5
6F0D
  8
0
  0
BLOCK
  8
0
  2
A$C37264E1E
 70
     2
 10
0.0
 20
0.0
 30
0.0
  3
A$C37264E1E
  1

  0
LINE
  5
73AD
  8
0
 10
0.9236761558203916
 20
-0.3497105743365267
 30
0.0
 11
0.9236761558203916
 21
-0.7497105743365129
 31
0.0
  0
LINE
  5
73AE
  8
0
 10
1.2361761558203941
 20
-0.3497105743365303
 30
0.0
 11
1.2361761558203941
 21
-0.7497105743365166
 31
0.0
  0
LINE
  5
73AF
  8
0
 10
1.961084418826196
 20
-0.3497105743365303
 30
0.0
 11
1.961084418826196
 21
-0.7497105743365166
 31
0.0
  0
LINE
  5
73B0
  8
0
 10
0.0942865620697902
 20
-0.7497105743365218
 30
0.0
 11
0.0942865620697902
 21
-0.3497105743365374
 31
0.0
  0
LINE
  5
73B1
  8
0
 10
2.2735844188261942
 20
-0.7497105743365183
 30
0.0
 11
2.2735844188261942
 21
-0.3497105743365303
 31
0.0
  0
LINE
  5
73B2
  8
0
 10
0.0942865620697902
 20
-0.7497105743365218
 30
0.0
 11
5.2217266382266203
 21
-0.7497105743365218
 31
0.0
  0
LINE
  5
73B3
  8
0
 10
0.4067865620697904
 20
-0.3497105743365374
 30
0.0
 11
0.4067865620697904
 21
-0.7497105743365218
 31
0.0
  0
ATTDEF
  5
73B4
  8
0
 62
     3
 10
0.5356522802617825
 20
-0.5972186538531688
 30
0.0
 40
0.095
  1

 41
0.75
 51
15.0
  7
GERRY
  3
ECO
  2
XXXX
 70
     0
  0
ATTDEF
  5
73B5
  8
0
 62
     3
 10
0.2285464544132871
 20
-0.5995484563645485
 30
0.0
 40
0.095
  1

 41
0.75
 51
15.0
  7
GERRY
  3
REV
  2
REV
 70
     0
  0
ATTDEF
  5
73B6
  8
0
 62
     3
 10
1.0090925618828901
 20
-0.5995484563645485
 30
0.0
 40
0.095
  1

 41
0.75
 51
15.0
  7
GERRY
  3
BY
  2
BY
 70
     0
  0
ATTDEF
  5
73B7
  8
0
 62
     3
 10
2.038279174741485
 20
-0.5918395099531928
 30
0.0
 40
0.095
  1

 41
0.75
 51
15.0
  7
GERRY
  3
APP
  2
APP
 70
     0
  0
ATTDEF
  5
73B8
  8
0
 62
     3
 10
1.3491679508974901
 20
-0.5918395099531928
 30
0.0
 40
0.095
  1

 41
0.75
 51
15.0
  7
GERRY
  3
DATE
  2
TODAYS
 70
     0
  0
ATTDEF
  5
73B9
  8
0
 62
     3
 10
2.313289892200959
 20
-0.5008058750456179
 30
0.0
 40
0.095
  1

 41
0.75
 51
15.0
  7
GERRY
  3
DESCRTOP
  2
DESCRTOP
 70
     0
  0
ATTDEF
  5
73BA
  8
0
 62
     3
 10
2.313289892200959
 20
-0.6913115987605956
 30
0.0
 40
0.095
  1

 41
0.75
 51
15.0
  7
GERRY
  3
DESCRBOT
  2
DESCRBOT
 70
     0
  0
ENDBLK
  5
73BE
  8
0
  0
BLOCK
  8
0
  2
A$C43C70115
 70
     0
 10
0.0
 20
0.0
 30
0.0
  3
A$C43C70115
  1

  0
INSERT
  5
7480
  8
0
  2
*U11
 10
0.0
 20
0.0
 30
0.0
  0
POLYLINE
  5
7481
  8
TEXT_GREEN
 66
     1
 10
0.0
 20
0.0
 30
0.0
 70
     1
  0
VERTEX
  5
171D8
  8
TEXT_GREEN
 10
-1.0097437191580441
 20
0.0
 30
0.0
  0
VERTEX
  5
171D9
  8
TEXT_GREEN
 10
1.0097437191580441
 20
0.0
 30
0.0
  0
VERTEX
  5
171DA
  8
TEXT_GREEN
 10
1.0097437191580441
 20
-0.5035125816422906
 30
0.0
  0
VERTEX
  5
171DB
  8
TEXT_GREEN
 10
-1.0097437191580441
 20
-0.5035125816422906
 30
0.0
  0
SEQEND
  5
171DC
  8
TEXT_GREEN
  0
ENDBLK
  5
7485
  8
0
  0
BLOCK
  8
0
  2
*U11
 70
     1
 10
0.0
 20
0.0
 30
0.0
  3
*U11
  1

  0
TEXT
  5
16E15
  8
TEXT_GREEN
 10
-0.9125397104147447
 20
-0.3640247250012578
 30
0.0
 40
0.25
  1
PRELIMINARY
 41
0.75
 51
15.0
  7
LSI_B_CUSTOMER
  0
ENDBLK
  5
16E17
  8
0
  0
BLOCK
  8
0
  2
A$C67EC16EC
 70
     0
 10
0.0
 20
0.0
 30
0.0
  3
A$C67EC16EC
  1

  0
INSERT
  5
7488
  8
0
  2
*U13
 10
0.0
 20
0.0
 30
0.0
  0
POLYLINE
  5
7489
  8
TEXT_GREEN
 66
     1
 10
0.0
 20
0.0
 30
0.0
 70
     1
  0
VERTEX
  5
171DD
  8
TEXT_GREEN
 10
-1.185695121702399
 20
0.0
 30
0.0
  0
VERTEX
  5
171DE
  8
TEXT_GREEN
 10
1.185695121702399
 20
0.0
 30
0.0
  0
VERTEX
  5
171DF
  8
TEXT_GREEN
 10
1.185695121702399
 20
-0.5035125816422906
 30
0.0
  0
VERTEX
  5
171E0
  8
TEXT_GREEN
 10
-1.185695121702399
 20
-0.5035125816422906
 30
0.0
  0
SEQEND
  5
171E1
  8
TEXT_GREEN
  0
ENDBLK
  5
748D
  8
0
  0
BLOCK
  8
0
  2
*U13
 70
     1
 10
0.0
 20
0.0
 30
0.0
  3
*U13
  1

  0
TEXT
  5
16E1E
  8
TEXT_GREEN
 10
-1.0801864182437571
 20
-0.3684585585619672
 30
0.0
 40
0.25
  1
CONCEPT ONLY
 41
0.75
 51
15.0
  7
LSI_B_CUSTOMER
  0
ENDBLK
  5
16E20
  8
0
  0
BLOCK
  8
0
  2
A$C013A1744
 70
     0
 10
0.0
 20
0.0
 30
0.0
  3
A$C013A1744
  1

  0
INSERT
  5
7490
  8
0
  2
*U15
 10
0.0
 20
0.0
 30
0.0
  0
POLYLINE
  5
7491
  8
TEXT_GREEN
 66
     1
 10
0.0
 20
0.0
 30
0.0
 70
     1
  0
VERTEX
  5
171E2
  8
TEXT_GREEN
 10
-0.8406807221016948
 20
0.0
 30
0.0
  0
VERTEX
  5
171E3
  8
TEXT_GREEN
 10
0.8406807221016948
 20
0.0
 30
0.0
  0
VERTEX
  5
171E4
  8
TEXT_GREEN
 10
0.8406807221016948
 20
-0.5035125816422906
 30
0.0
  0
VERTEX
  5
171E5
  8
TEXT_GREEN
 10
-0.8406807221016948
 20
-0.5035125816422906
 30
0.0
  0
SEQEND
  5
171E6
  8
TEXT_GREEN
  0
ENDBLK
  5
7495
  8
0
  0
BLOCK
  8
0
  2
*U15
 70
     1
 10
0.0
 20
0.0
 30
0.0
  3
*U15
  1

  0
TEXT
  5
16E27
  8
TEXT_GREEN
 10
-0.597232558557865
 20
-0.3684585585619672
 30
0.0
 40
0.25
  1
RECORD
 41
0.75
 51
15.0
  7
LSI_B_CUSTOMER
  0
ENDBLK
  5
16E29
  8
0
  0
BLOCK
  8
0
  2
A$C3B7A0428
 70
     0
 10
0.0
 20
0.0
 30
0.0
  3
A$C3B7A0428
  1

  0
INSERT
  5
7498
  8
0
  2
*U17
 10
0.0
 20
0.0
 30
0.0
  0
POLYLINE
  5
7499
  8
TEXT_GREEN
 66
     1
 10
0.0
 20
0.0
 30
0.0
 70
     1
  0
VERTEX
  5
171E7
  8
TEXT_GREEN
 10
-0.8406807221016948
 20
0.0
 30
0.0
  0
VERTEX
  5
171E8
  8
TEXT_GREEN
 10
0.8406807221016948
 20
0.0
 30
0.0
  0
VERTEX
  5
171E9
  8
TEXT_GREEN
 10
0.8406807221016948
 20
-0.5035125816422906
 30
0.0
  0
VERTEX
  5
171EA
  8
TEXT_GREEN
 10
-0.8406807221016948
 20
-0.5035125816422906
 30
0.0
  0
SEQEND
  5
171EB
  8
TEXT_GREEN
  0
ENDBLK
  5
749D
  8
0
  0
BLOCK
  8
0
  2
*U17
 70
     1
 10
0.0
 20
0.0
 30
0.0
  3
*U17
  1

  0
TEXT
  5
16E30
  8
TEXT_GREEN
 10
-0.7571241535744805
 20
-0.3682880265019399
 30
0.0
 40
0.25
  1
SUBMITTAL
 41
0.75
 51
15.0
  7
LSI_B_CUSTOMER
  0
ENDBLK
  5
16E32
  8
0
  0
BLOCK
  8
0
  2
*U18
 70
     1
 10
0.0
 20
0.0
 30
0.0
  3
*U18
  1

  0
TEXT
  5
16E05
  8
TEXT_GREEN
 10
8.0929277530150951
 20
1.0705607588464841
 30
0.0
 40
0.2
  1
XXXXXXX
 41
0.75
 51
15.0
  7
LSI_B_CUSTOMER
  0
TEXT
  5
16E06
  8
TEXT_GREEN
 10
8.0929277530150951
 20
0.7372274255131519
 30
0.0
 40
0.2
  1
XXXXXXX
 41
0.75
 51
15.0
  7
LSI_B_CUSTOMER
  0
ENDBLK
  5
16E08
  8
0
  0
BLOCK
  8
0
  2
*U19
 70
     1
 10
0.0
 20
0.0
 30
0.0
  3
*U19
  1

  0
TEXT
  5
16E10
  8
TEXT_GREEN
 10
0.0807270097707185
 20
1.6216951024135551
 30
0.0
 40
0.125
  1
NOTE:
 41
0.75
 51
15.0
  7
LSI_B_CUSTOMER
  0
TEXT
  5
16E11
  8
TEXT_GREEN
 10
0.0784887764828604
 20
1.4111448522998671
 30
0.0
 40
0.125
  1
INSTALL PER NEC AND ALL OTHER LOCAL CODES
 41
0.75
 51
15.0
  7
LSI_B_CUSTOMER
  0
ENDBLK
  5
16E13
  8
0
  0
ENDSEC
  0
SECTION
  2
ENTITIES
  0
LINE
  5
13C97
  8
0
 62
     5
 10
0.6903370385546168
 20
3.3048983886398271
 30
0.0
 11
0.691022023494952
 21
3.2656547374525
 31
0.0
  0
LINE
  5
13C98
  8
0
 62
     5
 10
0.8755429316803429
 20
3.2656547374525
 30
0.0
 11
0.8762279317671612
 21
3.3048983886398271
 31
0.0
  0
LINE
  5
13C99
  8
0
 62
     5
 10
0.7115758430154813
 20
3.2656547374525
 30
0.0
 11
0.7127295209947704
 21
3.1995602339951779
 31
0.0
  0
LINE
  5
13C9A
  8
0
 62
     5
 10
0.8538354341805388
 20
3.1995602339951779
 30
0.0
 11
0.8549891197330624
 21
3.2656547374525
 31
0.0
  0
LINE
  5
13C9B
  8
0
 62
     5
 10
0.7381006670517821
 20
3.1995602339951779
 30
0.0
 11
0.7381006670517821
 21
2.0774540441192921
 31
0.0
  0
LINE
  5
13C9C
  8
0
 62
     5
 10
0.8284642956967616
 20
2.0774540441192921
 30
0.0
 11
0.8284642956967616
 21
3.1995602339951779
 31
0.0
  0
LINE
  5
13C9E
  8
0
 62
     5
 10
1.2225679856971821
 20
0.3516015887807953
 30
0.0
 11
1.2225679856971821
 21
1.951461343891054
 31
0.0
  0
LINE
  5
13C9F
  8
0
 62
     5
 10
0.343799678850317
 20
1.951461343891068
 30
0.0
 11
0.343799678850317
 21
0.3516015887807953
 31
0.0
  0
LINE
  5
13CA1
  8
0
 62
     5
 10
1.2272565519078
 20
0.3371433536702284
 30
0.0
 11
0.3391111126396993
 21
0.3371433536702284
 31
0.0
  0
LINE
  5
13CA2
  8
0
 62
     5
 10
0.8755429316803429
 20
3.2656547374525
 30
0.0
 11
0.691022023494952
 21
3.2656547374525
 31
0.0
  0
LINE
  5
13CA3
  8
0
 62
     5
 10
0.8762279317671612
 20
3.3048983886398271
 30
0.0
 11
0.6903370385546168
 21
3.3048983886398271
 31
0.0
  0
LINE
  5
13CA4
  8
0
 62
     5
 10
0.7127295209947704
 20
3.1995602339951779
 30
0.0
 11
0.8538354341805388
 21
3.1995602339951779
 31
0.0
  0
LINE
  5
13CA6
  8
0
 62
     5
 10
1.2019134420068971
 20
1.9721158894746429
 30
0.0
 11
0.3646515207416456
 21
1.9721158894746429
 31
0.0
  0
LINE
  5
13F21
  8
0
 62
     5
 10
1.2272565519078
 20
0.3371433536702284
 30
0.0
 11
1.2272565519078
 21
0.3516015887807953
 31
0.0
  0
LINE
  5
13F26
  8
0
 62
     5
 10
1.2272565519078
 20
0.3516015887807953
 30
0.0
 11
1.2225679856971821
 21
0.3516015887807953
 31
0.0
  0
LINE
  5
13F27
  8
0
 62
     5
 10
0.3391111126396993
 20
0.3516015887807953
 30
0.0
 11
0.3391111126396993
 21
0.3371433536702284
 31
0.0
  0
LINE
  5
13F38
  8
0
 62
     5
 10
0.7569787904366195
 20
0.3371433536702355
 30
0.0
 11
0.4454434829990817
 21
0.3371433536702284
 31
0.0
  0
LINE
  5
140FD
  8
0
 62
     5
 10
1.2225679856971821
 20
1.951461343891054
 30
0.0
 11
1.2225679856971821
 21
0.3516015887807953
 31
0.0
  0
LINE
  5
140FE
  8
0
 62
     5
 10
0.343799678850317
 20
0.3516015887807953
 30
0.0
 11
0.343799678850317
 21
1.9514613438910751
 31
0.0
  0
ARC
  5
14104
  8
0
 62
     5
 10
1.201913432273741
 20
1.9514613440200961
 30
0.0
 40
0.0206545454545456
 50
0.0000000000008142
 51
90.000000000013856
  0
ARC
  5
14106
  8
0
 62
     5
 10
0.3645550914949354
 20
1.9513604556345781
 30
0.0
 40
0.0207556578428379
 50
89.733807101605692
 51
179.7214979113237
  0
LINE
  5
14145
  8
0
 62
     5
 10
0.3391111126396993
 20
0.3516015887807953
 30
0.0
 11
0.343799678850317
 21
0.3516015887807953
 31
0.0
  0
LINE
  5
170FD
  8
0
 62
     5
 10
0.6903370385546168
 20
1.9721158894746429
 30
0.0
 11
0.691022023494952
 21
2.0113595406619629
 31
0.0
  0
LINE
  5
170FE
  8
0
 62
     5
 10
0.8755429316803429
 20
2.0113595406619629
 30
0.0
 11
0.8762279317671612
 21
1.9721158894746429
 31
0.0
  0
LINE
  5
170FF
  8
0
 62
     5
 10
0.7115758430154813
 20
2.0113595406619629
 30
0.0
 11
0.7127295209947704
 21
2.0774540441192921
 31
0.0
  0
LINE
  5
17100
  8
0
 62
     5
 10
0.8538354341805388
 20
2.0774540441192921
 30
0.0
 11
0.8549891197330624
 21
2.0113595406619629
 31
0.0
  0
LINE
  5
17101
  8
0
 62
     5
 10
0.8755429316803429
 20
2.0113595406619629
 30
0.0
 11
0.691022023494952
 21
2.0113595406619629
 31
0.0
  0
LINE
  5
17102
  8
0
 62
     5
 10
0.8762279317671612
 20
1.9721158894746429
 30
0.0
 11
0.6903370385546168
 21
1.9721158894746429
 31
0.0
  0
LINE
  5
17103
  8
0
 62
     5
 10
0.7127295209947704
 20
2.0774540441192921
 30
0.0
 11
0.8538354341805388
 21
2.0774540441192921
 31
0.0
  0
TEXT
  5
171A4
  8
0
 62
     5
 10
1.6883924973558551
 20
1.089031466335924
 30
0.0
 40
0.125
  1
LX2048
 41
0.7500000000000002
 51
15.0
  7
P125
 72
     2
 11
2.1839282116415699
 21
1.151531466335924
 31
0.0
 73
     2
  0
VIEWPORT
  5
2E
 67
     1
  8
0
 10
8.0202734371368436
 20
6.529423632453927
 30
0.0
 40
21.81083855549188
 41
12.65783523090659
 68
     1
 69
     1
1001
ACAD
1000
MVIEW
1002
{
1070
    16
1010
0.0
1020
0.0
1030
0.0
1010
0.0
1020
0.0
1030
1.0
1040
0.0
1040
12.65783523090659
1040
8.0202734371368436
1040
6.529423632453927
1040
50.0
1040
0.0
1040
0.0
1070
     0
1070
  1000
1070
     1
1070
     0
1070
     0
1070
     0
1070
     0
1070
     0
1040
0.0
1040
0.0
1040
0.0
1040
0.5
1040
0.5
1040
0.5
1040
0.5
1070
     0
1002
{
1002
}
1002
}
  0
LINE
  5
301E
 67
     1
  8
BORDER_BLUE-DON_T_USE
 10
0.0246916411202209
 20
0.2418232285715362
 30
0.0
 11
0.0246916411202209
 21
10.24176838194118
 31
0.0
  0
LINE
  5
301F
 67
     1
  8
BORDER_BLUE-DON_T_USE
 10
0.0246916411202209
 20
10.24176838194118
 30
0.0
 11
16.02469164112021
 21
10.24176838194118
 31
0.0
  0
LINE
  5
3020
 67
     1
  8
BORDER_BLUE-DON_T_USE
 10
16.02469164112021
 20
0.2418232285715335
 30
0.0
 11
0.0246916411202209
 21
0.2418232285715367
 31
0.0
  0
LINE
  5
3021
 67
     1
  8
BORDER_BLUE-DON_T_USE
 10
16.02469164112021
 20
0.2418232285715335
 30
0.0
 11
16.02469164112021
 21
10.24176838194118
 31
0.0
  0
POINT
  5
3A32
 67
     1
  8
HATCH-BLUE
 10
0.0246916411202207
 20
10.24176838194118
 30
0.0
  0
POINT
  5
3A33
 67
     1
  8
CENTER_LINE-RED
 10
0.0246916411202209
 20
10.24176838194118
 30
0.0
  0
INSERT
  5
3BC6
 67
     1
  8
0
  2
A$C5FB205A1
 10
0.3318327275021022
 20
10.27122532415501
 30
0.0
  0
VIEWPORT
  5
5AB1
 67
     1
  8
0
 10
8.0246916411202136
 20
5.80429580525636
 30
0.0
 40
15.99999999999998
 41
8.8749451533696408
 68
     2
 69
     2
1001
ACAD
1000
MVIEW
1002
{
1070
    16
1010
0.0
1020
0.0
1030
0.0
1010
0.0
1020
0.0
1030
1.0
1040
0.0
1040
150.46617072769831
1040
-133.10207902414911
1040
10.78333435210244
1040
50.0
1040
0.0
1040
0.0
1070
     0
1070
  1000
1070
     1
1070
     0
1070
     0
1070
     0
1070
     0
1070
     0
1040
0.0
1040
0.0
1040
0.0
1040
0.5
1040
0.5
1040
0.5
1040
0.5
1070
     0
1002
{
1002
}
1002
}
  0
INSERT
  5
697D
 67
     1
  8
0
 66
     1
  2
A$C6EE9597A
 10
10.89725156496338
 20
10.24176838194118
 30
0.0
  0
ATTRIB
  5
697E
 67
     1
  8
0
 62
     3
 10
13.10304833181546
 20
9.8845370351744926
 30
0.0
 40
0.095
  1

 41
0.7500000000000001
 51
15.0
  7
GERRY
  2
DESCRIPTION
 70
     0
  0
ATTRIB
  5
697F
 67
     1
  8
0
 62
     3
 10
12.905457342409781
 20
9.886565960257359
 30
0.0
 40
0.095
  1

 41
0.7500000000000001
 51
15.0
  7
GERRY
 72
     1
 11
12.905457342409781
 21
9.886565960257359
 31
0.0
  2
APP
 70
     0
  0
ATTRIB
  5
6980
 67
     1
  8
0
 62
     3
 10
12.36494455051219
 20
9.8880018172074742
 30
0.0
 40
0.095
  1

 41
0.7500000000000001
 51
15.0
  7
GERRY
 72
     1
 11
12.36494455051219
 21
9.8880018172074742
 31
0.0
  2
DATE
 70
     0
  0
ATTRIB
  5
6981
 67
     1
  8
0
 62
     3
 10
11.87318325272925
 20
9.8890170991395703
 30
0.0
 40
0.095
  1

 41
0.7500000000000001
 51
15.0
  7
GERRY
 72
     1
 11
11.87318325272925
 21
9.8890170991395703
 31
0.0
  2
BY
 70
     0
  0
ATTRIB
  5
6982
 67
     1
  8
0
 62
     3
 10
11.446858774420701
 20
9.8875780601862822
 30
0.0
 40
0.095
  1

 41
0.7500000000000001
 51
15.0
  7
GERRY
 72
     1
 11
11.446858774420701
 21
9.8875780601862822
 31
0.0
  2
ECO000
 70
     0
  0
ATTRIB
  5
6983
 67
     1
  8
0
 62
     3
 10
11.03601236891693
 20
9.8882118157026326
 30
0.0
 40
0.095
  1

 41
0.7500000000000001
 51
15.0
  7
GERRY
 72
     1
 11
11.03601236891693
 21
9.8882118157026326
 31
0.0
  2
REV
 70
     0
  0
SEQEND
  5
6984
 67
     1
  8
0
  0
INSERT
  5
6985
 67
     1
  8
0
 66
     1
  2
A$C600D094D
 10
5.2521197561889901
 20
9.8417683819411845
 30
0.0
  0
ATTRIB
  5
6986
 67
     1
  8
0
 62
     3
 10
5.3908805601425467
 20
9.6882118157026351
 30
0.0
 40
0.095
  1

 41
0.7500000000000001
 51
15.0
  7
GERRY
 72
     1
 11
5.3908805601425467
 21
9.6882118157026351
 31
0.0
  2
REV
 70
     0
  0
ATTRIB
  5
6987
 67
     1
  8
0
 62
     3
 10
5.8017269656463091
 20
9.6875780601862864
 30
0.0
 40
0.095
  1

 41
0.7500000000000001
 51
15.0
  7
GERRY
 72
     1
 11
5.8017269656463091
 21
9.6875780601862864
 31
0.0
  2
ECO000
 70
     0
  0
ATTRIB
  5
6988
 67
     1
  8
0
 62
     3
 10
6.2280514439548611
 20
9.6890170991395781
 30
0.0
 40
0.095
  1

 41
0.7500000000000001
 51
15.0
  7
GERRY
 72
     1
 11
6.2280514439548611
 21
9.6890170991395781
 31
0.0
  2
BY
 70
     0
  0
ATTRIB
  5
6989
 67
     1
  8
0
 62
     3
 10
6.7198127417378011
 20
9.6880018172074855
 30
0.0
 40
0.095
  1

 41
0.7500000000000001
 51
15.0
  7
GERRY
 72
     1
 11
6.7198127417378011
 21
9.6880018172074855
 31
0.0
  2
DATE
 70
     0
  0
ATTRIB
  5
698A
 67
     1
  8
0
 62
     3
 10
7.2603255336353909
 20
9.6865659602573668
 30
0.0
 40
0.095
  1

 41
0.7500000000000001
 51
15.0
  7
GERRY
 72
     1
 11
7.2603255336353909
 21
9.6865659602573668
 31
0.0
  2
CHK
 70
     0
  0
ATTRIB
  5
698B
 67
     1
  8
0
 62
     3
 10
7.4579165230410753
 20
9.6845370351744986
 30
0.0
 40
0.095
  1

 41
0.7500000000000001
 51
15.0
  7
GERRY
  2
DESCRIPTION
 70
     0
  0
SEQEND
  5
698C
 67
     1
  8
0
  0
INSERT
  5
69FE
 67
     1
  8
0
  2
*U18
 10
0.0
 20
0.0
 30
0.0
  0
INSERT
  5
6AD3
 67
     1
  8
0
 66
     1
  2
A$C679F6DC7
 10
16.02469164112021
 20
0.2418232285715335
 30
0.0
  0
ATTRIB
  5
6AD4
 67
     1
  8
TEXT_GREEN
 10
13.946441641120209
 20
1.1852595740809491
 30
0.0
 40
0.125
  1

 41
0.75
 51
15.0
  7
P125
 72
     1
 11
13.946441641120209
 21
1.1852595740809491
 31
0.0
  2
TOP
 70
     0
  0
ATTRIB
  5
6AD5
 67
     1
  8
TEXT_GREEN
 10
15.83342040858469
 20
0.3091464641115575
 30
0.0
 40
0.125
  1

 41
0.75
 51
15.0
  7
P125
 72
     1
 11
15.83342040858469
 21
0.3091464641115575
 31
0.0
  2
~
 70
     0
  0
ATTRIB
  5
6AD6
 67
     1
  8
TEXT_GREEN
 10
14.42138614284784
 20
0.3091464641115571
 30
0.0
 40
0.125
  1

 41
0.75
 51
15.0
  7
P125
 72
     1
 11
14.42138614284784
 21
0.3091464641115571
 31
0.0
  2
S2-00000
 70
     0
  0
ATTRIB
  5
6AD7
 67
     1
  8
TEXT_GREEN
 10
12.76427401455318
 20
0.3069431609751987
 30
0.0
 40
0.125
  1

 41
0.75
 51
15.0
  7
P125
 72
     1
 11
12.76427401455318
 21
0.3069431609751987
 31
0.0
  2
SHT1OF1
 70
     0
  0
ATTRIB
  5
6AD8
 67
     1
  8
TEXT_GREEN
 10
11.200379135191559
 20
0.9260248126737128
 30
0.0
 40
0.125
  1

 41
0.75
 51
15.0
  7
P125
 72
     1
 11
11.200379135191559
 21
0.9260248126737128
 31
0.0
  2
TYPE
 70
     0
  0
ATTRIB
  5
6AD9
 67
     1
  8
TEXT_GREEN
 10
11.299117201372271
 20
0.3091464641115571
 30
0.0
 40
0.125
  1

 41
0.75
 51
15.0
  7
P125
 72
     1
 11
11.299117201372271
 21
0.3091464641115571
 31
0.0
  2
12/12/04
 70
     0
  0
ATTRIB
  5
6ADA
 67
     1
  8
TEXT_GREEN
 10
12.11495380304399
 20
0.3091464641115571
 30
0.0
 40
0.125
  1

 41
0.75
 51
15.0
  7
P125
 72
     1
 11
12.11495380304399
 21
0.3091464641115571
 31
0.0
  2
SCALE
 70
     0
  0
ATTRIB
  5
6ADB
 67
     1
  8
TEXT_GREEN
 10
13.946441641120209
 20
0.9267861510923761
 30
0.0
 40
0.125
  1

 41
0.75
 51
15.0
  7
P125
 72
     1
 11
13.946441641120209
 21
0.9267861510923761
 31
0.0
  2
MIDDLE
 70
     0
  0
ATTRIB
  5
6ADC
 67
     1
  8
TEXT_GREEN
 10
13.946441641120209
 20
0.6669337983282527
 30
0.0
 40
0.125
  1

 41
0.75
 51
15.0
  7
P125
 72
     1
 11
13.946441641120209
 21
0.6669337983282527
 31
0.0
  2
BOTTOM
 70
     0
  0
ATTRIB
  5
6ADD
 67
     1
  8
TEXT_GREEN
 10
10.109586817067459
 20
0.3091464641115571
 30
0.0
 40
0.125
  1

 41
0.75
 51
15.0
  7
P125
 72
     1
 11
10.109586817067459
 21
0.3091464641115571
 31
0.0
  2
VG
 70
     0
  0
ATTRIB
  5
6ADE
 67
     1
  8
TEXT_GREEN
 10
9.3323923118828027
 20
0.3091464641115571
 30
0.0
 40
0.125
  1

 41
0.75
 51
15.0
  7
P125
 72
     1
 11
9.3323923118828027
 21
0.3091464641115571
 31
0.0
  2
12/12/04
 70
     0
  0
ATTRIB
  5
6ADF
 67
     1
  8
TEXT_GREEN
 10
7.9719686209994309
 20
0.3089764934572698
 30
0.0
 40
0.125
  1

 41
0.75
 51
15.0
  7
P125
 72
     1
 11
7.9719686209994309
 21
0.3089764934572698
 31
0.0
  2
VG
 70
     0
  0
SEQEND
  5
6AE0
 67
     1
  8
0
  0
INSERT
  5
6F0E
 67
     1
  8
0
  2
STICKER_2008
 10
0.0246916411202209
 20
0.2418232285715363
 30
0.0
  0
TEXT
  5
709C
 67
     1
  8
TEXT_GREEN
 10
13.13268967357218
 20
2.983981649510028
 30
0.0
 40
0.125
  1
%%UCATALOG NUMBER    FINISH%%u 
 41
0.75
 51
15.0
  7
LSI_B_CUSTOMER
  0
TEXT
  5
709D
 67
     1
  8
TEXT_GREEN
 10
13.016828042422359
 20
3.2672634759903101
 30
0.0
 40
0.1875
  1
%%UPLEASE ADVISE FINISH
 41
0.75
 51
15.0
  7
LSI_B_CUSTOMER
  0
TEXT
  5
709E
 67
     1
  8
TEXT_GREEN
 10
13.3847699135155
 20
2.746154144487488
 30
0.0
 40
0.125
  1
238-00B               
 41
0.75
 51
15.0
  7
LSI_B_CUSTOMER
  0
LINE
  5
709F
 67
     1
  8
TEXT_GREEN
 10
13.14140463310919
 20
2.8548859016973549
 30
0.0
 11
13.14140463310919
 21
2.7613859016973561
 31
0.0
  0
LINE
  5
70A0
 67
     1
  8
TEXT_GREEN
 10
13.23490463310919
 20
2.8548859016973549
 30
0.0
 11
13.23490463310919
 21
2.7613859016973561
 31
0.0
  0
LINE
  5
70A1
 67
     1
  8
TEXT_GREEN
 10
13.23490463310919
 20
2.7613859016973561
 30
0.0
 11
13.14140463310919
 21
2.7613859016973561
 31
0.0
  0
LINE
  5
70A2
 67
     1
  8
TEXT_GREEN
 10
13.23490463310919
 20
2.8548859016973549
 30
0.0
 11
13.14140463310919
 21
2.8548859016973549
 31
0.0
  0
TEXT
  5
70A3
 67
     1
  8
TEXT_GREEN
 10
13.3847699135155
 20
2.5341541444874882
 30
0.0
 40
0.125
  1
238-00W             
 41
0.75
 51
15.0
  7
LSI_B_CUSTOMER
  0
LINE
  5
70A4
 67
     1
  8
TEXT_GREEN
 10
13.14140463310919
 20
2.642885901697356
 30
0.0
 11
13.14140463310919
 21
2.549385901697355
 31
0.0
  0
LINE
  5
70A5
 67
     1
  8
TEXT_GREEN
 10
13.23490463310919
 20
2.642885901697356
 30
0.0
 11
13.23490463310919
 21
2.549385901697355
 31
0.0
  0
LINE
  5
70A6
 67
     1
  8
TEXT_GREEN
 10
13.23490463310919
 20
2.549385901697355
 30
0.0
 11
13.14140463310919
 21
2.549385901697355
 31
0.0
  0
LINE
  5
70A7
 67
     1
  8
TEXT_GREEN
 10
13.23490463310919
 20
2.642885901697356
 30
0.0
 11
13.14140463310919
 21
2.642885901697356
 31
0.0
  0
TEXT
  5
70A8
 67
     1
  8
TEXT_GREEN
 10
13.3847699135155
 20
2.322154144487488
 30
0.0
 40
0.125
  1
238-00S              
 41
0.75
 51
15.0
  7
LSI_B_CUSTOMER
  0
LINE
  5
70A9
 67
     1
  8
TEXT_GREEN
 10
13.14140463310919
 20
2.430885901697355
 30
0.0
 11
13.14140463310919
 21
2.337385901697357
 31
0.0
  0
LINE
  5
70AA
 67
     1
  8
TEXT_GREEN
 10
13.23490463310919
 20
2.430885901697355
 30
0.0
 11
13.23490463310919
 21
2.337385901697357
 31
0.0
  0
LINE
  5
70AB
 67
     1
  8
TEXT_GREEN
 10
13.23490463310919
 20
2.337385901697357
 30
0.0
 11
13.14140463310919
 21
2.337385901697357
 31
0.0
  0
LINE
  5
70AC
 67
     1
  8
TEXT_GREEN
 10
13.23490463310919
 20
2.430885901697355
 30
0.0
 11
13.14140463310919
 21
2.430885901697355
 31
0.0
  0
TEXT
  5
70B2
 67
     1
  8
TEXT_GREEN
 10
14.497157214878429
 20
2.746154144487488
 30
0.0
 40
0.125
  1
BLACK
 41
0.75
 51
15.0
  7
LSI_B_CUSTOMER
  0
TEXT
  5
70B3
 67
     1
  8
TEXT_GREEN
 10
14.497157214878429
 20
2.5341541444874882
 30
0.0
 40
0.125
  1
WHITE
 41
0.75
 51
15.0
  7
LSI_B_CUSTOMER
  0
TEXT
  5
70B4
 67
     1
  8
TEXT_GREEN
 10
14.497157214878429
 20
2.322154144487488
 30
0.0
 40
0.125
  1
SILVER
 41
0.75
 51
15.0
  7
LSI_B_CUSTOMER
  0
TEXT
  5
70B7
 67
     1
  8
TEXT_GREEN
 10
7.049438561640061
 20
3.7625709193246371
 30
0.0
 40
0.125
  1
%%UNOMINAL INPUT VOLTAGE%%U 
 41
0.75
 51
15.0
  7
LSI_B_CUSTOMER
  0
TEXT
  5
70B8
 67
     1
  8
TEXT_GREEN
 10
6.6885449880677088
 20
4.04585274580492
 30
0.0
 40
0.1875
  1
%%UPLEASE ADVISE VOLTAGE
 41
0.75
 51
15.0
  7
LSI_B_CUSTOMER
  0
TEXT
  5
70B9
 67
     1
  8
TEXT_GREEN
 10
7.8188106829708861
 20
3.524743414302097
 30
0.0
 40
0.125
  1
120V
 41
0.75
 51
15.0
  7
LSI_B_CUSTOMER
  0
LINE
  5
70BA
 67
     1
  8
TEXT_GREEN
 10
7.575445402564581
 20
3.6334751715119662
 30
0.0
 11
7.575445402564581
 21
3.5399751715119661
 31
0.0
  0
LINE
  5
70BB
 67
     1
  8
TEXT_GREEN
 10
7.668945402564578
 20
3.6334751715119662
 30
0.0
 11
7.668945402564578
 21
3.5399751715119661
 31
0.0
  0
LINE
  5
70BC
 67
     1
  8
TEXT_GREEN
 10
7.668945402564578
 20
3.5399751715119661
 30
0.0
 11
7.575445402564581
 21
3.5399751715119661
 31
0.0
  0
LINE
  5
70BD
 67
     1
  8
TEXT_GREEN
 10
7.668945402564578
 20
3.6334751715119662
 30
0.0
 11
7.575445402564581
 21
3.6334751715119662
 31
0.0
  0
TEXT
  5
70BE
 67
     1
  8
TEXT_GREEN
 10
7.8188106829708861
 20
3.3127434143020982
 30
0.0
 40
0.125
  1
230V             
 41
0.75
 51
15.0
  7
LSI_B_CUSTOMER
  0
LINE
  5
70BF
 67
     1
  8
TEXT_GREEN
 10
7.575445402564581
 20
3.421475171511966
 30
0.0
 11
7.575445402564581
 21
3.327975171511965
 31
0.0
  0
LINE
  5
70C0
 67
     1
  8
TEXT_GREEN
 10
7.668945402564578
 20
3.421475171511966
 30
0.0
 11
7.668945402564578
 21
3.327975171511965
 31
0.0
  0
LINE
  5
70C1
 67
     1
  8
TEXT_GREEN
 10
7.668945402564578
 20
3.327975171511965
 30
0.0
 11
7.575445402564581
 21
3.327975171511965
 31
0.0
  0
LINE
  5
70C2
 67
     1
  8
TEXT_GREEN
 10
7.668945402564578
 20
3.421475171511966
 30
0.0
 11
7.575445402564581
 21
3.421475171511966
 31
0.0
  0
TEXT
  5
70C3
 67
     1
  8
TEXT_GREEN
 10
7.8188106829708861
 20
3.1007434143020962
 30
0.0
 40
0.125
  1
277V              
 41
0.75
 51
15.0
  7
LSI_B_CUSTOMER
  0
LINE
  5
70C4
 67
     1
  8
TEXT_GREEN
 10
7.575445402564581
 20
3.2094751715119649
 30
0.0
 11
7.575445402564581
 21
3.1159751715119661
 31
0.0
  0
LINE
  5
70C5
 67
     1
  8
TEXT_GREEN
 10
7.668945402564578
 20
3.2094751715119649
 30
0.0
 11
7.668945402564578
 21
3.1159751715119661
 31
0.0
  0
LINE
  5
70C6
 67
     1
  8
TEXT_GREEN
 10
7.668945402564578
 20
3.1159751715119661
 30
0.0
 11
7.575445402564581
 21
3.1159751715119661
 31
0.0
  0
LINE
  5
70C7
 67
     1
  8
TEXT_GREEN
 10
7.668945402564578
 20
3.2094751715119649
 30
0.0
 11
7.575445402564581
 21
3.2094751715119649
 31
0.0
  0
TEXT
  5
70C8
 67
     1
  8
TEXT_GREEN
 10
9.8937339442267849
 20
3.7625709193246371
 30
0.0
 40
0.125
  1
%%UNOMINAL OUTPUT WATTAGE%%U 
 41
0.75
 51
15.0
  7
LSI_B_CUSTOMER
  0
TEXT
  5
70C9
 67
     1
  8
TEXT_GREEN
 10
9.5328403706544318
 20
4.04585274580492
 30
0.0
 40
0.1875
  1
%%UPLEASE ADVISE WATTAGE
 41
0.75
 51
15.0
  7
LSI_B_CUSTOMER
  0
TEXT
  5
70CA
 67
     1
  8
TEXT_GREEN
 10
10.66310606555761
 20
3.524743414302097
 30
0.0
 40
0.125
  1
39W
 41
0.75
 51
15.0
  7
LSI_B_CUSTOMER
  0
LINE
  5
70CB
 67
     1
  8
TEXT_GREEN
 10
10.4197407851513
 20
3.6334751715119662
 30
0.0
 11
10.4197407851513
 21
3.5399751715119661
 31
0.0
  0
LINE
  5
70CC
 67
     1
  8
TEXT_GREEN
 10
10.5132407851513
 20
3.6334751715119662
 30
0.0
 11
10.5132407851513
 21
3.5399751715119661
 31
0.0
  0
LINE
  5
70CD
 67
     1
  8
TEXT_GREEN
 10
10.5132407851513
 20
3.5399751715119661
 30
0.0
 11
10.4197407851513
 21
3.5399751715119661
 31
0.0
  0
LINE
  5
70CE
 67
     1
  8
TEXT_GREEN
 10
10.5132407851513
 20
3.6334751715119662
 30
0.0
 11
10.4197407851513
 21
3.6334751715119662
 31
0.0
  0
TEXT
  5
70CF
 67
     1
  8
TEXT_GREEN
 10
10.66310606555761
 20
3.3127434143020982
 30
0.0
 40
0.125
  1
70W             
 41
0.75
 51
15.0
  7
LSI_B_CUSTOMER
  0
LINE
  5
70D0
 67
     1
  8
TEXT_GREEN
 10
10.4197407851513
 20
3.421475171511966
 30
0.0
 11
10.4197407851513
 21
3.327975171511965
 31
0.0
  0
LINE
  5
70D1
 67
     1
  8
TEXT_GREEN
 10
10.5132407851513
 20
3.421475171511966
 30
0.0
 11
10.5132407851513
 21
3.327975171511965
 31
0.0
  0
LINE
  5
70D2
 67
     1
  8
TEXT_GREEN
 10
10.5132407851513
 20
3.327975171511965
 30
0.0
 11
10.4197407851513
 21
3.327975171511965
 31
0.0
  0
LINE
  5
70D3
 67
     1
  8
TEXT_GREEN
 10
10.5132407851513
 20
3.421475171511966
 30
0.0
 11
10.4197407851513
 21
3.421475171511966
 31
0.0
  0
LINE
  5
70D4
 67
     1
  8
TEXT_GREEN
 10
10.4197407851513
 20
3.2094751715119649
 30
0.0
 11
10.4197407851513
 21
3.1159751715119661
 31
0.0
  0
LINE
  5
70D5
 67
     1
  8
TEXT_GREEN
 10
10.5132407851513
 20
3.2094751715119649
 30
0.0
 11
10.5132407851513
 21
3.1159751715119661
 31
0.0
  0
LINE
  5
70D6
 67
     1
  8
TEXT_GREEN
 10
10.5132407851513
 20
3.1159751715119661
 30
0.0
 11
10.4197407851513
 21
3.1159751715119661
 31
0.0
  0
LINE
  5
70D7
 67
     1
  8
TEXT_GREEN
 10
10.5132407851513
 20
3.2094751715119649
 30
0.0
 11
10.4197407851513
 21
3.2094751715119649
 31
0.0
  0
TEXT
  5
70D8
 67
     1
  8
TEXT_GREEN
 10
10.66310606555761
 20
3.1007434143020962
 30
0.0
 40
0.125
  1
100W
 41
0.75
 51
15.0
  7
LSI_B_CUSTOMER
  0
LINE
  5
70D9
 67
     1
  8
TEXT_GREEN
 10
10.4197407851513
 20
3.2094751715119649
 30
0.0
 11
10.4197407851513
 21
3.1159751715119661
 31
0.0
  0
LINE
  5
70DA
 67
     1
  8
TEXT_GREEN
 10
10.5132407851513
 20
3.2094751715119649
 30
0.0
 11
10.5132407851513
 21
3.1159751715119661
 31
0.0
  0
LINE
  5
70DB
 67
     1
  8
TEXT_GREEN
 10
10.5132407851513
 20
3.1159751715119661
 30
0.0
 11
10.4197407851513
 21
3.1159751715119661
 31
0.0
  0
LINE
  5
70DC
 67
     1
  8
TEXT_GREEN
 10
10.5132407851513
 20
3.2094751715119649
 30
0.0
 11
10.4197407851513
 21
3.2094751715119649
 31
0.0
  0
LINE
  5
70DD
 67
     1
  8
TEXT_GREEN
 10
10.4197407851513
 20
2.9974751715119661
 30
0.0
 11
10.4197407851513
 21
2.9039751715119682
 31
0.0
  0
LINE
  5
70DE
 67
     1
  8
TEXT_GREEN
 10
10.5132407851513
 20
2.9974751715119661
 30
0.0
 11
10.5132407851513
 21
2.9039751715119682
 31
0.0
  0
LINE
  5
70DF
 67
     1
  8
TEXT_GREEN
 10
10.5132407851513
 20
2.9039751715119682
 30
0.0
 11
10.4197407851513
 21
2.9039751715119682
 31
0.0
  0
LINE
  5
70E0
 67
     1
  8
TEXT_GREEN
 10
10.5132407851513
 20
2.9974751715119661
 30
0.0
 11
10.4197407851513
 21
2.9974751715119661
 31
0.0
  0
TEXT
  5
70E1
 67
     1
  8
TEXT_GREEN
 10
10.66310606555761
 20
2.8887434143021
 30
0.0
 40
0.125
  1
150W
 41
0.75
 51
15.0
  7
LSI_B_CUSTOMER
  0
INSERT
  5
70E5
 67
     1
  8
0
  2
*U19
 10
0.0
 20
0.0
 30
0.0
  0
TEXT
  5
70E6
 67
     1
  8
TEXT_GREEN
 10
11.916559597578649
 20
2.9536564708451301
 30
0.0
 40
0.125
  1
%%UFINISH%%U 
 41
0.75
 51
15.0
  7
LSI_B_CUSTOMER
  0
LINE
  5
70E7
 67
     1
  8
TEXT_GREEN
 10
11.847316348829709
 20
2.8245607230324561
 30
0.0
 11
11.847316348829709
 21
2.731060723032456
 31
0.0
  0
LINE
  5
70E8
 67
     1
  8
TEXT_GREEN
 10
11.94081634882971
 20
2.8245607230324561
 30
0.0
 11
11.94081634882971
 21
2.731060723032456
 31
0.0
  0
LINE
  5
70E9
 67
     1
  8
TEXT_GREEN
 10
11.94081634882971
 20
2.731060723032456
 30
0.0
 11
11.847316348829709
 21
2.731060723032456
 31
0.0
  0
LINE
  5
70EA
 67
     1
  8
TEXT_GREEN
 10
11.94081634882971
 20
2.8245607230324561
 30
0.0
 11
11.847316348829709
 21
2.8245607230324561
 31
0.0
  0
TEXT
  5
70EB
 67
     1
  8
TEXT_GREEN
 10
12.00371222808368
 20
2.71582896582259
 30
0.0
 40
0.125
  1
BLACK
 41
0.75
 51
15.0
  7
LSI_B_CUSTOMER
  0
TEXT
  5
7103
 67
     1
  8
TEXT_GREEN
 10
12.303944394128751
 20
1.561946129311474
 30
0.0
 40
0.1875
  1
%%UORDER PART NUMBER: #XXXXX
 41
0.75
 51
15.0
  7
LSI_B_CUSTOMER
  0
TEXT
  5
7104
 67
     1
  8
TEXT_GREEN
 10
12.303944394128751
 20
1.934686608336968
 30
0.0
 40
0.1875
  1
%%UCONCEPT PART NUMBER: #XXXXX
 41
0.75
 51
15.0
  7
LSI_B_CUSTOMER
  0
INSERT
  5
744A
 67
     1
  8
0
 66
     1
  2
A$C37264E1E
 10
5.0812983758115688
 20
9.2315889902783113
 30
0.0
  0
ATTRIB
  5
744B
 67
     1
  8
0
 62
     3
 10
5.7267713311494486
 20
8.6343784159417822
 30
0.0
 40
0.095
  1

 41
0.7500000000000001
 51
15.0
  7
GERRY
 72
     1
 11
5.7267713311494486
 21
8.6818784159417817
 31
0.0
  2
XXXX
 70
     0
 74
     2
1001
ACADANNOTATIVE
1000
AnnotativeData
1002
{
1070
     1
1070
     0
1002
}
  0
ATTRIB
  5
744F
 67
     1
  8
0
 62
     3
 10
5.3271882126021932
 20
8.6343784159417822
 30
0.0
 40
0.095
  1

 41
0.7500000000000001
 51
15.0
  7
GERRY
 72
     1
 11
5.3271882126021932
 21
8.6818784159417817
 31
0.0
  2
REV
 70
     0
 74
     2
  0
ATTRIB
  5
7450
 67
     1
  8
0
 62
     3
 10
6.1604641748397357
 20
8.6343784159417822
 30
0.0
 40
0.095
  1

 41
0.7500000000000001
 51
15.0
  7
GERRY
 72
     1
 11
6.1604641748397357
 21
8.6818784159417817
 31
0.0
  2
BY
 70
     0
 74
     2
  0
ATTRIB
  5
7451
 67
     1
  8
0
 62
     3
 10
7.1907869707767906
 20
8.6343784159417822
 30
0.0
 40
0.095
  1

 41
0.7500000000000001
 51
15.0
  7
GERRY
 72
     1
 11
7.1907869707767906
 21
8.6818784159417817
 31
0.0
  2
APP
 70
     0
 74
     2
  0
ATTRIB
  5
7452
 67
     1
  8
0
 62
     3
 10
6.658779964095153
 20
8.6343784159417822
 30
0.0
 40
0.095
  1

 41
0.7500000000000001
 51
15.0
  7
GERRY
 72
     1
 11
6.658779964095153
 21
8.6818784159417817
 31
0.0
  2
TODAYS
 70
     0
 74
     2
  0
ATTRIB
  5
7453
 67
     1
  8
0
 62
     3
 10
7.3945882680125292
 20
8.7307831152326933
 30
0.0
 40
0.095
  1

 41
0.7500000000000001
 51
15.0
  7
GERRY
  2
DESCRTOP
 70
     0
  0
ATTRIB
  5
7454
 67
     1
  8
0
 62
     3
 10
7.3945882680125292
 20
8.5402773915177121
 30
0.0
 40
0.095
  1

 41
0.7500000000000001
 51
15.0
  7
GERRY
  2
DESCRBOT
 70
     0
  0
SEQEND
  5
7455
 67
     1
  8
0
  0
INSERT
  5
7486
 67
     1
  8
0
  2
A$C43C70115
 10
4.5769542409549091
 20
1.9933172683215581
 30
0.0
  0
INSERT
  5
748E
 67
     1
  8
0
  2
A$C67EC16EC
 10
6.9662361149591732
 20
2.0016656545664362
 30
0.0
  0
INSERT
  5
7496
 67
     1
  8
0
  2
A$C013A1744
 10
9.2134976820813961
 20
2.0183624270561831
 30
0.0
  0
INSERT
  5
749E
 67
     1
  8
0
  2
A$C3B7A0428
 10
11.134948126845501
 20
2.0434075857908041
 30
0.0
  0
ENDSEC
  0
EOF
