  0
SECTION
  2
HEADER
  9
$ACADVER
  1
AC1009
  9
$INSBASE
 10
0.0
 20
0.0
 30
0.0
  9
$EXTMIN
 10
0.4010315737698989
 20
0.1889954127708933
 30
-0.0015258207003583
  9
$EXTMAX
 10
2.284271282474819
 20
2.1477661413929559
 30
0.0000000349246037
  9
$LIMMIN
 10
0.0
 20
0.0
  9
$LIMMAX
 10
34.0
 20
22.0
  9
$ORTHOMODE
 70
     1
  9
$REGENMODE
 70
     1
  9
$FILLMODE
 70
     1
  9
$QTEXTMODE
 70
     0
  9
$MIRRTEXT
 70
     1
  9
$DRAGMODE
 70
     2
  9
$LTSCALE
 40
1.0
  9
$OSMODE
 70
     1
  9
$ATTMODE
 70
     1
  9
$TEXTSIZE
 40
0.12
  9
$TRACEWID
 40
0.05
  9
$TEXTSTYLE
  7
STANDARD
  9
$CLAYER
  8
0
  9
$CELTYPE
  6
BYLAYER
  9
$CECOLOR
 62
   256
  9
$DIMSCALE
 40
1.0
  9
$DIMASZ
 40
0.156
  9
$DIMEXO
 40
0.05
  9
$DIMDLI
 40
0.38
  9
$DIMRND
 40
0.0
  9
$DIMDLE
 40
0.0
  9
$DIMEXE
 40
0.125
  9
$DIMTP
 40
0.0
  9
$DIMTM
 40
0.0
  9
$DIMTXT
 40
0.14
  9
$DIMCEN
 40
0.09
  9
$DIMTSZ
 40
0.0
  9
$DIMTOL
 70
     0
  9
$DIMLIM
 70
     0
  9
$DIMTIH
 70
     1
  9
$DIMTOH
 70
     1
  9
$DIMSE1
 70
     0
  9
$DIMSE2
 70
     0
  9
$DIMTAD
 70
     0
  9
$DIMZIN
 70
     0
  9
$DIMBLK
  1

  9
$DIMASO
 70
     1
  9
$DIMSHO
 70
     1
  9
$DIMPOST
  1

  9
$DIMAPOST
  1

  9
$DIMALT
 70
     0
  9
$DIMALTD
 70
     2
  9
$DIMALTF
 40
25.399999999999999
  9
$DIMLFAC
 40
1.0
  9
$DIMTOFL
 70
     0
  9
$DIMTVP
 40
0.0
  9
$DIMTIX
 70
     0
  9
$DIMSOXD
 70
     0
  9
$DIMSAH
 70
     0
  9
$DIMBLK1
  1

  9
$DIMBLK2
  1

  9
$DIMSTYLE
  2
STANDARD
  9
$DIMCLRD
 70
     0
  9
$DIMCLRE
 70
     0
  9
$DIMCLRT
 70
     0
  9
$DIMTFAC
 40
1.0
  9
$DIMGAP
 40
0.06
  9
$LUNITS
 70
     2
  9
$LUPREC
 70
     3
  9
$SKETCHINC
 40
0.1
  9
$FILLETRAD
 40
0.5
  9
$AUNITS
 70
     0
  9
$AUPREC
 70
     2
  9
$MENU
  1
.
  9
$ELEVATION
 40
0.0
  9
$PELEVATION
 40
0.0
  9
$THICKNESS
 40
0.0
  9
$LIMCHECK
 70
     0
  9
$BLIPMODE
 70
     0
  9
$CHAMFERA
 40
0.5
  9
$CHAMFERB
 40
0.5
  9
$SKPOLY
 70
     0
  9
$TDCREATE
 40
2457101.7350895721
  9
$TDUPDATE
 40
2457101.5716191088
  9
$TDINDWG
 40
0.0028365741
  9
$TDUSRTIMER
 40
0.0028365741
  9
$USRTIMER
 70
     1
  9
$ANGBASE
 50
0.0
  9
$ANGDIR
 70
     0
  9
$PDMODE
 70
     0
  9
$PDSIZE
 40
-1.0
  9
$PLINEWID
 40
0.0
  9
$COORDS
 70
     1
  9
$SPLFRAME
 70
     0
  9
$SPLINETYPE
 70
     6
  9
$SPLINESEGS
 70
     8
  9
$ATTDIA
 70
     0
  9
$ATTREQ
 70
     1
  9
$HANDLING
 70
     1
  9
$HANDSEED
  5
B920
  9
$SURFTAB1
 70
     6
  9
$SURFTAB2
 70
     6
  9
$SURFTYPE
 70
     6
  9
$SURFU
 70
     6
  9
$SURFV
 70
     6
  9
$UCSNAME
  2

  9
$UCSORG
 10
0.0
 20
0.0
 30
0.0
  9
$UCSXDIR
 10
1.0
 20
0.0
 30
0.0
  9
$UCSYDIR
 10
0.0
 20
1.0
 30
0.0
  9
$PUCSNAME
  2

  9
$PUCSORG
 10
0.0
 20
0.0
 30
0.0
  9
$PUCSXDIR
 10
1.0
 20
0.0
 30
0.0
  9
$PUCSYDIR
 10
0.0
 20
1.0
 30
0.0
  9
$USERI1
 70
     0
  9
$USERI2
 70
     0
  9
$USERI3
 70
     0
  9
$USERI4
 70
     0
  9
$USERI5
 70
     0
  9
$USERR1
 40
0.0
  9
$USERR2
 40
0.0
  9
$USERR3
 40
0.0
  9
$USERR4
 40
0.0
  9
$USERR5
 40
0.0
  9
$WORLDVIEW
 70
     0
  9
$SHADEDGE
 70
     3
  9
$SHADEDIF
 70
    70
  9
$TILEMODE
 70
     1
  9
$MAXACTVP
 70
    64
  9
$PLIMCHECK
 70
     0
  9
$PEXTMIN
 10
1.0000000000000000E+020
 20
1.0000000000000000E+020
 30
1.0000000000000000E+020
  9
$PEXTMAX
 10
-1.0000000000000000E+020
 20
-1.0000000000000000E+020
 30
-1.0000000000000000E+020
  9
$PLIMMIN
 10
0.0
 20
0.0
  9
$PLIMMAX
 10
12.0
 20
9.0
  9
$UNITMODE
 70
     0
  9
$VISRETAIN
 70
     1
  9
$PLINEGEN
 70
     0
  9
$PSLTSCALE
 70
     1
  0
ENDSEC
  0
SECTION
  2
TABLES
  0
TABLE
  2
VPORT
 70
     1
  0
VPORT
  2
*ACTIVE
 70
     0
 10
0.0
 20
0.0
 11
1.0
 21
1.0
 12
1.342651348671388
 22
1.1683807553395089
 13
0.0
 23
0.0
 14
0.5
 24
0.5
 15
0.5
 25
0.5
 16
0.0
 26
0.0
 36
1.0
 17
0.0
 27
0.0
 37
0.0
 40
2.2297661086471758
 41
2.0653514180024661
 42
50.0
 43
0.0
 44
0.0
 50
0.0
 51
0.0
 71
     0
 72
  2000
 73
     1
 74
     3
 75
     0
 76
     0
 77
     0
 78
     0
  0
ENDTAB
  0
TABLE
  2
LTYPE
 70
     8
  0
LTYPE
  2
CONTINUOUS
 70
     0
  3
Solid line
 72
    65
 73
     0
 40
0.0
  0
ENDTAB
  0
TABLE
  2
LAYER
 70
     3
  0
LAYER
  2
0
 70
     0
 62
     5
  6
CONTINUOUS
  0
ENDTAB
  0
TABLE
  2
STYLE
 70
     4
  0
STYLE
  2
STANDARD
 70
     0
 40
0.0
 41
1.0
 50
0.0
 71
     0
 42
0.12
  3
txt
  4

  0
STYLE
  2
P125
 70
     0
 40
0.125
 41
0.75
 50
15.0
 71
     0
 42
0.125
  3
print
  4

  0
ENDTAB
  0
TABLE
  2
VIEW
 70
     4
  0
ENDTAB
  0
TABLE
  2
UCS
 70
     0
  0
ENDTAB
  0
TABLE
  2
APPID
 70
    19
  0
APPID
  2
ACAD
 70
     0
  0
APPID
  2
ACADANNOTATIVE
 70
     0
  0
APPID
  2
ACAD_NAV_VCDISPLAY
 70
     0
  0
APPID
  2
ACAD_EXEMPT_FROM_CAD_STANDARDS
 70
     0
  0
APPID
  2
ACAD_MLEADERVER
 70
     0
  0
APPID
  2
ACAD_PSEXT
 70
     0
  0
APPID
  2
ACAD_DSTYLE_DIMJAG
 70
     0
  0
APPID
  2
ACAD_DSTYLE_DIMTALN
 70
     0
  0
APPID
  2
ACAECLAYERSTANDARD
 70
     0
  0
APPID
  2
ACAD_EXEMPT_FROM_CAD_STAND
 70
     0
  0
APPID
  2
ACAD_DSTYLE_DIMBREAK
 70
     0
  0
APPID
  2
ACAUTHENVIRON
 70
     0
  0
APPID
  2
ACDBDYNAMICBLOCKTRUENAME
 70
     0
  0
APPID
  2
ACDBDYNAMICBLOCKGUID
 70
     0
  0
APPID
  2
ACDBBLOCKREPETAG
 70
     0
  0
APPID
  2
ACAD_DSTYLE_DIMRADIAL_EXTE
 70
     0
  0
APPID
  2
GRADIENTCOLOR1ACI
 70
     0
  0
APPID
  2
GRADIENTCOLOR2ACI
 70
     0
  0
APPID
  2
ACCMTRANSPARENCY
 70
     0
  0
ENDTAB
  0
TABLE
  2
DIMSTYLE
 70
     3
  0
DIMSTYLE
  2
STANDARD
 70
     0
  3

  4

  5

  6

  7

 40
1.0
 41
0.18
 42
0.0625
 43
0.38
 44
0.18
 45
0.0
 46
0.0
 47
0.0
 48
0.0
140
0.18
141
0.09
142
0.0
143
25.399999999999999
144
1.0
145
0.0
146
1.0
147
0.09
 71
     0
 72
     0
 73
     1
 74
     1
 75
     0
 76
     0
 77
     0
 78
     0
170
     0
171
     2
172
     0
173
     0
174
     0
175
     0
176
     0
177
     0
178
     0
  0
ENDTAB
  0
ENDSEC
  0
SECTION
  2
BLOCKS
  0
BLOCK
  8
0
  2
$MODEL_SPACE
 70
     0
 10
0.0
 20
0.0
 30
0.0
  3
$MODEL_SPACE
  1

  0
ENDBLK
  5
EF5
  8
0
  0
BLOCK
 67
     1
  8
0
  2
$PAPER_SPACE
 70
     0
 10
0.0
 20
0.0
 30
0.0
  3
$PAPER_SPACE
  1

  0
ENDBLK
  5
EF3
 67
     1
  8
0
  0
ENDSEC
  0
SECTION
  2
ENTITIES
  0
LINE
  5
634
  8
0
 10
1.3434260918067269
 20
0.1898183988274402
 30
0.0
 11
1.3434260918067269
 21
0.2019599045123147
 31
0.0
  0
LINE
  5
635
  8
0
 10
0.4028613258863994
 20
0.201959904512315
 30
0.0
 11
0.4028613258863994
 21
0.1898183988274405
 31
0.0
  0
LINE
  5
636
  8
0
 10
0.4077178996685256
 20
1.623564924896846
 30
0.0
 11
0.4077178996685256
 21
0.201959904512315
 31
0.0
  0
LINE
  5
637
  8
0
 10
1.3385695180246009
 20
0.2019599045123147
 30
0.0
 11
1.3385695180246009
 21
1.804643477750481
 31
0.0
  0
ARC
  5
638
  8
0
 10
1.3256185199296859
 20
1.804643478424977
 30
0.0
 40
0.0129509784925405
 50
0.0
 51
89.999999999999801
  0
LINE
  5
694
  8
0
 10
0.8731437088465636
 20
0.1898183988274405
 30
0.0
 11
0.4028613258863994
 21
0.1898183988274405
 31
0.0
  0
LINE
  5
695
  8
0
 10
1.3434260918067269
 20
0.1898183988274402
 30
0.0
 11
0.8731437088465636
 21
0.1898183988274405
 31
0.0
  0
LINE
  5
696
  8
0
 10
0.8731437088465636
 20
0.201959904512315
 30
0.0
 11
0.4028613258863994
 21
0.201959904512315
 31
0.0
  0
LINE
  5
697
  8
0
 10
1.3434260918067269
 20
0.2019599045123147
 30
0.0
 11
0.8731437088465636
 21
0.201959904512315
 31
0.0
  0
ARC
  5
698
  8
0
 10
-0.0575085096726074
 20
1.6736579249125889
 30
0.0
 40
0.4679840598494401
 50
353.85528923270238
 51
359.98247942317522
  0
LINE
  5
699
  8
0
 10
0.4104755282965665
 20
1.804643477750481
 30
0.0
 11
0.4104755282965665
 21
1.6735148192490441
 31
0.0
  0
LINE
  5
69A
  8
0
 10
0.4235059313896294
 20
1.8175944569175171
 30
0.0
 11
1.3256185121464801
 21
1.8175944569175171
 31
0.0
  0
ARC
  5
69B
  8
0
 10
0.423471689607979
 20
1.8045982620593539
 30
0.0
 40
0.0129962399674279
 50
89.849040041857336
 51
179.80065976757521
  0
TEXT
  5
B7B6
  8
0
 10
1.7709317209954201
 20
0.9497027407521193
 30
0.0
 40
0.125
  1
LX2084
 41
0.7500000000000006
 51
15.0
  7
P125
 72
     2
 11
2.2709317209954198
 21
1.012202740752119
 31
0.0
 73
     2
  0
LINE
  5
B7F4
  8
0
 10
0.5532661979490148
 20
2.0960439100425381
 30
0.0
 11
0.5532661979490148
 21
1.8175944569175171
 31
0.0
  0
LINE
  5
B7F5
  8
0
 10
0.627556511985143
 20
2.109335234402538
 30
0.0
 11
0.627556511985143
 21
1.8175944569175171
 31
0.0
  0
LINE
  5
B7F6
  8
0
 10
0.5533042642257962
 20
2.109335234402538
 30
0.0
 11
0.5533042642257962
 21
1.8175944569175171
 31
0.0
  0
LINE
  5
B7F7
  8
0
 10
0.6275560421148119
 20
2.109335234402538
 30
0.0
 11
0.5533047340961219
 21
2.109335234402538
 31
0.0
  0
LINE
  5
B7F8
  8
0
 10
0.5602835944863736
 20
2.146758891721996
 30
0.0
 11
0.5603578475586244
 21
2.146758891721996
 31
0.0
  0
LINE
  5
B7F9
  8
0
 10
0.6205029286523112
 20
2.146758891721996
 30
0.0
 11
0.620577181724562
 21
2.146758891721996
 31
0.0
  0
LINE
  5
B7FA
  8
0
 10
0.6461202794187373
 20
2.146758891721996
 30
0.0
 11
0.620577181724562
 21
2.146758891721996
 31
0.0
  0
LINE
  5
B7FB
  8
0
 10
0.5602835944863736
 20
2.146758891721996
 30
0.0
 11
0.5347404967922002
 21
2.146758891721996
 31
0.0
  0
LINE
  5
B7FC
  8
0
 10
0.5603578475586244
 20
2.109335234402538
 30
0.0
 11
0.5533037948041462
 21
2.109335234402538
 31
0.0
  0
LINE
  5
B7FD
  8
0
 10
0.6275569814067841
 20
2.109335234402538
 30
0.0
 11
0.6205029286523112
 21
2.109335234402538
 31
0.0
  0
LINE
  5
B7FE
  8
0
 10
0.5117220117224181
 20
2.109335234402538
 30
0.0
 11
0.511573505577911
 21
2.146758891721996
 31
0.0
  0
LINE
  5
B7FF
  8
0
 10
0.6691387644885194
 20
2.12121581308591
 30
0.0
 11
0.6691387644885194
 21
2.109335234402538
 31
0.0
  0
LINE
  5
B800
  8
0
 10
0.6691387644885194
 20
2.109335234402538
 30
0.0
 11
0.6205029286523112
 21
2.109335234402538
 31
0.0
  0
LINE
  5
B801
  8
0
 10
0.5603578475586244
 20
2.109335234402538
 30
0.0
 11
0.5117220117224181
 21
2.109335234402538
 31
0.0
  0
LINE
  5
B802
  8
0
 10
0.6691387644885194
 20
2.12121581308591
 30
0.0
 11
0.6692136573683479
 21
2.137551499872127
 31
0.0
  0
LINE
  5
B803
  8
0
 10
0.6692872706330282
 20
2.146758891721996
 30
0.0
 11
0.6692872706330282
 21
2.137551499872127
 31
0.0
  0
LINE
  5
B804
  8
0
 10
0.620577181724562
 20
2.146758891721996
 30
0.0
 11
0.6205029286523112
 21
2.146758891721996
 31
0.0
  0
LINE
  5
B805
  8
0
 10
0.5603578475586244
 20
2.146758891721996
 30
0.0
 11
0.5602835944863736
 21
2.146758891721996
 31
0.0
  0
LINE
  5
B806
  8
0
 10
0.6692872706330282
 20
2.146758891721996
 30
0.0
 11
0.511573505577911
 21
2.146758891721996
 31
0.0
  0
LINE
  5
B807
  8
0
 10
0.5532661979490148
 20
2.0960439100425381
 30
0.0
 11
0.5532661979490148
 21
1.8175944569175171
 31
0.0
  0
LINE
  5
B808
  8
0
 10
0.627556511985143
 20
2.109335234402538
 30
0.0
 11
0.627556511985143
 21
1.8175944569175171
 31
0.0
  0
LINE
  5
B809
  8
0
 10
0.5533042642257962
 20
2.109335234402538
 30
0.0
 11
0.5533042642257962
 21
1.8175944569175171
 31
0.0
  0
LINE
  5
B80A
  8
0
 10
0.6275560421148119
 20
2.109335234402538
 30
0.0
 11
0.5533047340961219
 21
2.109335234402538
 31
0.0
  0
LINE
  5
B80B
  8
0
 10
0.5602835944863736
 20
2.146758891721996
 30
0.0
 11
0.5603578475586244
 21
2.146758891721996
 31
0.0
  0
LINE
  5
B80C
  8
0
 10
0.6205029286523112
 20
2.146758891721996
 30
0.0
 11
0.620577181724562
 21
2.146758891721996
 31
0.0
  0
LINE
  5
B80D
  8
0
 10
0.6461202794187373
 20
2.146758891721996
 30
0.0
 11
0.620577181724562
 21
2.146758891721996
 31
0.0
  0
LINE
  5
B80E
  8
0
 10
0.5602835944863736
 20
2.146758891721996
 30
0.0
 11
0.5347404967922002
 21
2.146758891721996
 31
0.0
  0
LINE
  5
B80F
  8
0
 10
0.5603578475586244
 20
2.109335234402538
 30
0.0
 11
0.5533037948041462
 21
2.109335234402538
 31
0.0
  0
LINE
  5
B810
  8
0
 10
0.6275569814067841
 20
2.109335234402538
 30
0.0
 11
0.6205029286523112
 21
2.109335234402538
 31
0.0
  0
LINE
  5
B811
  8
0
 10
0.5117220117224181
 20
2.109335234402538
 30
0.0
 11
0.511573505577911
 21
2.146758891721996
 31
0.0
  0
LINE
  5
B812
  8
0
 10
0.6691387644885194
 20
2.12121581308591
 30
0.0
 11
0.6691387644885194
 21
2.109335234402538
 31
0.0
  0
LINE
  5
B813
  8
0
 10
0.6691387644885194
 20
2.109335234402538
 30
0.0
 11
0.6205029286523112
 21
2.109335234402538
 31
0.0
  0
LINE
  5
B814
  8
0
 10
0.5603578475586244
 20
2.109335234402538
 30
0.0
 11
0.5117220117224181
 21
2.109335234402538
 31
0.0
  0
LINE
  5
B815
  8
0
 10
0.6691387644885194
 20
2.12121581308591
 30
0.0
 11
0.6692136573683479
 21
2.137551499872127
 31
0.0
  0
LINE
  5
B816
  8
0
 10
0.6692872706330282
 20
2.146758891721996
 30
0.0
 11
0.6692872706330282
 21
2.137551499872127
 31
0.0
  0
LINE
  5
B817
  8
0
 10
0.620577181724562
 20
2.146758891721996
 30
0.0
 11
0.6205029286523112
 21
2.146758891721996
 31
0.0
  0
LINE
  5
B818
  8
0
 10
0.5603578475586244
 20
2.146758891721996
 30
0.0
 11
0.5602835944863736
 21
2.146758891721996
 31
0.0
  0
LINE
  5
B819
  8
0
 10
0.6692872706330282
 20
2.146758891721996
 30
0.0
 11
0.511573505577911
 21
2.146758891721996
 31
0.0
  0
ENDSEC
  0
EOF
