  0
SECTION
  2
HEADER
  9
$ACADVER
  1
AC1009
  9
$INSBASE
 10
0.0
 20
0.0
 30
0.0
  9
$EXTMIN
 10
0.4892273746538223
 20
0.3014526882924358
 30
-0.0015258207003583
  9
$EXTMAX
 10
2.367279095071452
 20
2.329040555666487
 30
0.0000000349246037
  9
$LIMMIN
 10
0.0
 20
0.0
  9
$LIMMAX
 10
34.0
 20
22.0
  9
$ORTHOMODE
 70
     0
  9
$REGENMODE
 70
     1
  9
$FILLMODE
 70
     1
  9
$QTEXTMODE
 70
     0
  9
$MIRRTEXT
 70
     1
  9
$DRAGMODE
 70
     2
  9
$LTSCALE
 40
1.0
  9
$OSMODE
 70
     1
  9
$ATTMODE
 70
     1
  9
$TEXTSIZE
 40
0.12
  9
$TRACEWID
 40
0.05
  9
$TEXTSTYLE
  7
STANDARD
  9
$CLAYER
  8
0
  9
$CELTYPE
  6
BYLAYER
  9
$CECOLOR
 62
   256
  9
$DIMSCALE
 40
1.0
  9
$DIMASZ
 40
0.156
  9
$DIMEXO
 40
0.05
  9
$DIMDLI
 40
0.38
  9
$DIMRND
 40
0.0
  9
$DIMDLE
 40
0.0
  9
$DIMEXE
 40
0.125
  9
$DIMTP
 40
0.0
  9
$DIMTM
 40
0.0
  9
$DIMTXT
 40
0.14
  9
$DIMCEN
 40
0.09
  9
$DIMTSZ
 40
0.0
  9
$DIMTOL
 70
     0
  9
$DIMLIM
 70
     0
  9
$DIMTIH
 70
     1
  9
$DIMTOH
 70
     1
  9
$DIMSE1
 70
     0
  9
$DIMSE2
 70
     0
  9
$DIMTAD
 70
     0
  9
$DIMZIN
 70
     0
  9
$DIMBLK
  1

  9
$DIMASO
 70
     1
  9
$DIMSHO
 70
     1
  9
$DIMPOST
  1

  9
$DIMAPOST
  1

  9
$DIMALT
 70
     0
  9
$DIMALTD
 70
     2
  9
$DIMALTF
 40
25.399999999999999
  9
$DIMLFAC
 40
1.0
  9
$DIMTOFL
 70
     0
  9
$DIMTVP
 40
0.0
  9
$DIMTIX
 70
     0
  9
$DIMSOXD
 70
     0
  9
$DIMSAH
 70
     0
  9
$DIMBLK1
  1

  9
$DIMBLK2
  1

  9
$DIMSTYLE
  2
STANDARD
  9
$DIMCLRD
 70
     0
  9
$DIMCLRE
 70
     0
  9
$DIMCLRT
 70
     0
  9
$DIMTFAC
 40
1.0
  9
$DIMGAP
 40
0.06
  9
$LUNITS
 70
     2
  9
$LUPREC
 70
     3
  9
$SKETCHINC
 40
0.1
  9
$FILLETRAD
 40
0.5
  9
$AUNITS
 70
     0
  9
$AUPREC
 70
     2
  9
$MENU
  1
.
  9
$ELEVATION
 40
0.0
  9
$PELEVATION
 40
0.0
  9
$THICKNESS
 40
0.0
  9
$LIMCHECK
 70
     0
  9
$BLIPMODE
 70
     0
  9
$CHAMFERA
 40
0.5
  9
$CHAMFERB
 40
0.5
  9
$SKPOLY
 70
     0
  9
$TDCREATE
 40
2457101.746943716
  9
$TDUPDATE
 40
2457101.5827863892
  9
$TDINDWG
 40
0.0022835648
  9
$TDUSRTIMER
 40
0.0022835648
  9
$USRTIMER
 70
     1
  9
$ANGBASE
 50
0.0
  9
$ANGDIR
 70
     0
  9
$PDMODE
 70
     0
  9
$PDSIZE
 40
-1.0
  9
$PLINEWID
 40
0.0
  9
$COORDS
 70
     1
  9
$SPLFRAME
 70
     0
  9
$SPLINETYPE
 70
     6
  9
$SPLINESEGS
 70
     8
  9
$ATTDIA
 70
     0
  9
$ATTREQ
 70
     1
  9
$HANDLING
 70
     1
  9
$HANDSEED
  5
BB94
  9
$SURFTAB1
 70
     6
  9
$SURFTAB2
 70
     6
  9
$SURFTYPE
 70
     6
  9
$SURFU
 70
     6
  9
$SURFV
 70
     6
  9
$UCSNAME
  2

  9
$UCSORG
 10
0.0
 20
0.0
 30
0.0
  9
$UCSXDIR
 10
1.0
 20
0.0
 30
0.0
  9
$UCSYDIR
 10
0.0
 20
1.0
 30
0.0
  9
$PUCSNAME
  2

  9
$PUCSORG
 10
0.0
 20
0.0
 30
0.0
  9
$PUCSXDIR
 10
1.0
 20
0.0
 30
0.0
  9
$PUCSYDIR
 10
0.0
 20
1.0
 30
0.0
  9
$USERI1
 70
     0
  9
$USERI2
 70
     0
  9
$USERI3
 70
     0
  9
$USERI4
 70
     0
  9
$USERI5
 70
     0
  9
$USERR1
 40
0.0
  9
$USERR2
 40
0.0
  9
$USERR3
 40
0.0
  9
$USERR4
 40
0.0
  9
$USERR5
 40
0.0
  9
$WORLDVIEW
 70
     0
  9
$SHADEDGE
 70
     3
  9
$SHADEDIF
 70
    70
  9
$TILEMODE
 70
     1
  9
$MAXACTVP
 70
    64
  9
$PLIMCHECK
 70
     0
  9
$PEXTMIN
 10
1.0000000000000000E+020
 20
1.0000000000000000E+020
 30
1.0000000000000000E+020
  9
$PEXTMAX
 10
-1.0000000000000000E+020
 20
-1.0000000000000000E+020
 30
-1.0000000000000000E+020
  9
$PLIMMIN
 10
0.0
 20
0.0
  9
$PLIMMAX
 10
12.0
 20
9.0
  9
$UNITMODE
 70
     0
  9
$VISRETAIN
 70
     1
  9
$PLINEGEN
 70
     0
  9
$PSLTSCALE
 70
     1
  0
ENDSEC
  0
SECTION
  2
TABLES
  0
TABLE
  2
VPORT
 70
     1
  0
VPORT
  2
*ACTIVE
 70
     0
 10
0.0
 20
0.0
 11
1.0
 21
1.0
 12
1.428253278576862
 22
1.31524658239628
 13
0.0
 23
0.0
 14
0.5
 24
0.5
 15
0.5
 25
0.5
 16
0.0
 26
0.0
 36
1.0
 17
0.0
 27
0.0
 37
0.0
 40
2.4919355207028739
 41
2.0653514180024661
 42
50.0
 43
0.0
 44
0.0
 50
0.0
 51
0.0
 71
     0
 72
  2000
 73
     1
 74
     3
 75
     0
 76
     0
 77
     0
 78
     0
  0
ENDTAB
  0
TABLE
  2
LTYPE
 70
     6
  0
LTYPE
  2
CONTINUOUS
 70
     0
  3
Solid line
 72
    65
 73
     0
 40
0.0
  0
ENDTAB
  0
TABLE
  2
LAYER
 70
     2
  0
LAYER
  2
0
 70
     0
 62
     5
  6
CONTINUOUS
  0
ENDTAB
  0
TABLE
  2
STYLE
 70
     3
  0
STYLE
  2
STANDARD
 70
     0
 40
0.0
 41
1.0
 50
0.0
 71
     0
 42
0.12
  3
txt
  4

  0
STYLE
  2
P125
 70
     0
 40
0.125
 41
0.75
 50
15.0
 71
     0
 42
0.125
  3
print
  4

  0
ENDTAB
  0
TABLE
  2
VIEW
 70
     3
  0
ENDTAB
  0
TABLE
  2
UCS
 70
     0
  0
ENDTAB
  0
TABLE
  2
APPID
 70
    19
  0
APPID
  2
ACAD
 70
     0
  0
APPID
  2
ACADANNOTATIVE
 70
     0
  0
APPID
  2
ACAD_NAV_VCDISPLAY
 70
     0
  0
APPID
  2
ACAD_EXEMPT_FROM_CAD_STANDARDS
 70
     0
  0
APPID
  2
ACAD_MLEADERVER
 70
     0
  0
APPID
  2
ACAD_PSEXT
 70
     0
  0
APPID
  2
ACAD_DSTYLE_DIMJAG
 70
     0
  0
APPID
  2
ACAD_DSTYLE_DIMTALN
 70
     0
  0
APPID
  2
ACAECLAYERSTANDARD
 70
     0
  0
APPID
  2
ACAD_EXEMPT_FROM_CAD_STAND
 70
     0
  0
APPID
  2
ACAD_DSTYLE_DIMBREAK
 70
     0
  0
APPID
  2
ACAUTHENVIRON
 70
     0
  0
APPID
  2
ACDBDYNAMICBLOCKTRUENAME
 70
     0
  0
APPID
  2
ACDBDYNAMICBLOCKGUID
 70
     0
  0
APPID
  2
ACDBBLOCKREPETAG
 70
     0
  0
APPID
  2
ACAD_DSTYLE_DIMRADIAL_EXTE
 70
     0
  0
APPID
  2
GRADIENTCOLOR1ACI
 70
     0
  0
APPID
  2
GRADIENTCOLOR2ACI
 70
     0
  0
APPID
  2
ACCMTRANSPARENCY
 70
     0
  0
ENDTAB
  0
TABLE
  2
DIMSTYLE
 70
     2
  0
DIMSTYLE
  2
STANDARD
 70
     0
  3

  4

  5

  6

  7

 40
1.0
 41
0.18
 42
0.0625
 43
0.38
 44
0.18
 45
0.0
 46
0.0
 47
0.0
 48
0.0
140
0.18
141
0.09
142
0.0
143
25.399999999999999
144
1.0
145
0.0
146
1.0
147
0.09
 71
     0
 72
     0
 73
     1
 74
     1
 75
     0
 76
     0
 77
     0
 78
     0
170
     0
171
     2
172
     0
173
     0
174
     0
175
     0
176
     0
177
     0
178
     0
  0
ENDTAB
  0
ENDSEC
  0
SECTION
  2
BLOCKS
  0
BLOCK
  8
0
  2
$MODEL_SPACE
 70
     0
 10
0.0
 20
0.0
 30
0.0
  3
$MODEL_SPACE
  1

  0
ENDBLK
  5
114C
  8
0
  0
BLOCK
 67
     1
  8
0
  2
$PAPER_SPACE
 70
     0
 10
0.0
 20
0.0
 30
0.0
  3
$PAPER_SPACE
  1

  0
ENDBLK
  5
114A
 67
     1
  8
0
  0
ENDSEC
  0
SECTION
  2
ENTITIES
  0
LINE
  5
6F1
  8
0
 10
0.4906316662452987
 20
1.804907239590293
 30
0.0
 11
0.4906316662452987
 21
0.9544545374619824
 31
0.0
  0
LINE
  5
6F2
  8
0
 10
1.421483284601375
 20
0.3026652300491042
 30
0.0
 11
1.421483284601375
 21
1.9864604662241641
 31
0.0
  0
ARC
  5
6F3
  8
0
 10
1.40853228650646
 20
1.9864604668986621
 30
0.0
 40
0.0129509784925399
 50
0.0
 51
89.999999999999801
  0
POLYLINE
  5
74F
  8
0
 66
     1
 10
0.0
 20
0.0
 30
0.0
  0
VERTEX
  5
BB01
  8
0
 10
0.4933892948733402
 20
1.855331807722729
 30
0.0
  0
VERTEX
  5
BB02
  8
0
 10
0.4933140289728123
 20
1.846987122443275
 30
0.0
  0
VERTEX
  5
BB03
  8
0
 10
0.4930883737303465
 20
1.8386424371638219
 30
0.0
  0
VERTEX
  5
BB04
  8
0
 10
0.4927498908666485
 20
1.8309994698834691
 30
0.0
  0
VERTEX
  5
BB05
  8
0
 10
0.4923184771718257
 20
1.8238354145421041
 30
0.0
  0
VERTEX
  5
BB06
  8
0
 10
0.4918633677770889
 20
1.8177240845943039
 30
0.0
  0
VERTEX
  5
BB07
  8
0
 10
0.4914125321558842
 20
1.8125172394564879
 30
0.0
  0
VERTEX
  5
BB08
  8
0
 10
0.4910394317265804
 20
1.8086421971238471
 30
0.0
  0
VERTEX
  5
BB09
  8
0
 10
0.4907670498935034
 20
1.806002904536256
 30
0.0
  0
VERTEX
  5
BB0A
  8
0
 10
0.4906408311152056
 20
1.804826275325057
 30
0.0
  0
VERTEX
  5
BB0B
  8
0
 10
0.4906496160941312
 20
1.804907239590293
 30
0.0
  0
SEQEND
  5
BB0C
  8
0
  0
LINE
  5
750
  8
0
 10
0.4933892948733402
 20
1.9864604662241641
 30
0.0
 11
0.4933892948733402
 21
1.855331807722729
 31
0.0
  0
POLYLINE
  5
751
  8
0
 66
     1
 10
0.0
 20
0.0
 30
0.0
  0
VERTEX
  5
BB0D
  8
0
 10
1.421483284601375
 20
0.3026652300491042
 30
0.0
  0
VERTEX
  5
BB0E
  8
0
 10
1.420922660486782
 20
0.3030578473775353
 30
0.0
  0
VERTEX
  5
BB0F
  8
0
 10
1.4192421177614341
 20
0.3042345596898861
 30
0.0
  0
VERTEX
  5
BB10
  8
0
 10
1.4164457402533741
 20
0.3061925178038037
 30
0.0
  0
VERTEX
  5
BB11
  8
0
 10
1.4125402235411331
 20
0.3089271630275194
 30
0.0
  0
VERTEX
  5
BB12
  8
0
 10
1.4075350174128549
 20
0.3124318472688744
 30
0.0
  0
VERTEX
  5
BB13
  8
0
 10
1.4014421834071711
 20
0.316698212926294
 30
0.0
  0
VERTEX
  5
BB14
  8
0
 10
1.3942763473268349
 20
0.3217158129978142
 30
0.0
  0
VERTEX
  5
BB15
  8
0
 10
1.3860548416978351
 20
0.3274724909720559
 30
0.0
  0
VERTEX
  5
BB16
  8
0
 10
1.3767974208511631
 20
0.3339545707737183
 30
0.0
  0
VERTEX
  5
BB17
  8
0
 10
1.366526355895554
 20
0.3411464768725972
 30
0.0
  0
VERTEX
  5
BB18
  8
0
 10
1.355266482203864
 20
0.3490307342835849
 30
0.0
  0
VERTEX
  5
BB19
  8
0
 10
1.3430448670084589
 20
0.3575883484576534
 30
0.0
  0
VERTEX
  5
BB1A
  8
0
 10
1.3298909756035211
 20
0.3667988052818524
 30
0.0
  0
VERTEX
  5
BB1B
  8
0
 10
1.315836481399556
 20
0.3766398811338152
 30
0.0
  0
VERTEX
  5
BB1C
  8
0
 10
1.300915242180207
 20
0.3870878328272572
 30
0.0
  0
VERTEX
  5
BB1D
  8
0
 10
1.285163205129513
 20
0.3981175875574607
 30
0.0
  0
VERTEX
  5
BB1E
  8
0
 10
1.2686183356023459
 20
0.4097024579830388
 30
0.0
  0
VERTEX
  5
BB1F
  8
0
 10
1.2513204746652939
 20
0.4218145221169174
 30
0.0
  0
VERTEX
  5
BB20
  8
0
 10
1.2333112916102891
 20
0.4344247182990845
 30
0.0
  0
VERTEX
  5
BB21
  8
0
 10
1.214634188981863
 20
0.4475025602783483
 30
0.0
  0
VERTEX
  5
BB22
  8
0
 10
1.195334160118029
 20
0.4610166120760639
 30
0.0
  0
VERTEX
  5
BB23
  8
0
 10
1.175457670434348
 20
0.4749342030679016
 30
0.0
  0
VERTEX
  5
BB24
  8
0
 10
1.1550526455523411
 20
0.4892219978203164
 30
0.0
  0
VERTEX
  5
BB25
  8
0
 10
1.1341682101244319
 20
0.5038454262540753
 30
0.0
  0
VERTEX
  5
BB26
  8
0
 10
1.11285469970555
 20
0.518769348453474
 30
0.0
  0
VERTEX
  5
BB27
  8
0
 10
1.0911634470644449
 20
0.5339576747753572
 30
0.0
  0
VERTEX
  5
BB28
  8
0
 10
1.069146722825727
 20
0.5493739356855891
 30
0.0
  0
VERTEX
  5
BB29
  8
0
 10
1.046857545524374
 20
0.5649809968408186
 30
0.0
  0
VERTEX
  5
BB2A
  8
0
 10
1.0243496222477639
 20
0.5807412490339676
 30
0.0
  0
VERTEX
  5
BB2B
  8
0
 10
1.001677179465478
 20
0.5966167031669771
 30
0.0
  0
VERTEX
  5
BB2C
  8
0
 10
0.9788948368936186
 20
0.6125689902508097
 30
0.0
  0
VERTEX
  5
BB2D
  8
0
 10
0.9560574754233314
 20
0.628559931241917
 30
0.0
  0
VERTEX
  5
BB2E
  8
0
 10
0.9332201139530553
 20
0.6445507772602772
 30
0.0
  0
VERTEX
  5
BB2F
  8
0
 10
0.9104377713811954
 20
0.6605031593168557
 30
0.0
  0
VERTEX
  5
BB30
  8
0
 10
0.8877653285989094
 20
0.6763786134498651
 30
0.0
  0
VERTEX
  5
BB31
  8
0
 10
0.8652574053222996
 20
0.6921387706702694
 30
0.0
  0
VERTEX
  5
BB32
  8
0
 10
0.8429682280209458
 20
0.7077458318254989
 30
0.0
  0
VERTEX
  5
BB33
  8
0
 10
0.8209515037822283
 20
0.7231621877084756
 30
0.0
  0
VERTEX
  5
BB34
  8
0
 10
0.7992602511411237
 20
0.7383505140303587
 30
0.0
  0
VERTEX
  5
BB35
  8
0
 10
0.7779467407222415
 20
0.7532744362297577
 30
0.0
  0
VERTEX
  5
BB36
  8
0
 10
0.7570623052943329
 20
0.7678978646635163
 30
0.0
  0
VERTEX
  5
BB37
  8
0
 10
0.7366572804123253
 20
0.7821855644431865
 30
0.0
  0
VERTEX
  5
BB38
  8
0
 10
0.7167807907286447
 20
0.7961032504077701
 30
0.0
  0
VERTEX
  5
BB39
  8
0
 10
0.6974807618648105
 20
0.8096173022054856
 30
0.0
  0
VERTEX
  5
BB3A
  8
0
 10
0.6788036592363841
 20
0.8226951441847482
 30
0.0
  0
VERTEX
  5
BB3B
  8
0
 10
0.6607944761813797
 20
0.8353053403669152
 30
0.0
  0
VERTEX
  5
BB3C
  8
0
 10
0.6434966152443272
 20
0.847417404500795
 30
0.0
  0
VERTEX
  5
BB3D
  8
0
 10
0.62695174571716
 20
0.8590022749263718
 30
0.0
  0
VERTEX
  5
BB3E
  8
0
 10
0.611199708666466
 20
0.8700319346838297
 30
0.0
  0
VERTEX
  5
BB3F
  8
0
 10
0.5962784694471179
 20
0.8804798863772727
 30
0.0
  0
VERTEX
  5
BB40
  8
0
 10
0.5822239752431525
 20
0.8903209622292354
 30
0.0
  0
VERTEX
  5
BB41
  8
0
 10
0.5690700838382148
 20
0.8995314190534333
 30
0.0
  0
VERTEX
  5
BB42
  8
0
 10
0.5568484686428099
 20
0.9080891282002477
 30
0.0
  0
VERTEX
  5
BB43
  8
0
 10
0.5455885949511198
 20
0.9159733856112367
 30
0.0
  0
VERTEX
  5
BB44
  8
0
 10
0.5353175299955109
 20
0.9231651967373696
 30
0.0
  0
VERTEX
  5
BB45
  8
0
 10
0.5260601091488379
 20
0.9296472765390308
 30
0.0
  0
VERTEX
  5
BB46
  8
0
 10
0.5178386035198387
 20
0.9354040494860184
 30
0.0
  0
VERTEX
  5
BB47
  8
0
 10
0.5106727674395027
 20
0.9404216495575386
 30
0.0
  0
VERTEX
  5
BB48
  8
0
 10
0.5045799334338188
 20
0.9446879202422135
 30
0.0
  0
VERTEX
  5
BB49
  8
0
 10
0.4995747273055403
 20
0.9481926044835685
 30
0.0
  0
VERTEX
  5
BB4A
  8
0
 10
0.4956692105932998
 20
0.9509272497072842
 30
0.0
  0
VERTEX
  5
BB4B
  8
0
 10
0.4928728330852396
 20
0.9528853027939463
 30
0.0
  0
VERTEX
  5
BB4C
  8
0
 10
0.4911922903598923
 20
0.9540620151062974
 30
0.0
  0
VERTEX
  5
BB4D
  8
0
 10
0.4906316662452987
 20
0.9544545374619824
 30
0.0
  0
SEQEND
  5
BB4E
  8
0
  0
LINE
  5
752
  8
0
 10
0.5064196979664024
 20
1.9994114453912011
 30
0.0
 11
1.408532278723253
 21
1.9994114453912011
 31
0.0
  0
ARC
  5
753
  8
0
 10
0.506385456184751
 20
1.986415250533039
 30
0.0
 40
0.0129962399674264
 50
89.849040041852234
 51
179.8006597675801
  0
TEXT
  5
BA46
  8
0
 10
1.853845487572193
 20
1.131519729225803
 30
0.0
 40
0.125
  1
LX2084
 41
0.7500000000000006
 51
15.0
  7
P125
 72
     2
 11
2.3538454875721939
 21
1.194019729225803
 31
0.0
 73
     2
  0
LINE
  5
BA6F
  8
0
 10
0.6361799645257884
 20
2.277860898516221
 30
0.0
 11
0.6361799645257884
 21
1.9994114453912011
 31
0.0
  0
LINE
  5
BA70
  8
0
 10
0.7104702785619166
 20
2.2911522228762222
 30
0.0
 11
0.7104702785619166
 21
1.9994114453912011
 31
0.0
  0
LINE
  5
BA71
  8
0
 10
0.6362180308025698
 20
2.2911522228762222
 30
0.0
 11
0.6362180308025698
 21
1.9994114453912011
 31
0.0
  0
LINE
  5
BA72
  8
0
 10
0.7104698086915855
 20
2.2911522228762222
 30
0.0
 11
0.6362185006728957
 21
2.2911522228762222
 31
0.0
  0
LINE
  5
BA73
  8
0
 10
0.6431973610631472
 20
2.3285758801956802
 30
0.0
 11
0.6432716141353981
 21
2.3285758801956802
 31
0.0
  0
LINE
  5
BA74
  8
0
 10
0.7034166952290848
 20
2.3285758801956802
 30
0.0
 11
0.7034909483013357
 21
2.3285758801956802
 31
0.0
  0
LINE
  5
BA75
  8
0
 10
0.729034045995511
 20
2.3285758801956802
 30
0.0
 11
0.7034909483013357
 21
2.3285758801956802
 31
0.0
  0
LINE
  5
BA76
  8
0
 10
0.6431973610631472
 20
2.3285758801956802
 30
0.0
 11
0.6176542633689737
 21
2.3285758801956802
 31
0.0
  0
LINE
  5
BA77
  8
0
 10
0.6432716141353981
 20
2.2911522228762222
 30
0.0
 11
0.6362175613809198
 21
2.2911522228762222
 31
0.0
  0
LINE
  5
BA78
  8
0
 10
0.7104707479835577
 20
2.2911522228762222
 30
0.0
 11
0.7034166952290848
 21
2.2911522228762222
 31
0.0
  0
LINE
  5
BA79
  8
0
 10
0.5946357782991916
 20
2.2911522228762222
 30
0.0
 11
0.5944872721546846
 21
2.3285758801956802
 31
0.0
  0
LINE
  5
BA7A
  8
0
 10
0.7520525310652931
 20
2.3030328015595929
 30
0.0
 11
0.7520525310652931
 21
2.2911522228762222
 31
0.0
  0
LINE
  5
BA7B
  8
0
 10
0.7520525310652931
 20
2.2911522228762222
 30
0.0
 11
0.7034166952290848
 21
2.2911522228762222
 31
0.0
  0
LINE
  5
BA7C
  8
0
 10
0.6432716141353981
 20
2.2911522228762222
 30
0.0
 11
0.5946357782991916
 21
2.2911522228762222
 31
0.0
  0
LINE
  5
BA7D
  8
0
 10
0.7520525310652931
 20
2.3030328015595929
 30
0.0
 11
0.7521274239451216
 21
2.3193684883458099
 31
0.0
  0
LINE
  5
BA7E
  8
0
 10
0.7522010372098018
 20
2.3285758801956802
 30
0.0
 11
0.7522010372098018
 21
2.3193684883458099
 31
0.0
  0
LINE
  5
BA7F
  8
0
 10
0.7034909483013357
 20
2.3285758801956802
 30
0.0
 11
0.7034166952290848
 21
2.3285758801956802
 31
0.0
  0
LINE
  5
BA80
  8
0
 10
0.6432716141353981
 20
2.3285758801956802
 30
0.0
 11
0.6431973610631472
 21
2.3285758801956802
 31
0.0
  0
LINE
  5
BA81
  8
0
 10
0.7522010372098018
 20
2.3285758801956802
 30
0.0
 11
0.5944872721546846
 21
2.3285758801956802
 31
0.0
  0
LINE
  5
BA82
  8
0
 10
0.6361799645257884
 20
2.277860898516221
 30
0.0
 11
0.6361799645257884
 21
1.9994114453912011
 31
0.0
  0
LINE
  5
BA83
  8
0
 10
0.7104702785619166
 20
2.2911522228762222
 30
0.0
 11
0.7104702785619166
 21
1.9994114453912011
 31
0.0
  0
LINE
  5
BA84
  8
0
 10
0.6362180308025698
 20
2.2911522228762222
 30
0.0
 11
0.6362180308025698
 21
1.9994114453912011
 31
0.0
  0
LINE
  5
BA85
  8
0
 10
0.7104698086915855
 20
2.2911522228762222
 30
0.0
 11
0.6362185006728957
 21
2.2911522228762222
 31
0.0
  0
LINE
  5
BA86
  8
0
 10
0.6431973610631472
 20
2.3285758801956802
 30
0.0
 11
0.6432716141353981
 21
2.3285758801956802
 31
0.0
  0
LINE
  5
BA87
  8
0
 10
0.7034166952290848
 20
2.3285758801956802
 30
0.0
 11
0.7034909483013357
 21
2.3285758801956802
 31
0.0
  0
LINE
  5
BA88
  8
0
 10
0.729034045995511
 20
2.3285758801956802
 30
0.0
 11
0.7034909483013357
 21
2.3285758801956802
 31
0.0
  0
LINE
  5
BA89
  8
0
 10
0.6431973610631472
 20
2.3285758801956802
 30
0.0
 11
0.6176542633689737
 21
2.3285758801956802
 31
0.0
  0
LINE
  5
BA8A
  8
0
 10
0.6432716141353981
 20
2.2911522228762222
 30
0.0
 11
0.6362175613809198
 21
2.2911522228762222
 31
0.0
  0
LINE
  5
BA8B
  8
0
 10
0.7104707479835577
 20
2.2911522228762222
 30
0.0
 11
0.7034166952290848
 21
2.2911522228762222
 31
0.0
  0
LINE
  5
BA8C
  8
0
 10
0.5946357782991916
 20
2.2911522228762222
 30
0.0
 11
0.5944872721546846
 21
2.3285758801956802
 31
0.0
  0
LINE
  5
BA8D
  8
0
 10
0.7520525310652931
 20
2.3030328015595929
 30
0.0
 11
0.7520525310652931
 21
2.2911522228762222
 31
0.0
  0
LINE
  5
BA8E
  8
0
 10
0.7520525310652931
 20
2.2911522228762222
 30
0.0
 11
0.7034166952290848
 21
2.2911522228762222
 31
0.0
  0
LINE
  5
BA8F
  8
0
 10
0.6432716141353981
 20
2.2911522228762222
 30
0.0
 11
0.5946357782991916
 21
2.2911522228762222
 31
0.0
  0
LINE
  5
BA90
  8
0
 10
0.7520525310652931
 20
2.3030328015595929
 30
0.0
 11
0.7521274239451216
 21
2.3193684883458099
 31
0.0
  0
LINE
  5
BA91
  8
0
 10
0.7522010372098018
 20
2.3285758801956802
 30
0.0
 11
0.7522010372098018
 21
2.3193684883458099
 31
0.0
  0
LINE
  5
BA92
  8
0
 10
0.7034909483013357
 20
2.3285758801956802
 30
0.0
 11
0.7034166952290848
 21
2.3285758801956802
 31
0.0
  0
LINE
  5
BA93
  8
0
 10
0.6432716141353981
 20
2.3285758801956802
 30
0.0
 11
0.6431973610631472
 21
2.3285758801956802
 31
0.0
  0
LINE
  5
BA94
  8
0
 10
0.7522010372098018
 20
2.3285758801956802
 30
0.0
 11
0.5944872721546846
 21
2.3285758801956802
 31
0.0
  0
ENDSEC
  0
EOF
