  0
SECTION
  2
HEADER
  9
$ACADVER
  1
AC1009
  9
$INSBASE
 10
0.0
 20
0.0
 30
0.0
  9
$EXTMIN
 10
-4.410139875289941
 20
14.61285030548364
 30
0.0
  9
$EXTMAX
 10
-2.3422945270448379
 20
15.655194332039679
 30
0.0
  9
$LIMMIN
 10
0.0
 20
0.0
  9
$LIMMAX
 10
12.0
 20
9.0
  9
$ORTHOMODE
 70
     1
  9
$REGENMODE
 70
     1
  9
$FILLMODE
 70
     1
  9
$QTEXTMODE
 70
     0
  9
$MIRRTEXT
 70
     1
  9
$DRAGMODE
 70
     2
  9
$LTSCALE
 40
1.0
  9
$OSMODE
 70
    39
  9
$ATTMODE
 70
     1
  9
$TEXTSIZE
 40
0.125
  9
$TRACEWID
 40
0.05
  9
$TEXTSTYLE
  7
STANDARD
  9
$CLAYER
  8
0
  9
$CELTYPE
  6
BYLAYER
  9
$CECOLOR
 62
   256
  9
$DIMSCALE
 40
1.0
  9
$DIMASZ
 40
0.18
  9
$DIMEXO
 40
0.0625
  9
$DIMDLI
 40
0.38
  9
$DIMRND
 40
0.0
  9
$DIMDLE
 40
0.0
  9
$DIMEXE
 40
0.18
  9
$DIMTP
 40
0.0
  9
$DIMTM
 40
0.0
  9
$DIMTXT
 40
0.18
  9
$DIMCEN
 40
0.09
  9
$DIMTSZ
 40
0.0
  9
$DIMTOL
 70
     0
  9
$DIMLIM
 70
     0
  9
$DIMTIH
 70
     1
  9
$DIMTOH
 70
     1
  9
$DIMSE1
 70
     0
  9
$DIMSE2
 70
     0
  9
$DIMTAD
 70
     0
  9
$DIMZIN
 70
     0
  9
$DIMBLK
  1

  9
$DIMASO
 70
     1
  9
$DIMSHO
 70
     1
  9
$DIMPOST
  1

  9
$DIMAPOST
  1

  9
$DIMALT
 70
     0
  9
$DIMALTD
 70
     2
  9
$DIMALTF
 40
25.399999999999999
  9
$DIMLFAC
 40
1.0
  9
$DIMTOFL
 70
     0
  9
$DIMTVP
 40
0.0
  9
$DIMTIX
 70
     0
  9
$DIMSOXD
 70
     0
  9
$DIMSAH
 70
     0
  9
$DIMBLK1
  1

  9
$DIMBLK2
  1

  9
$DIMSTYLE
  2
STANDARD
  9
$DIMCLRD
 70
     0
  9
$DIMCLRE
 70
     0
  9
$DIMCLRT
 70
     0
  9
$DIMTFAC
 40
1.0
  9
$DIMGAP
 40
0.09
  9
$LUNITS
 70
     2
  9
$LUPREC
 70
     4
  9
$SKETCHINC
 40
0.1
  9
$FILLETRAD
 40
0.0
  9
$AUNITS
 70
     0
  9
$AUPREC
 70
     0
  9
$MENU
  1
.
  9
$ELEVATION
 40
0.0
  9
$PELEVATION
 40
0.0
  9
$THICKNESS
 40
0.0
  9
$LIMCHECK
 70
     0
  9
$BLIPMODE
 70
     0
  9
$CHAMFERA
 40
0.5
  9
$CHAMFERB
 40
0.5
  9
$SKPOLY
 70
     0
  9
$TDCREATE
 40
2451269.39063993
  9
$TDUPDATE
 40
2458190.5425715051
  9
$TDINDWG
 40
2.0077460764000001
  9
$TDUSRTIMER
 40
2456087.8380674771
  9
$USRTIMER
 70
     1
  9
$ANGBASE
 50
0.0
  9
$ANGDIR
 70
     0
  9
$PDMODE
 70
     0
  9
$PDSIZE
 40
0.0
  9
$PLINEWID
 40
0.0
  9
$COORDS
 70
     1
  9
$SPLFRAME
 70
     0
  9
$SPLINETYPE
 70
     6
  9
$SPLINESEGS
 70
     8
  9
$ATTDIA
 70
     0
  9
$ATTREQ
 70
     1
  9
$HANDLING
 70
     1
  9
$HANDSEED
  5
33C8F
  9
$SURFTAB1
 70
     6
  9
$SURFTAB2
 70
     6
  9
$SURFTYPE
 70
     6
  9
$SURFU
 70
     6
  9
$SURFV
 70
     6
  9
$UCSNAME
  2

  9
$UCSORG
 10
0.0
 20
0.0
 30
0.0
  9
$UCSXDIR
 10
1.0
 20
0.0
 30
0.0
  9
$UCSYDIR
 10
0.0
 20
1.0
 30
0.0
  9
$PUCSNAME
  2

  9
$PUCSORG
 10
0.0
 20
0.0
 30
0.0
  9
$PUCSXDIR
 10
1.0
 20
0.0
 30
0.0
  9
$PUCSYDIR
 10
0.0
 20
1.0
 30
0.0
  9
$USERI1
 70
     0
  9
$USERI2
 70
     0
  9
$USERI3
 70
     0
  9
$USERI4
 70
     0
  9
$USERI5
 70
     0
  9
$USERR1
 40
0.0
  9
$USERR2
 40
0.0
  9
$USERR3
 40
0.0
  9
$USERR4
 40
0.0
  9
$USERR5
 40
0.0
  9
$WORLDVIEW
 70
     1
  9
$SHADEDGE
 70
     3
  9
$SHADEDIF
 70
    70
  9
$TILEMODE
 70
     1
  9
$MAXACTVP
 70
    48
  9
$PLIMCHECK
 70
     0
  9
$PEXTMIN
 10
1.0750000242173181
 20
0.8249999641433474
 30
0.0
  9
$PEXTMAX
 10
9.6750002179558834
 20
7.4249996772901277
 30
0.0
  9
$PLIMMIN
 10
-0.1249995194082185
 20
-0.1249999981226883
  9
$PLIMMAX
 10
10.87500024029589
 20
8.3749997615814227
  9
$UNITMODE
 70
     0
  9
$VISRETAIN
 70
     1
  9
$PLINEGEN
 70
     0
  9
$PSLTSCALE
 70
     1
  0
ENDSEC
  0
SECTION
  2
TABLES
  0
TABLE
  2
VPORT
 70
     1
  0
VPORT
  2
*ACTIVE
 70
     0
 10
0.0
 20
0.0
 11
1.0
 21
1.0
 12
-3.3762706401621161
 22
15.155980126541071
 13
0.0
 23
0.0
 14
0.5
 24
0.5
 15
0.5
 25
0.5
 16
0.0
 26
0.0
 36
1.0
 17
0.0
 27
0.0
 37
0.0
 40
1.210922368381242
 41
2.062962962962962
 42
50.0
 43
0.0
 44
0.0
 50
0.0
 51
0.0
 71
    16
 72
   100
 73
     1
 74
     1
 75
     0
 76
     0
 77
     0
 78
     0
  0
ENDTAB
  0
TABLE
  2
LTYPE
 70
     1
  0
LTYPE
  2
CONTINUOUS
 70
     0
  3
Solid line
 72
    65
 73
     0
 40
0.0
  0
ENDTAB
  0
TABLE
  2
LAYER
 70
     1
  0
LAYER
  2
0
 70
     0
 62
     5
  6
CONTINUOUS
  0
ENDTAB
  0
TABLE
  2
STYLE
 70
     2
  0
STYLE
  2
STANDARD
 70
     0
 40
0.0
 41
1.0
 50
0.0
 71
     0
 42
0.125
  3
txt
  4

  0
STYLE
  2
P125
 70
     0
 40
0.125
 41
0.75
 50
15.0
 71
     0
 42
0.125
  3
print
  4

  0
ENDTAB
  0
TABLE
  2
VIEW
 70
     0
  0
ENDTAB
  0
TABLE
  2
UCS
 70
     0
  0
ENDTAB
  0
TABLE
  2
APPID
 70
    19
  0
APPID
  2
ACAD
 70
     0
  0
APPID
  2
ACADANNOTATIVE
 70
     0
  0
APPID
  2
ACAD_MLEADERVER
 70
     0
  0
APPID
  2
ACAD_PSEXT
 70
     0
  0
APPID
  2
ACAD_DSTYLE_DIMJAG
 70
     0
  0
APPID
  2
ACAD_DSTYLE_DIMTALN
 70
     0
  0
APPID
  2
ACAECLAYERSTANDARD
 70
     0
  0
APPID
  2
ACAD_EXEMPT_FROM_CAD_STAND
 70
     0
  0
APPID
  2
ACAD_DSTYLE_DIMBREAK
 70
     0
  0
APPID
  2
ACAUTHENVIRON
 70
     0
  0
APPID
  2
ACDBDYNAMICBLOCKTRUENAME
 70
     0
  0
APPID
  2
ACDBDYNAMICBLOCKGUID
 70
     0
  0
APPID
  2
ACDBBLOCKREPETAG
 70
     0
  0
APPID
  2
ACAD_DSTYLE_DIMRADIAL_EXTE
 70
     0
  0
APPID
  2
ACAD_NAV_VCDISPLAY
 70
     0
  0
APPID
  2
GRADIENTCOLOR1ACI
 70
     0
  0
APPID
  2
GRADIENTCOLOR2ACI
 70
     0
  0
APPID
  2
ACAD_EXEMPT_FROM_CAD_STANDARDS
 70
     0
  0
APPID
  2
ACCMTRANSPARENCY
 70
     0
  0
ENDTAB
  0
TABLE
  2
DIMSTYLE
 70
     1
  0
DIMSTYLE
  2
STANDARD
 70
     0
  3

  4

  5

  6

  7

 40
1.0
 41
0.18
 42
0.0625
 43
0.38
 44
0.18
 45
0.0
 46
0.0
 47
0.0
 48
0.0
140
0.18
141
0.09
142
0.0
143
25.399999999999999
144
1.0
145
0.0
146
1.0
147
0.09
 71
     0
 72
     0
 73
     1
 74
     1
 75
     0
 76
     0
 77
     0
 78
     0
170
     0
171
     2
172
     0
173
     0
174
     0
175
     0
176
     0
177
     0
178
     0
  0
ENDTAB
  0
ENDSEC
  0
SECTION
  2
BLOCKS
  0
BLOCK
  8
0
  2
$MODEL_SPACE
 70
     0
 10
0.0
 20
0.0
 30
0.0
  3
$MODEL_SPACE
  1

  0
ENDBLK
  5
8272
  8
0
  0
BLOCK
 67
     1
  8
0
  2
$PAPER_SPACE
 70
     0
 10
0.0
 20
0.0
 30
0.0
  3
$PAPER_SPACE
  1

  0
ENDBLK
  5
826E
 67
     1
  8
0
  0
ENDSEC
  0
SECTION
  2
ENTITIES
  0
TEXT
  5
5E73
  8
0
 10
-2.8604798619932281
 20
14.61285062839548
 30
0.0
 40
0.125
  1
SSL230
 41
0.7500000000000002
 51
15.0
  7
P125
 72
     2
 11
-2.3649441477075142
 21
14.67535062839548
 31
0.0
 73
     2
  0
LINE
  5
5E74
  8
0
 10
-3.7383975976996799
 20
14.69479289691664
 30
0.0
 11
-3.8316400976996809
 21
14.69479289691664
 31
0.0
  0
LINE
  5
5E75
  8
0
 10
-3.9403984286591331
 20
14.75083163941664
 30
0.0
 11
-4.1565710667486417
 21
14.750831639416649
 31
0.0
  0
LINE
  5
5E76
  8
0
 10
-3.8549507226996731
 20
14.75083163941664
 30
0.0
 11
-3.9403984286591331
 21
14.75083163941664
 31
0.0
  0
LINE
  5
5E77
  8
0
 10
-4.1621358450558699
 20
14.751505602112269
 30
0.0
 11
-4.3942395966532217
 21
14.808563745426371
 31
0.0
  0
ARC
  5
5E78
  8
0
 10
-4.1565710667486417
 20
14.774142264416639
 30
0.0
 40
0.023310625
 50
256.18882713889201
 51
270.0
  0
ARC
  5
5E79
  8
0
 10
-4.3892535552899341
 20
14.82884619485108
 30
0.0
 40
0.020886320000001
 50
180.0
 51
256.188827138894
  0
LINE
  5
5E7A
  8
0
 10
-3.6451550976996758
 20
14.612850511165711
 30
0.0
 11
-3.650283435199678
 21
14.612850511165711
 31
0.0
  0
ARC
  5
5E7B
  8
0
 10
-3.6451550976996758
 20
14.636161136165709
 30
0.0
 40
0.023310625
 50
270.0
 51
0.0
  0
LINE
  5
5E7C
  8
0
 10
-3.2537508457618332
 20
14.71795252870565
 30
0.0
 11
-3.456466778655968
 21
14.678548543002551
 31
0.0
  0
LINE
  5
5E7D
  8
0
 10
-3.4609146555938222
 20
14.678120261165709
 30
0.0
 11
-3.621844472699681
 21
14.678120261165709
 31
0.0
  0
ARC
  5
5E7E
  8
0
 10
-3.4609146555938222
 20
14.70143088616571
 30
0.0
 40
0.023310625
 50
270.0
 51
281.00000000000023
  0
LINE
  5
5E7F
  8
0
 10
-3.8549507226996731
 20
15.06494410206801
 30
0.0
 11
-3.8549507226996731
 21
14.718103521916641
 31
0.0
  0
ARC
  5
5E80
  8
0
 10
-3.8316400976996809
 20
14.718103521916641
 30
0.0
 40
0.023310625
 50
180.0
 51
270.0
  0
LINE
  5
5E81
  8
0
 10
-4.410139875289941
 20
14.828846195185641
 30
0.0
 11
-4.410139875289941
 21
15.06494410206801
 31
0.0
  0
LINE
  5
5E82
  8
0
 10
-3.621844472699681
 20
14.636161136165709
 30
0.0
 11
-3.621844472699681
 21
15.06494410206801
 31
0.0
  0
LINE
  5
5E83
  8
0
 10
-3.7383975976996799
 20
14.61285030548364
 30
0.0
 11
-3.7383975976996799
 21
15.06494410206801
 31
0.0
  0
LINE
  5
5E84
  8
0
 10
-3.2348880976996801
 20
14.74083487186881
 30
0.0
 11
-3.2348880976996801
 21
15.0604145111657
 31
0.0
  0
ARC
  5
5E85
  8
0
 10
-3.2581987226996798
 20
14.74083487186881
 30
0.0
 40
0.023310625
 50
281.00000000000023
 51
0.0
  0
LINE
  5
5E86
  8
0
 10
-3.650283435199678
 20
14.612850860825221
 30
0.0
 11
-3.7383975976996799
 21
14.61285030548364
 31
0.0
  0
LINE
  5
5E87
  8
0
 10
-3.7383975976996799
 20
15.43509530721937
 30
0.0
 11
-3.8316400976996809
 21
15.43509530721937
 31
0.0
  0
LINE
  5
5E88
  8
0
 10
-4.0802621786591331
 20
15.37905656471937
 30
0.0
 11
-4.1565710667486417
 21
15.37905656471937
 31
0.0
  0
LINE
  5
5E89
  8
0
 10
-3.8549507226996731
 20
15.37905656471937
 30
0.0
 11
-3.9403984286591331
 21
15.37905656471937
 31
0.0
  0
LINE
  5
5E8A
  8
0
 10
-4.162135845055861
 20
15.37838260202374
 30
0.0
 11
-4.3942395966532217
 21
15.32132445870965
 31
0.0
  0
ARC
  5
5E8B
  8
0
 10
-4.1565710667486417
 20
15.35574593971938
 30
0.0
 40
0.023310625
 50
90.0
 51
103.81117286110801
  0
ARC
  5
5E8C
  8
0
 10
-4.3892535552899341
 20
15.30104200928494
 30
0.0
 40
0.020886320000001
 50
103.8111728611059
 51
180.0
  0
LINE
  5
5E8D
  8
0
 10
-3.6451550976996758
 20
15.517037692970311
 30
0.0
 11
-3.650283435199678
 21
15.517037692970311
 31
0.0
  0
ARC
  5
5E8E
  8
0
 10
-3.6451550976996758
 20
15.49372706797031
 30
0.0
 40
0.023310625
 50
0.0
 51
90.0
  0
LINE
  5
5E8F
  8
0
 10
-3.2537508457618332
 20
15.41193567543036
 30
0.0
 11
-3.456466778655968
 21
15.45133966113346
 31
0.0
  0
LINE
  5
5E90
  8
0
 10
-3.4609146555938222
 20
15.45176794297031
 30
0.0
 11
-3.621844472699681
 21
15.45176794297031
 31
0.0
  0
ARC
  5
5E91
  8
0
 10
-3.4609146555938222
 20
15.42845731797031
 30
0.0
 40
0.023310625
 50
78.999999999999801
 51
90.0
  0
LINE
  5
5E92
  8
0
 10
-3.8549507226996731
 20
15.06494410206801
 30
0.0
 11
-3.8549507226996731
 21
15.41178468221938
 31
0.0
  0
ARC
  5
5E93
  8
0
 10
-3.8316400976996809
 20
15.41178468221938
 30
0.0
 40
0.023310625
 50
90.0
 51
180.0
  0
LINE
  5
5E94
  8
0
 10
-4.410139875289941
 20
15.30104200895037
 30
0.0
 11
-4.410139875289941
 21
15.06494410206801
 31
0.0
  0
LINE
  5
5E95
  8
0
 10
-3.621844472699681
 20
15.49372706797031
 30
0.0
 11
-3.621844472699681
 21
15.06494410206801
 31
0.0
  0
LINE
  5
5E96
  8
0
 10
-3.7383975976996799
 20
15.51703789865237
 30
0.0
 11
-3.7383975976996799
 21
15.06494410206801
 31
0.0
  0
LINE
  5
5E97
  8
0
 10
-3.2348880976996801
 20
15.389053332267199
 30
0.0
 11
-3.2348880976996801
 21
15.0604145111657
 31
0.0
  0
ARC
  5
5E98
  8
0
 10
-3.2581987226996798
 20
15.389053332267199
 30
0.0
 40
0.023310625
 50
0.0
 51
78.999999999999801
  0
LINE
  5
5E99
  8
0
 10
-4.0802621786591331
 20
15.63051742632509
 30
0.0
 11
-4.0802621786591331
 21
15.2567280818639
 31
0.0
  0
LINE
  5
5E9A
  8
0
 10
-3.9403984286591331
 20
15.25672808168701
 30
0.0
 11
-3.9403984286591331
 21
15.63051742632509
 31
0.0
  0
ARC
  5
5E9B
  8
0
 10
-4.0103303036591331
 20
15.06436312721938
 30
0.0
 40
0.0699318750000003
 50
180.0
 51
0.0
  0
LINE
  5
5E9C
  8
0
 10
-4.0802621786591331
 20
15.2567280818639
 30
0.0
 11
-4.0802621786591331
 21
15.06436312721938
 31
0.0
  0
LINE
  5
5E9D
  8
0
 10
-3.9403984286591331
 20
15.06436312721938
 30
0.0
 11
-3.9403984286591331
 21
15.25672808168701
 31
0.0
  0
LINE
  5
5E9E
  8
0
 10
-3.9403984286591331
 20
15.655194331714339
 30
0.0
 11
-4.0802621786591331
 21
15.655194332039679
 31
0.0
  0
LINE
  5
5E9F
  8
0
 10
-4.0802621786591331
 20
15.63051742632509
 30
0.0
 11
-4.0802621786591331
 21
15.655194332039679
 31
0.0
  0
LINE
  5
5EA0
  8
0
 10
-3.9403984286591331
 20
15.655194331714339
 30
0.0
 11
-3.9403984286591331
 21
15.63051742632509
 31
0.0
  0
LINE
  5
5EA1
  8
0
 10
-3.650283435199678
 20
15.51703734331079
 30
0.0
 11
-3.7383975976996799
 21
15.51703789865237
 31
0.0
  0
POLYLINE
  5
5EA2
  8
0
 66
     1
 10
0.0
 20
0.0
 30
0.0
  0
VERTEX
  5
33C46
  8
0
 10
-3.6710837669221341
 20
15.526322436586881
 30
0.0
  0
VERTEX
  5
33C47
  8
0
 10
-3.658266709211599
 20
15.526322436586881
 30
0.0
  0
VERTEX
  5
33C48
  8
0
 10
-3.6529334368756712
 20
15.531655708922811
 30
0.0
  0
VERTEX
  5
33C49
  8
0
 10
-3.6529334368756712
 20
15.61767623047003
 30
0.0
  0
VERTEX
  5
33C4A
  8
0
 10
-3.658266709211599
 20
15.62300950280596
 30
0.0
  0
VERTEX
  5
33C4B
  8
0
 10
-3.7121155557001551
 20
15.62300950280596
 30
0.0
  0
VERTEX
  5
33C4C
  8
0
 10
-3.7174488280360869
 20
15.61767623047003
 30
0.0
  0
VERTEX
  5
33C4D
  8
0
 10
-3.7174488280360869
 20
15.531655708922811
 30
0.0
  0
VERTEX
  5
33C4E
  8
0
 10
-3.7121155557001551
 20
15.526322436586881
 30
0.0
  0
VERTEX
  5
33C4F
  8
0
 10
-3.658266709211599
 20
15.526322436586881
 30
0.0
  0
SEQEND
  5
33C50
  8
0
  0
VIEWPORT
  5
1FE31
 67
     1
  8
0
 10
5.3750003604438357
 20
4.124999881729364
 30
0.0
 40
11.637999745766949
 41
9.2053265898804302
 68
     1
 69
     1
1001
ACAD
1000
MVIEW
1002
{
1070
    16
1010
0.0
1020
0.0
1030
0.0
1010
0.0
1020
0.0
1030
1.0
1040
0.0
1040
9.2053265898804302
1040
5.3750003604438357
1040
4.124999881729364
1040
50.0
1040
0.0
1040
0.0
1070
     0
1070
   100
1070
     1
1070
     1
1070
     0
1070
     0
1070
     0
1070
     0
1040
0.0
1040
0.0
1040
0.0
1040
0.5
1040
0.5
1040
0.5
1040
0.5
1070
     0
1002
{
1002
}
1002
}
  0
VIEWPORT
  5
1FE35
 67
     1
  8
0
 10
5.3750001210866012
 20
4.1249998207167371
 30
0.0
 40
8.6000001937385626
 41
6.5999997131467811
 68
     2
 69
     2
1001
ACAD
1000
MVIEW
1002
{
1070
    16
1010
0.0
1020
0.0
1030
0.0
1010
0.0
1020
0.0
1030
1.0
1040
0.0
1040
67.553026373456689
1040
4.2749751275075978
1040
33.547831964243848
1040
50.0
1040
0.0
1040
0.0
1070
     0
1070
   100
1070
     1
1070
     1
1070
     0
1070
     0
1070
     0
1070
     0
1040
0.0
1040
0.0
1040
0.0
1040
0.5
1040
0.5
1040
0.5
1040
0.5
1070
     0
1002
{
1002
}
1002
}
  0
ENDSEC
  0
EOF
