  0
SECTION
  2
HEADER
  9
$ACADVER
  1
AC1009
  9
$INSBASE
 10
0.0
 20
0.0
 30
0.0
  9
$EXTMIN
 10
-4.81126749423332
 20
12.31461966056913
 30
-0.0000000000112498
  9
$EXTMAX
 10
-2.393459742353456
 20
13.734537749070491
 30
0.0000000000002956
  9
$LIMMIN
 10
0.0
 20
0.0
  9
$LIMMAX
 10
12.0
 20
9.0
  9
$ORTHOMODE
 70
     1
  9
$REGENMODE
 70
     1
  9
$FILLMODE
 70
     1
  9
$QTEXTMODE
 70
     0
  9
$MIRRTEXT
 70
     1
  9
$DRAGMODE
 70
     2
  9
$LTSCALE
 40
1.0
  9
$OSMODE
 70
    39
  9
$ATTMODE
 70
     1
  9
$TEXTSIZE
 40
0.125
  9
$TRACEWID
 40
0.05
  9
$TEXTSTYLE
  7
STANDARD
  9
$CLAYER
  8
0
  9
$CELTYPE
  6
BYLAYER
  9
$CECOLOR
 62
   256
  9
$DIMSCALE
 40
1.0
  9
$DIMASZ
 40
0.18
  9
$DIMEXO
 40
0.0625
  9
$DIMDLI
 40
0.38
  9
$DIMRND
 40
0.0
  9
$DIMDLE
 40
0.0
  9
$DIMEXE
 40
0.18
  9
$DIMTP
 40
0.0
  9
$DIMTM
 40
0.0
  9
$DIMTXT
 40
0.18
  9
$DIMCEN
 40
0.09
  9
$DIMTSZ
 40
0.0
  9
$DIMTOL
 70
     0
  9
$DIMLIM
 70
     0
  9
$DIMTIH
 70
     1
  9
$DIMTOH
 70
     1
  9
$DIMSE1
 70
     0
  9
$DIMSE2
 70
     0
  9
$DIMTAD
 70
     0
  9
$DIMZIN
 70
     0
  9
$DIMBLK
  1

  9
$DIMASO
 70
     1
  9
$DIMSHO
 70
     1
  9
$DIMPOST
  1

  9
$DIMAPOST
  1

  9
$DIMALT
 70
     0
  9
$DIMALTD
 70
     2
  9
$DIMALTF
 40
25.399999999999999
  9
$DIMLFAC
 40
1.0
  9
$DIMTOFL
 70
     0
  9
$DIMTVP
 40
0.0
  9
$DIMTIX
 70
     0
  9
$DIMSOXD
 70
     0
  9
$DIMSAH
 70
     0
  9
$DIMBLK1
  1

  9
$DIMBLK2
  1

  9
$DIMSTYLE
  2
STANDARD
  9
$DIMCLRD
 70
     0
  9
$DIMCLRE
 70
     0
  9
$DIMCLRT
 70
     0
  9
$DIMTFAC
 40
1.0
  9
$DIMGAP
 40
0.09
  9
$LUNITS
 70
     2
  9
$LUPREC
 70
     4
  9
$SKETCHINC
 40
0.1
  9
$FILLETRAD
 40
0.0
  9
$AUNITS
 70
     0
  9
$AUPREC
 70
     0
  9
$MENU
  1
.
  9
$ELEVATION
 40
0.0
  9
$PELEVATION
 40
0.0
  9
$THICKNESS
 40
0.0
  9
$LIMCHECK
 70
     0
  9
$BLIPMODE
 70
     0
  9
$CHAMFERA
 40
0.5
  9
$CHAMFERB
 40
0.5
  9
$SKPOLY
 70
     0
  9
$TDCREATE
 40
2451269.39063993
  9
$TDUPDATE
 40
2458190.5410621641
  9
$TDINDWG
 40
2.2475367593
  9
$TDUSRTIMER
 40
2456088.0778581598
  9
$USRTIMER
 70
     1
  9
$ANGBASE
 50
0.0
  9
$ANGDIR
 70
     0
  9
$PDMODE
 70
     0
  9
$PDSIZE
 40
0.0
  9
$PLINEWID
 40
0.0
  9
$COORDS
 70
     1
  9
$SPLFRAME
 70
     0
  9
$SPLINETYPE
 70
     6
  9
$SPLINESEGS
 70
     8
  9
$ATTDIA
 70
     0
  9
$ATTREQ
 70
     1
  9
$HANDLING
 70
     1
  9
$HANDSEED
  5
344ED
  9
$SURFTAB1
 70
     6
  9
$SURFTAB2
 70
     6
  9
$SURFTYPE
 70
     6
  9
$SURFU
 70
     6
  9
$SURFV
 70
     6
  9
$UCSNAME
  2

  9
$UCSORG
 10
0.0
 20
0.0
 30
0.0
  9
$UCSXDIR
 10
1.0
 20
0.0
 30
0.0
  9
$UCSYDIR
 10
0.0
 20
1.0
 30
0.0
  9
$PUCSNAME
  2

  9
$PUCSORG
 10
0.0
 20
0.0
 30
0.0
  9
$PUCSXDIR
 10
1.0
 20
0.0
 30
0.0
  9
$PUCSYDIR
 10
0.0
 20
1.0
 30
0.0
  9
$USERI1
 70
     0
  9
$USERI2
 70
     0
  9
$USERI3
 70
     0
  9
$USERI4
 70
     0
  9
$USERI5
 70
     0
  9
$USERR1
 40
0.0
  9
$USERR2
 40
0.0
  9
$USERR3
 40
0.0
  9
$USERR4
 40
0.0
  9
$USERR5
 40
0.0
  9
$WORLDVIEW
 70
     1
  9
$SHADEDGE
 70
     3
  9
$SHADEDIF
 70
    70
  9
$TILEMODE
 70
     1
  9
$MAXACTVP
 70
    48
  9
$PLIMCHECK
 70
     0
  9
$PEXTMIN
 10
1.0750000242173181
 20
0.8249999641433474
 30
0.0
  9
$PEXTMAX
 10
9.6750002179558834
 20
7.4249996772901277
 30
0.0
  9
$PLIMMIN
 10
-0.1249995194082185
 20
-0.1249999981226883
  9
$PLIMMAX
 10
10.87500024029589
 20
8.3749997615814227
  9
$UNITMODE
 70
     0
  9
$VISRETAIN
 70
     1
  9
$PLINEGEN
 70
     0
  9
$PSLTSCALE
 70
     1
  0
ENDSEC
  0
SECTION
  2
TABLES
  0
TABLE
  2
VPORT
 70
     1
  0
VPORT
  2
*ACTIVE
 70
     0
 10
0.0
 20
0.0
 11
1.0
 21
1.0
 12
-3.6023636228489511
 22
13.024578702296409
 13
0.0
 23
0.0
 14
0.5
 24
0.5
 15
0.5
 25
0.5
 16
0.0
 26
0.0
 36
1.0
 17
0.0
 27
0.0
 37
0.0
 40
1.7449934022742151
 41
1.9964157706093191
 42
50.0
 43
0.0
 44
0.0
 50
0.0
 51
0.0
 71
    16
 72
   100
 73
     1
 74
     1
 75
     0
 76
     0
 77
     0
 78
     0
  0
ENDTAB
  0
TABLE
  2
LTYPE
 70
     3
  0
LTYPE
  2
CONTINUOUS
 70
     0
  3
Solid line
 72
    65
 73
     0
 40
0.0
  0
ENDTAB
  0
TABLE
  2
LAYER
 70
     2
  0
LAYER
  2
0
 70
     0
 62
     5
  6
CONTINUOUS
  0
ENDTAB
  0
TABLE
  2
STYLE
 70
     3
  0
STYLE
  2
STANDARD
 70
     0
 40
0.0
 41
1.0
 50
0.0
 71
     0
 42
0.125
  3
txt
  4

  0
STYLE
  2
P125
 70
     0
 40
0.125
 41
0.75
 50
15.0
 71
     0
 42
0.125
  3
print
  4

  0
ENDTAB
  0
TABLE
  2
VIEW
 70
     0
  0
ENDTAB
  0
TABLE
  2
UCS
 70
     0
  0
ENDTAB
  0
TABLE
  2
APPID
 70
    19
  0
APPID
  2
ACAD
 70
     0
  0
APPID
  2
ACADANNOTATIVE
 70
     0
  0
APPID
  2
ACAD_MLEADERVER
 70
     0
  0
APPID
  2
ACAD_PSEXT
 70
     0
  0
APPID
  2
ACAD_DSTYLE_DIMJAG
 70
     0
  0
APPID
  2
ACAD_DSTYLE_DIMTALN
 70
     0
  0
APPID
  2
ACAECLAYERSTANDARD
 70
     0
  0
APPID
  2
ACAD_EXEMPT_FROM_CAD_STAND
 70
     0
  0
APPID
  2
ACAD_DSTYLE_DIMBREAK
 70
     0
  0
APPID
  2
ACAUTHENVIRON
 70
     0
  0
APPID
  2
ACDBDYNAMICBLOCKTRUENAME
 70
     0
  0
APPID
  2
ACDBDYNAMICBLOCKGUID
 70
     0
  0
APPID
  2
ACDBBLOCKREPETAG
 70
     0
  0
APPID
  2
ACAD_DSTYLE_DIMRADIAL_EXTE
 70
     0
  0
APPID
  2
ACAD_NAV_VCDISPLAY
 70
     0
  0
APPID
  2
GRADIENTCOLOR1ACI
 70
     0
  0
APPID
  2
GRADIENTCOLOR2ACI
 70
     0
  0
APPID
  2
ACAD_EXEMPT_FROM_CAD_STANDARDS
 70
     0
  0
APPID
  2
ACCMTRANSPARENCY
 70
     0
  0
ENDTAB
  0
TABLE
  2
DIMSTYLE
 70
     1
  0
DIMSTYLE
  2
STANDARD
 70
     0
  3

  4

  5

  6

  7

 40
1.0
 41
0.18
 42
0.0625
 43
0.38
 44
0.18
 45
0.0
 46
0.0
 47
0.0
 48
0.0
140
0.18
141
0.09
142
0.0
143
25.399999999999999
144
1.0
145
0.0
146
1.0
147
0.09
 71
     0
 72
     0
 73
     1
 74
     1
 75
     0
 76
     0
 77
     0
 78
     0
170
     0
171
     2
172
     0
173
     0
174
     0
175
     0
176
     0
177
     0
178
     0
  0
ENDTAB
  0
ENDSEC
  0
SECTION
  2
BLOCKS
  0
BLOCK
  8
0
  2
$MODEL_SPACE
 70
     0
 10
0.0
 20
0.0
 30
0.0
  3
$MODEL_SPACE
  1

  0
ENDBLK
  5
8272
  8
0
  0
BLOCK
 67
     1
  8
0
  2
$PAPER_SPACE
 70
     0
 10
0.0
 20
0.0
 30
0.0
  3
$PAPER_SPACE
  1

  0
ENDBLK
  5
826E
 67
     1
  8
0
  0
ENDSEC
  0
SECTION
  2
ENTITIES
  0
ARC
  5
637C
  8
0
 10
-3.953371734778691
 20
13.5137260680676
 30
0.0
 40
0.02522853
 50
0.0000000000040329
 51
83.845797337633186
  0
LINE
  5
637D
  8
0
 10
-3.9722220388296829
 20
13.65482809803432
 30
0.0
 11
-3.978308887231238
 21
13.66091494643589
 31
0.0
  0
LINE
  5
637E
  8
0
 10
-3.9722220388296829
 20
13.556653123815559
 30
0.0
 11
-3.978308887231238
 21
13.550566275414001
 31
0.0
  0
LINE
  5
637F
  8
0
 10
-3.9722220388296829
 20
13.556653123815559
 30
0.0
 11
-3.9722220388296829
 21
13.65482809803432
 31
0.0
  0
LINE
  5
6380
  8
0
 10
-4.045853269493727
 20
13.65482809803432
 30
0.0
 11
-4.045853269493727
 21
13.556653123815559
 31
0.0
  0
LINE
  5
6381
  8
0
 10
-4.0397664210921782
 20
13.66091494643589
 30
0.0
 11
-4.045853269493727
 21
13.65482809803432
 31
0.0
  0
LINE
  5
6382
  8
0
 10
-4.0397664210921782
 20
13.550566275414001
 30
0.0
 11
-4.045853269493727
 21
13.556653123815559
 31
0.0
  0
LINE
  5
6383
  8
0
 10
-3.978308887231238
 20
13.66091494643589
 30
0.0
 11
-4.0397664210921782
 21
13.66091494643589
 31
0.0
  0
LINE
  5
6384
  8
0
 10
-3.978308887231238
 20
13.550566275414001
 30
0.0
 11
-4.0397664210921782
 21
13.550566275414001
 31
0.0
  0
LINE
  5
6385
  8
0
 10
-3.9506671182382078
 20
13.538809205338101
 30
0.0
 11
-4.061353366454231
 21
13.538809205338101
 31
0.0
  0
TEXT
  5
638F
  8
0
 10
-2.914051369059822
 20
12.31657809774571
 30
0.0
 40
0.125
  1
SSL238
 41
0.7500000000000001
 51
15.0
  7
P125
 72
     2
 11
-2.418515654774108
 21
12.37907809774571
 31
0.0
 73
     2
  0
ARC
  5
6390
  8
0
 10
-3.2809541379549612
 20
13.29028179046041
 30
0.0
 40
0.0353199419999999
 50
0.0
 51
75.034077458430133
  0
LINE
  5
6391
  8
0
 10
-3.2456341959549548
 20
12.92716199744679
 30
0.0
 11
-3.2456341959549548
 21
13.29028179046041
 31
0.0
  0
LINE
  5
6392
  8
0
 10
-3.2718329453999271
 20
13.32440366246734
 30
0.0
 11
-3.628328649986643
 21
13.42252895603761
 31
0.0
  0
ARC
  5
6393
  8
0
 10
-3.2809541379549612
 20
12.56404220443318
 30
0.0
 40
0.0353199419999999
 50
284.96592254156991
 51
0.0
  0
LINE
  5
6394
  8
0
 10
-3.2718329453999271
 20
12.52992033242626
 30
0.0
 11
-3.628328649986643
 21
12.431795038855981
 31
0.0
  0
LINE
  5
6395
  8
0
 10
-3.2456341959549548
 20
12.92716199744679
 30
0.0
 11
-3.2456341959549548
 21
12.56404220443318
 31
0.0
  0
LINE
  5
6396
  8
0
 10
-3.9281432047786851
 20
13.45433736032679
 30
0.0
 11
-3.8999091251426261
 21
13.427652193760141
 31
0.0
  0
ARC
  5
6397
  8
0
 10
-3.8870299229222631
 20
13.441278956037619
 30
0.0
 40
0.01875
 50
226.6155112906329
 51
270.0
  0
ARC
  5
6398
  8
0
 10
-4.1558089827742428
 20
13.45632521805476
 30
0.0
 40
0.01251335088
 50
90.0
 51
180.0
  0
LINE
  5
6399
  8
0
 10
-4.2114496803426711
 20
13.400058007687219
 30
0.0
 11
-4.1683223336542401
 21
13.399975798130249
 31
0.0
  0
LINE
  5
639A
  8
0
 10
-4.1558089827742428
 20
13.46883856893475
 30
0.0
 11
-4.061353366454231
 21
13.46883856893475
 31
0.0
  0
LINE
  5
639B
  8
0
 10
-4.1683223336542401
 20
12.92716199744679
 30
0.0
 11
-4.1683223336542401
 21
13.45632521805476
 31
0.0
  0
ARC
  5
639C
  8
0
 10
-3.953371734778691
 20
12.34059792682598
 30
0.0
 40
0.02522853
 50
276.1542026623668
 51
359.99999999999602
  0
ARC
  5
639D
  8
0
 10
-3.8870299229222631
 20
12.41304503885598
 30
0.0
 40
0.01875
 50
90.0
 51
133.38448870936699
  0
LINE
  5
639E
  8
0
 10
-3.9281432047786851
 20
12.39998663456679
 30
0.0
 11
-3.8999091251426261
 21
12.42667180113345
 31
0.0
  0
ARC
  5
639F
  8
0
 10
-4.1558089827742251
 20
12.39799877683884
 30
0.0
 40
0.01251335088
 50
180.0
 51
270.0
  0
LINE
  5
63A0
  8
0
 10
-4.1558089827742251
 20
12.38548542595886
 30
0.0
 11
-4.061353366454231
 21
12.38548542595886
 31
0.0
  0
LINE
  5
63A1
  8
0
 10
-3.9506671182382078
 20
12.315514789555509
 30
0.0
 11
-4.061353366454231
 21
12.315514789555509
 31
0.0
  0
LINE
  5
63A2
  8
0
 10
-4.061353366454231
 20
12.315514789555509
 30
0.0
 11
-4.061353366454231
 21
12.927161997446809
 31
0.0
  0
LINE
  5
63A3
  8
0
 10
-4.1683223336542401
 20
12.927161997446809
 30
0.0
 11
-4.1683223336542241
 21
12.39799877683884
 31
0.0
  0
LINE
  5
63A4
  8
0
 10
-3.9281432047786851
 20
12.92716199744679
 30
0.0
 11
-3.9281432047786851
 21
12.34053353488534
 31
0.0
  0
LINE
  5
63A5
  8
0
 10
-4.4223079203426749
 20
13.37622344567613
 30
0.0
 11
-4.4132779203426669
 21
13.37724416032766
 31
0.0
  0
ARC
  5
63A6
  8
0
 10
-4.7756235078142328
 20
13.245217935481451
 30
0.0
 40
0.0353199419999999
 50
104.9659225415699
 51
180.0
  0
LINE
  5
63A7
  8
0
 10
-4.81094344981424
 20
12.92716199744679
 30
0.0
 11
-4.81094344981424
 21
13.245217935481451
 31
0.0
  0
LINE
  5
63A8
  8
0
 10
-4.7847447003692611
 20
13.279339807488389
 30
0.0
 11
-4.4223079203426749
 21
13.37622344567613
 31
0.0
  0
ARC
  5
63A9
  8
0
 10
-4.7756235078142328
 20
12.609106059412159
 30
0.0
 40
0.0353199419999999
 50
180.0
 51
255.03407745843
  0
LINE
  5
63AA
  8
0
 10
-4.7847447003692611
 20
12.57498418740523
 30
0.0
 11
-4.4223079203426749
 21
12.47810054921745
 31
0.0
  0
LINE
  5
63AB
  8
0
 10
-4.81094344981424
 20
12.92716199744679
 30
0.0
 11
-4.81094344981424
 21
12.609106059412159
 31
0.0
  0
LINE
  5
63AC
  8
0
 10
-4.4223079203426749
 20
12.47810054921745
 30
0.0
 11
-4.1683223336542401
 21
12.450589922208071
 31
0.0
  0
LINE
  5
63AD
  8
0
 10
-3.8870299229222631
 20
12.431795038855981
 30
0.0
 11
-3.628328649986643
 21
12.431795038855981
 31
0.0
  0
LINE
  5
63AE
  8
0
 10
-3.8870299229222631
 20
13.42252895603761
 30
0.0
 11
-3.628328649986643
 21
13.42252895603761
 31
0.0
  0
LINE
  5
63E4
  8
0
 10
-4.061353366454231
 20
13.538809205338101
 30
0.0
 11
-4.061353366454231
 21
12.92716199744679
 31
0.0
  0
POLYLINE
  5
63E5
  8
0
 66
     1
 10
0.0
 20
0.0
 30
0.0
 70
     1
  0
VERTEX
  5
344A8
  8
0
 10
-4.2114496803426649
 20
13.73447495744678
 30
0.0
  0
VERTEX
  5
344A9
  8
0
 10
-4.2114496803426649
 20
12.92716199744679
 30
0.0
 42
-0.9999999999999998
  0
VERTEX
  5
344AA
  8
0
 10
-4.4132779203426669
 20
12.92716199744679
 30
0.0
  0
VERTEX
  5
344AB
  8
0
 10
-4.4132779203426669
 20
13.73447495744678
 30
0.0
  0
SEQEND
  5
344AC
  8
0
  0
LINE
  5
63E6
  8
0
 10
-3.9281432047786851
 20
12.927161997446809
 30
0.0
 11
-3.9281432047786851
 21
13.51379046000824
 31
0.0
  0
VIEWPORT
  5
1FE31
 67
     1
  8
0
 10
5.3750003604438357
 20
4.124999881729364
 30
0.0
 40
11.637999745766949
 41
9.2053265898804302
 68
     1
 69
     1
1001
ACAD
1000
MVIEW
1002
{
1070
    16
1010
0.0
1020
0.0
1030
0.0
1010
0.0
1020
0.0
1030
1.0
1040
0.0
1040
9.2053265898804302
1040
5.3750003604438357
1040
4.124999881729364
1040
50.0
1040
0.0
1040
0.0
1070
     0
1070
   100
1070
     1
1070
     1
1070
     0
1070
     0
1070
     0
1070
     0
1040
0.0
1040
0.0
1040
0.0
1040
0.5
1040
0.5
1040
0.5
1040
0.5
1070
     0
1002
{
1002
}
1002
}
  0
VIEWPORT
  5
1FE35
 67
     1
  8
0
 10
5.3750001210866012
 20
4.1249998207167371
 30
0.0
 40
8.6000001937385626
 41
6.5999997131467811
 68
     2
 69
     2
1001
ACAD
1000
MVIEW
1002
{
1070
    16
1010
0.0
1020
0.0
1030
0.0
1010
0.0
1020
0.0
1030
1.0
1040
0.0
1040
67.553026373456689
1040
4.2749751275075978
1040
33.547831964243848
1040
50.0
1040
0.0
1040
0.0
1070
     0
1070
   100
1070
     1
1070
     1
1070
     0
1070
     0
1070
     0
1070
     0
1040
0.0
1040
0.0
1040
0.0
1040
0.5
1040
0.5
1040
0.5
1040
0.5
1070
     0
1002
{
1002
}
1002
}
  0
ENDSEC
  0
EOF
