  0
SECTION
  2
HEADER
  9
$ACADVER
  1
AC1009
  9
$INSBASE
 10
0.0
 20
0.0
 30
0.0
  9
$EXTMIN
 10
-0.4129503650432289
 20
5.2164016116379459
 30
0.0
  9
$EXTMAX
 10
1.3924270191573651
 20
6.0976369819998757
 30
0.0
  9
$LIMMIN
 10
0.0
 20
0.0
  9
$LIMMAX
 10
12.0
 20
9.0
  9
$ORTHOMODE
 70
     1
  9
$REGENMODE
 70
     1
  9
$FILLMODE
 70
     1
  9
$QTEXTMODE
 70
     0
  9
$MIRRTEXT
 70
     1
  9
$DRAGMODE
 70
     2
  9
$LTSCALE
 40
1.0
  9
$OSMODE
 70
    39
  9
$ATTMODE
 70
     1
  9
$TEXTSIZE
 40
0.125
  9
$TRACEWID
 40
0.05
  9
$TEXTSTYLE
  7
STANDARD
  9
$CLAYER
  8
0
  9
$CELTYPE
  6
BYLAYER
  9
$CECOLOR
 62
   256
  9
$DIMSCALE
 40
1.0
  9
$DIMASZ
 40
0.18
  9
$DIMEXO
 40
0.0625
  9
$DIMDLI
 40
0.38
  9
$DIMRND
 40
0.0
  9
$DIMDLE
 40
0.0
  9
$DIMEXE
 40
0.18
  9
$DIMTP
 40
0.0
  9
$DIMTM
 40
0.0
  9
$DIMTXT
 40
0.18
  9
$DIMCEN
 40
0.09
  9
$DIMTSZ
 40
0.0
  9
$DIMTOL
 70
     0
  9
$DIMLIM
 70
     0
  9
$DIMTIH
 70
     1
  9
$DIMTOH
 70
     1
  9
$DIMSE1
 70
     0
  9
$DIMSE2
 70
     0
  9
$DIMTAD
 70
     0
  9
$DIMZIN
 70
     0
  9
$DIMBLK
  1

  9
$DIMASO
 70
     1
  9
$DIMSHO
 70
     1
  9
$DIMPOST
  1

  9
$DIMAPOST
  1

  9
$DIMALT
 70
     0
  9
$DIMALTD
 70
     2
  9
$DIMALTF
 40
25.399999999999999
  9
$DIMLFAC
 40
1.0
  9
$DIMTOFL
 70
     0
  9
$DIMTVP
 40
0.0
  9
$DIMTIX
 70
     0
  9
$DIMSOXD
 70
     0
  9
$DIMSAH
 70
     0
  9
$DIMBLK1
  1

  9
$DIMBLK2
  1

  9
$DIMSTYLE
  2
STANDARD
  9
$DIMCLRD
 70
     0
  9
$DIMCLRE
 70
     0
  9
$DIMCLRT
 70
     0
  9
$DIMTFAC
 40
1.0
  9
$DIMGAP
 40
0.09
  9
$LUNITS
 70
     2
  9
$LUPREC
 70
     4
  9
$SKETCHINC
 40
0.1
  9
$FILLETRAD
 40
0.0
  9
$AUNITS
 70
     0
  9
$AUPREC
 70
     0
  9
$MENU
  1
.
  9
$ELEVATION
 40
0.0
  9
$PELEVATION
 40
0.0
  9
$THICKNESS
 40
0.0
  9
$LIMCHECK
 70
     0
  9
$BLIPMODE
 70
     0
  9
$CHAMFERA
 40
0.5
  9
$CHAMFERB
 40
0.5
  9
$SKPOLY
 70
     0
  9
$TDCREATE
 40
2451269.39063993
  9
$TDUPDATE
 40
2458190.5408244329
  9
$TDINDWG
 40
2.0132009259000001
  9
$TDUSRTIMER
 40
2456087.843522327
  9
$USRTIMER
 70
     1
  9
$ANGBASE
 50
0.0
  9
$ANGDIR
 70
     0
  9
$PDMODE
 70
     0
  9
$PDSIZE
 40
0.0
  9
$PLINEWID
 40
0.0
  9
$COORDS
 70
     1
  9
$SPLFRAME
 70
     0
  9
$SPLINETYPE
 70
     6
  9
$SPLINESEGS
 70
     8
  9
$ATTDIA
 70
     0
  9
$ATTREQ
 70
     1
  9
$HANDLING
 70
     1
  9
$HANDSEED
  5
33EED
  9
$SURFTAB1
 70
     6
  9
$SURFTAB2
 70
     6
  9
$SURFTYPE
 70
     6
  9
$SURFU
 70
     6
  9
$SURFV
 70
     6
  9
$UCSNAME
  2

  9
$UCSORG
 10
0.0
 20
0.0
 30
0.0
  9
$UCSXDIR
 10
1.0
 20
0.0
 30
0.0
  9
$UCSYDIR
 10
0.0
 20
1.0
 30
0.0
  9
$PUCSNAME
  2

  9
$PUCSORG
 10
0.0
 20
0.0
 30
0.0
  9
$PUCSXDIR
 10
1.0
 20
0.0
 30
0.0
  9
$PUCSYDIR
 10
0.0
 20
1.0
 30
0.0
  9
$USERI1
 70
     0
  9
$USERI2
 70
     0
  9
$USERI3
 70
     0
  9
$USERI4
 70
     0
  9
$USERI5
 70
     0
  9
$USERR1
 40
0.0
  9
$USERR2
 40
0.0
  9
$USERR3
 40
0.0
  9
$USERR4
 40
0.0
  9
$USERR5
 40
0.0
  9
$WORLDVIEW
 70
     1
  9
$SHADEDGE
 70
     3
  9
$SHADEDIF
 70
    70
  9
$TILEMODE
 70
     1
  9
$MAXACTVP
 70
    48
  9
$PLIMCHECK
 70
     0
  9
$PEXTMIN
 10
1.0750000242173181
 20
0.8249999641433474
 30
0.0
  9
$PEXTMAX
 10
9.6750002179558834
 20
7.4249996772901277
 30
0.0
  9
$PLIMMIN
 10
-0.1249995194082185
 20
-0.1249999981226883
  9
$PLIMMAX
 10
10.87500024029589
 20
8.3749997615814227
  9
$UNITMODE
 70
     0
  9
$VISRETAIN
 70
     1
  9
$PLINEGEN
 70
     0
  9
$PSLTSCALE
 70
     1
  0
ENDSEC
  0
SECTION
  2
TABLES
  0
TABLE
  2
VPORT
 70
     1
  0
VPORT
  2
*ACTIVE
 70
     0
 10
0.0
 20
0.0
 11
1.0
 21
1.0
 12
0.4895091671453109
 22
5.6774890288321824
 13
0.0
 23
0.0
 14
0.5
 24
0.5
 15
0.5
 25
0.5
 16
0.0
 26
0.0
 36
1.0
 17
0.0
 27
0.0
 37
0.0
 40
1.152236728861727
 41
1.9964157706093191
 42
50.0
 43
0.0
 44
0.0
 50
0.0
 51
0.0
 71
    16
 72
   100
 73
     1
 74
     1
 75
     0
 76
     0
 77
     0
 78
     0
  0
ENDTAB
  0
TABLE
  2
LTYPE
 70
     3
  0
LTYPE
  2
CONTINUOUS
 70
     0
  3
Solid line
 72
    65
 73
     0
 40
0.0
  0
ENDTAB
  0
TABLE
  2
LAYER
 70
     2
  0
LAYER
  2
0
 70
     0
 62
     5
  6
CONTINUOUS
  0
ENDTAB
  0
TABLE
  2
STYLE
 70
     3
  0
STYLE
  2
STANDARD
 70
     0
 40
0.0
 41
1.0
 50
0.0
 71
     0
 42
0.125
  3
txt
  4

  0
STYLE
  2
P125
 70
     0
 40
0.125
 41
0.75
 50
15.0
 71
     0
 42
0.125
  3
print
  4

  0
ENDTAB
  0
TABLE
  2
VIEW
 70
     0
  0
ENDTAB
  0
TABLE
  2
UCS
 70
     0
  0
ENDTAB
  0
TABLE
  2
APPID
 70
    19
  0
APPID
  2
ACAD
 70
     0
  0
APPID
  2
ACADANNOTATIVE
 70
     0
  0
APPID
  2
ACAD_MLEADERVER
 70
     0
  0
APPID
  2
ACAD_PSEXT
 70
     0
  0
APPID
  2
ACAD_DSTYLE_DIMJAG
 70
     0
  0
APPID
  2
ACAD_DSTYLE_DIMTALN
 70
     0
  0
APPID
  2
ACAECLAYERSTANDARD
 70
     0
  0
APPID
  2
ACAD_EXEMPT_FROM_CAD_STAND
 70
     0
  0
APPID
  2
ACAD_DSTYLE_DIMBREAK
 70
     0
  0
APPID
  2
ACAUTHENVIRON
 70
     0
  0
APPID
  2
ACDBDYNAMICBLOCKTRUENAME
 70
     0
  0
APPID
  2
ACDBDYNAMICBLOCKGUID
 70
     0
  0
APPID
  2
ACDBBLOCKREPETAG
 70
     0
  0
APPID
  2
ACAD_DSTYLE_DIMRADIAL_EXTE
 70
     0
  0
APPID
  2
ACAD_NAV_VCDISPLAY
 70
     0
  0
APPID
  2
GRADIENTCOLOR1ACI
 70
     0
  0
APPID
  2
GRADIENTCOLOR2ACI
 70
     0
  0
APPID
  2
ACAD_EXEMPT_FROM_CAD_STANDARDS
 70
     0
  0
APPID
  2
ACCMTRANSPARENCY
 70
     0
  0
ENDTAB
  0
TABLE
  2
DIMSTYLE
 70
     1
  0
DIMSTYLE
  2
STANDARD
 70
     0
  3

  4

  5

  6

  7

 40
1.0
 41
0.18
 42
0.0625
 43
0.38
 44
0.18
 45
0.0
 46
0.0
 47
0.0
 48
0.0
140
0.18
141
0.09
142
0.0
143
25.399999999999999
144
1.0
145
0.0
146
1.0
147
0.09
 71
     0
 72
     0
 73
     1
 74
     1
 75
     0
 76
     0
 77
     0
 78
     0
170
     0
171
     2
172
     0
173
     0
174
     0
175
     0
176
     0
177
     0
178
     0
  0
ENDTAB
  0
ENDSEC
  0
SECTION
  2
BLOCKS
  0
BLOCK
  8
0
  2
$MODEL_SPACE
 70
     0
 10
0.0
 20
0.0
 30
0.0
  3
$MODEL_SPACE
  1

  0
ENDBLK
  5
8272
  8
0
  0
BLOCK
 67
     1
  8
0
  2
$PAPER_SPACE
 70
     0
 10
0.0
 20
0.0
 30
0.0
  3
$PAPER_SPACE
  1

  0
ENDBLK
  5
826E
 67
     1
  8
0
  0
ENDSEC
  0
SECTION
  2
ENTITIES
  0
TEXT
  5
64E2
  8
0
 10
0.8742416842089779
 20
5.2201955729346672
 30
0.0
 40
0.125
  1
SSL260
 41
0.7500000000000001
 51
15.0
  7
P125
 72
     2
 11
1.3697773984946919
 21
5.2826955729346672
 31
0.0
 73
     2
  0
LINE
  5
64E3
  8
0
 10
0.1801069969638842
 20
5.8648145962598219
 30
0.0
 11
0.0682315626022625
 21
5.8648145962598219
 31
0.0
  0
LINE
  5
64E4
  8
0
 10
0.1554718960541876
 20
5.864814596259837
 30
0.0
 11
0.1801069969638842
 21
5.864814596259837
 31
0.0
  0
ARC
  5
64E5
  8
0
 10
0.1801069969638842
 20
5.8551367905192091
 30
0.0
 40
0.009677805740625
 50
0.0
 51
90.0
  0
LINE
  5
64E6
  8
0
 10
0.1897848027045112
 20
5.8551367905192091
 30
0.0
 11
0.189784802704505
 21
5.8075300211016598
 31
0.0
  0
ARC
  5
64E7
  8
0
 10
0.2017852818228842
 20
5.8075300211016598
 30
0.0
 40
0.012000479118375
 50
180.0
 51
270.0
  0
LINE
  5
64E8
  8
0
 10
0.3443288351007716
 20
5.7955295419832673
 30
0.0
 11
0.2017852818228842
 21
5.7955295419832673
 31
0.0
  0
LINE
  5
64E9
  8
0
 10
-0.1477340214809306
 20
6.0976369819998757
 30
0.0
 11
0.0224222285190674
 21
6.0976369819998757
 31
0.0
  0
LINE
  5
64EA
  8
0
 10
0.506007538630801
 20
5.3195329150735802
 30
0.0
 11
0.345337116368837
 21
5.2856866659145076
 31
0.0
  0
ARC
  5
64EB
  8
0
 10
0.5040126298210855
 20
5.7522133264676594
 30
0.0
 40
0.009677805740625
 50
0.0
 51
78.104206413511903
  0
LINE
  5
64EC
  8
0
 10
0.5136904355617135
 20
5.3290028814301156
 30
0.0
 11
0.5136904355617135
 21
5.7522133264676594
 31
0.0
  0
ARC
  5
64ED
  8
0
 10
0.5040126298210855
 20
5.3290028814301156
 30
0.0
 40
0.009677805740625
 50
281.8957935864874
 51
0.0
  0
LINE
  5
64EE
  8
0
 10
0.0682315626022625
 20
5.2164016116379459
 30
0.0
 11
0.1801069969638842
 21
5.2164016116379459
 31
0.0
  0
LINE
  5
64EF
  8
0
 10
0.0682315626022625
 20
5.7901859806364397
 30
0.0
 11
0.0224222285190674
 21
5.7895806228347872
 31
0.0
  0
ARC
  5
64F0
  8
0
 10
0.2017852818228789
 20
5.2736861867961187
 30
0.0
 40
0.012000479118375
 50
89.999999999999204
 51
180.00000000000841
  0
LINE
  5
64F1
  8
0
 10
0.1897848027045112
 20
5.2260794173785783
 30
0.0
 11
0.189784802704505
 21
5.2736861867961329
 31
0.0
  0
ARC
  5
64F2
  8
0
 10
0.1801069969638842
 20
5.2260794173785783
 30
0.0
 40
0.009677805740625
 50
270.0
 51
0.0
  0
LINE
  5
64F3
  8
0
 10
0.345337116368837
 20
5.2856866659145076
 30
0.0
 11
0.2017852818228789
 21
5.2856866659144961
 31
0.0
  0
LINE
  5
64F4
  8
0
 10
-0.2030879179119438
 20
5.78660056802235
 30
0.0
 11
-0.4129503650432227
 21
5.7216854890368083
 31
0.0
  0
LINE
  5
64F5
  8
0
 10
-0.2030879179119438
 20
5.2946156549340051
 30
0.0
 11
-0.4129503650432289
 21
5.3595307339195477
 31
0.0
  0
LINE
  5
64F6
  8
0
 10
-0.4129503650432289
 20
5.3595307339195477
 30
0.0
 11
-0.4129503650432227
 21
5.7216854890368083
 31
0.0
  0
LINE
  5
64F7
  8
0
 10
-0.1477340214809306
 20
5.7873320546009186
 30
0.0
 11
-0.2030879179119438
 21
5.78660056802235
 31
0.0
  0
LINE
  5
64F8
  8
0
 10
-0.2030879179119438
 20
5.2946156549340051
 30
0.0
 11
-0.2030879179119438
 21
5.78660056802235
 31
0.0
  0
ARC
  5
64F9
  8
0
 10
-0.0626558964809254
 20
5.5406081114781784
 30
0.0
 40
0.085078125
 50
180.0
 51
0.0
  0
LINE
  5
64FA
  8
0
 10
0.0682315626022625
 20
5.2910302423199278
 30
0.0
 11
-0.2030879179119438
 21
5.2946156549340051
 31
0.0
  0
LINE
  5
64FB
  8
0
 10
0.0224222285190674
 20
5.5406081114781784
 30
0.0
 11
0.0224222285190674
 21
6.0976369819998757
 31
0.0
  0
LINE
  5
64FC
  8
0
 10
-0.1477340214809306
 20
5.5406081114781784
 30
0.0
 11
-0.1477340214809306
 21
6.0976369819998757
 31
0.0
  0
LINE
  5
64FD
  8
0
 10
0.0682315626022625
 20
5.2164016116379459
 30
0.0
 11
0.0682315626022625
 21
5.8648145962598219
 31
0.0
  0
LINE
  5
64FE
  8
0
 10
0.506007538630801
 20
5.7616832928242072
 30
0.0
 11
0.3443288351007716
 21
5.7955295419832673
 31
0.0
  0
LINE
  5
64FF
  8
0
 10
0.189784802704505
 20
5.2736861867961187
 30
0.0
 11
0.189784802704505
 21
5.8075300211016598
 31
0.0
  0
VIEWPORT
  5
1FE31
 67
     1
  8
0
 10
5.3750003604438357
 20
4.124999881729364
 30
0.0
 40
11.637999745766949
 41
9.2053265898804302
 68
     1
 69
     1
1001
ACAD
1000
MVIEW
1002
{
1070
    16
1010
0.0
1020
0.0
1030
0.0
1010
0.0
1020
0.0
1030
1.0
1040
0.0
1040
9.2053265898804302
1040
5.3750003604438357
1040
4.124999881729364
1040
50.0
1040
0.0
1040
0.0
1070
     0
1070
   100
1070
     1
1070
     1
1070
     0
1070
     0
1070
     0
1070
     0
1040
0.0
1040
0.0
1040
0.0
1040
0.5
1040
0.5
1040
0.5
1040
0.5
1070
     0
1002
{
1002
}
1002
}
  0
VIEWPORT
  5
1FE35
 67
     1
  8
0
 10
5.3750001210866012
 20
4.1249998207167371
 30
0.0
 40
8.6000001937385626
 41
6.5999997131467811
 68
     2
 69
     2
1001
ACAD
1000
MVIEW
1002
{
1070
    16
1010
0.0
1020
0.0
1030
0.0
1010
0.0
1020
0.0
1030
1.0
1040
0.0
1040
67.553026373456689
1040
4.2749751275075978
1040
33.547831964243848
1040
50.0
1040
0.0
1040
0.0
1070
     0
1070
   100
1070
     1
1070
     1
1070
     0
1070
     0
1070
     0
1070
     0
1040
0.0
1040
0.0
1040
0.0
1040
0.5
1040
0.5
1040
0.5
1040
0.5
1070
     0
1002
{
1002
}
1002
}
  0
ENDSEC
  0
EOF
