  0
SECTION
  2
HEADER
  9
$ACADVER
  1
AC1009
  9
$INSBASE
 10
0.0
 20
0.0
 30
0.0
  9
$EXTMIN
 10
-0.2413228106354468
 20
14.042083554251951
 30
0.0
  9
$EXTMAX
 10
1.429736165012107
 20
15.043036763124871
 30
0.0
  9
$LIMMIN
 10
0.0
 20
0.0
  9
$LIMMAX
 10
12.0
 20
9.0
  9
$ORTHOMODE
 70
     1
  9
$REGENMODE
 70
     1
  9
$FILLMODE
 70
     1
  9
$QTEXTMODE
 70
     0
  9
$MIRRTEXT
 70
     1
  9
$DRAGMODE
 70
     2
  9
$LTSCALE
 40
1.0
  9
$OSMODE
 70
  4095
  9
$ATTMODE
 70
     1
  9
$TEXTSIZE
 40
0.125
  9
$TRACEWID
 40
0.05
  9
$TEXTSTYLE
  7
STANDARD
  9
$CLAYER
  8
0
  9
$CELTYPE
  6
BYLAYER
  9
$CECOLOR
 62
   256
  9
$DIMSCALE
 40
1.0
  9
$DIMASZ
 40
0.18
  9
$DIMEXO
 40
0.0625
  9
$DIMDLI
 40
0.38
  9
$DIMRND
 40
0.0
  9
$DIMDLE
 40
0.0
  9
$DIMEXE
 40
0.18
  9
$DIMTP
 40
0.0
  9
$DIMTM
 40
0.0
  9
$DIMTXT
 40
0.18
  9
$DIMCEN
 40
0.09
  9
$DIMTSZ
 40
0.0
  9
$DIMTOL
 70
     0
  9
$DIMLIM
 70
     0
  9
$DIMTIH
 70
     1
  9
$DIMTOH
 70
     1
  9
$DIMSE1
 70
     0
  9
$DIMSE2
 70
     0
  9
$DIMTAD
 70
     0
  9
$DIMZIN
 70
     0
  9
$DIMBLK
  1

  9
$DIMASO
 70
     1
  9
$DIMSHO
 70
     1
  9
$DIMPOST
  1

  9
$DIMAPOST
  1

  9
$DIMALT
 70
     0
  9
$DIMALTD
 70
     2
  9
$DIMALTF
 40
25.399999999999999
  9
$DIMLFAC
 40
1.0
  9
$DIMTOFL
 70
     0
  9
$DIMTVP
 40
0.0
  9
$DIMTIX
 70
     0
  9
$DIMSOXD
 70
     0
  9
$DIMSAH
 70
     0
  9
$DIMBLK1
  1

  9
$DIMBLK2
  1

  9
$DIMSTYLE
  2
STANDARD
  9
$DIMCLRD
 70
     0
  9
$DIMCLRE
 70
     0
  9
$DIMCLRT
 70
     0
  9
$DIMTFAC
 40
1.0
  9
$DIMGAP
 40
0.09
  9
$LUNITS
 70
     2
  9
$LUPREC
 70
     4
  9
$SKETCHINC
 40
0.1
  9
$FILLETRAD
 40
0.0
  9
$AUNITS
 70
     0
  9
$AUPREC
 70
     0
  9
$MENU
  1
.
  9
$ELEVATION
 40
0.0
  9
$PELEVATION
 40
0.0
  9
$THICKNESS
 40
0.0
  9
$LIMCHECK
 70
     0
  9
$BLIPMODE
 70
     0
  9
$CHAMFERA
 40
0.5
  9
$CHAMFERB
 40
0.5
  9
$SKPOLY
 70
     0
  9
$TDCREATE
 40
2451269.39063993
  9
$TDUPDATE
 40
2458018.4563748841
  9
$TDINDWG
 40
2.0089928588000001
  9
$TDUSRTIMER
 40
2456087.8393142601
  9
$USRTIMER
 70
     1
  9
$ANGBASE
 50
0.0
  9
$ANGDIR
 70
     0
  9
$PDMODE
 70
     0
  9
$PDSIZE
 40
0.0
  9
$PLINEWID
 40
0.0
  9
$COORDS
 70
     2
  9
$SPLFRAME
 70
     0
  9
$SPLINETYPE
 70
     6
  9
$SPLINESEGS
 70
     8
  9
$ATTDIA
 70
     0
  9
$ATTREQ
 70
     1
  9
$HANDLING
 70
     1
  9
$HANDSEED
  5
342EA
  9
$SURFTAB1
 70
     6
  9
$SURFTAB2
 70
     6
  9
$SURFTYPE
 70
     6
  9
$SURFU
 70
     6
  9
$SURFV
 70
     6
  9
$UCSNAME
  2

  9
$UCSORG
 10
0.0
 20
0.0
 30
0.0
  9
$UCSXDIR
 10
1.0
 20
0.0
 30
0.0
  9
$UCSYDIR
 10
0.0
 20
1.0
 30
0.0
  9
$PUCSNAME
  2

  9
$PUCSORG
 10
0.0
 20
0.0
 30
0.0
  9
$PUCSXDIR
 10
1.0
 20
0.0
 30
0.0
  9
$PUCSYDIR
 10
0.0
 20
1.0
 30
0.0
  9
$USERI1
 70
     0
  9
$USERI2
 70
     0
  9
$USERI3
 70
     0
  9
$USERI4
 70
     0
  9
$USERI5
 70
     0
  9
$USERR1
 40
0.0
  9
$USERR2
 40
0.0
  9
$USERR3
 40
0.0
  9
$USERR4
 40
0.0
  9
$USERR5
 40
0.0
  9
$WORLDVIEW
 70
     1
  9
$SHADEDGE
 70
     3
  9
$SHADEDIF
 70
    70
  9
$TILEMODE
 70
     1
  9
$MAXACTVP
 70
    48
  9
$PLIMCHECK
 70
     0
  9
$PEXTMIN
 10
1.0750000242173181
 20
0.8249999641433474
 30
0.0
  9
$PEXTMAX
 10
9.6750002179558834
 20
7.4249996772901277
 30
0.0
  9
$PLIMMIN
 10
-0.1249995194082185
 20
-0.1249999981226883
  9
$PLIMMAX
 10
10.87500024029589
 20
8.3749997615814227
  9
$UNITMODE
 70
     0
  9
$VISRETAIN
 70
     1
  9
$PLINEGEN
 70
     0
  9
$PSLTSCALE
 70
     1
  0
ENDSEC
  0
SECTION
  2
TABLES
  0
TABLE
  2
VPORT
 70
     1
  0
VPORT
  2
*ACTIVE
 70
     0
 10
0.0
 20
0.0
 11
1.0
 21
1.0
 12
0.6042847531399431
 22
14.54242645588984
 13
0.0
 23
0.0
 14
0.5
 24
0.5
 15
0.5
 25
0.5
 16
0.0
 26
0.0
 36
1.0
 17
0.0
 27
0.0
 37
0.0
 40
0.9710452324602469
 41
1.8260273972602741
 42
50.0
 43
0.0
 44
0.0
 50
0.0
 51
0.0
 71
    16
 72
   100
 73
     1
 74
     1
 75
     0
 76
     0
 77
     0
 78
     0
  0
ENDTAB
  0
TABLE
  2
LTYPE
 70
     3
  0
LTYPE
  2
CONTINUOUS
 70
     0
  3
Solid line
 72
    65
 73
     0
 40
0.0
  0
LTYPE
  2
ACAD_DYNDIM_LINETYPE
 70
     0
  3
Dot (.5x) .....................................
 72
    83
 73
     2
 40
0.125
 49
0.0
 49
-0.125
  0
ENDTAB
  0
TABLE
  2
LAYER
 70
     2
  0
LAYER
  2
0
 70
     0
 62
     5
  6
CONTINUOUS
  0
LAYER
  2
DEFPOINTS
 70
     0
 62
     7
  6
CONTINUOUS
  0
ENDTAB
  0
TABLE
  2
STYLE
 70
     3
  0
STYLE
  2
STANDARD
 70
     0
 40
0.0
 41
1.0
 50
0.0
 71
     0
 42
0.125
  3
txt
  4

  0
STYLE
  2
P125
 70
     0
 40
0.125
 41
0.75
 50
15.0
 71
     0
 42
0.125
  3
print
  4

  0
STYLE
  2
P250
 70
     0
 40
0.25
 41
0.75
 50
15.0
 71
     0
 42
0.25
  3
print
  4

  0
ENDTAB
  0
TABLE
  2
VIEW
 70
     0
  0
ENDTAB
  0
TABLE
  2
UCS
 70
     0
  0
ENDTAB
  0
TABLE
  2
APPID
 70
    19
  0
APPID
  2
ACAD
 70
     0
  0
APPID
  2
ACADANNOTATIVE
 70
     0
  0
APPID
  2
ACAD_MLEADERVER
 70
     0
  0
APPID
  2
ACAD_PSEXT
 70
     0
  0
APPID
  2
ACAD_DSTYLE_DIMJAG
 70
     0
  0
APPID
  2
ACAD_DSTYLE_DIMTALN
 70
     0
  0
APPID
  2
ACAECLAYERSTANDARD
 70
     0
  0
APPID
  2
ACAD_EXEMPT_FROM_CAD_STAND
 70
     0
  0
APPID
  2
ACAD_DSTYLE_DIMBREAK
 70
     0
  0
APPID
  2
ACAUTHENVIRON
 70
     0
  0
APPID
  2
ACDBDYNAMICBLOCKTRUENAME
 70
     0
  0
APPID
  2
ACDBDYNAMICBLOCKGUID
 70
     0
  0
APPID
  2
ACDBBLOCKREPETAG
 70
     0
  0
APPID
  2
ACAD_DSTYLE_DIMRADIAL_EXTE
 70
     0
  0
APPID
  2
ACAD_NAV_VCDISPLAY
 70
     0
  0
APPID
  2
GRADIENTCOLOR1ACI
 70
     0
  0
APPID
  2
GRADIENTCOLOR2ACI
 70
     0
  0
APPID
  2
ACAD_EXEMPT_FROM_CAD_STANDARDS
 70
     0
  0
APPID
  2
ACCMTRANSPARENCY
 70
     0
  0
ENDTAB
  0
TABLE
  2
DIMSTYLE
 70
     1
  0
DIMSTYLE
  2
STANDARD
 70
     0
  3

  4

  5

  6

  7

 40
1.0
 41
0.18
 42
0.0625
 43
0.38
 44
0.18
 45
0.0
 46
0.0
 47
0.0
 48
0.0
140
0.18
141
0.09
142
0.0
143
25.399999999999999
144
1.0
145
0.0
146
1.0
147
0.09
 71
     0
 72
     0
 73
     1
 74
     1
 75
     0
 76
     0
 77
     0
 78
     0
170
     0
171
     2
172
     0
173
     0
174
     0
175
     0
176
     0
177
     0
178
     0
  0
ENDTAB
  0
ENDSEC
  0
SECTION
  2
BLOCKS
  0
BLOCK
  8
0
  2
$MODEL_SPACE
 70
     0
 10
0.0
 20
0.0
 30
0.0
  3
$MODEL_SPACE
  1

  0
ENDBLK
  5
8272
  8
0
  0
BLOCK
 67
     1
  8
0
  2
$PAPER_SPACE
 70
     0
 10
0.0
 20
0.0
 30
0.0
  3
$PAPER_SPACE
  1

  0
ENDBLK
  5
826E
 67
     1
  8
0
  0
BLOCK
  8
0
  2
A$C0B673CA8
 70
     0
 10
0.0
 20
0.0
 30
0.0
  3
A$C0B673CA8
  1

  0
POLYLINE
  5
888
  8
0
 66
     1
 10
0.0
 20
0.0
 30
0.0
  0
VERTEX
  5
33D63
  8
0
 10
-0.4534638018143406
 20
0.5292338006494042
 30
0.0
 42
-0.8847252645562793
  0
VERTEX
  5
33D64
  8
0
 10
-0.4482913354059729
 20
0.4871074423326231
 30
0.0
  0
VERTEX
  5
33D65
  8
0
 10
-0.6884638018143149
 20
0.4576179715037103
 30
0.0
  0
VERTEX
  5
33D66
  8
0
 10
-0.6884638018143149
 20
0.3461179715037428
 30
0.0
 42
-0.9999999999999998
  0
VERTEX
  5
33D67
  8
0
 10
-0.7354638018143193
 20
0.3461179715037428
 30
0.0
  0
VERTEX
  5
33D68
  8
0
 10
-0.7354638018143263
 20
0.394617971503715
 30
0.0
 42
0.4142135623730841
  0
VERTEX
  5
33D69
  8
0
 10
-0.7514638018143174
 20
0.4106179715037153
 30
0.0
  0
VERTEX
  5
33D6A
  8
0
 10
-0.8184638018143247
 20
0.4106179715037134
 30
0.0
 42
0.4142135623730925
  0
VERTEX
  5
33D6B
  8
0
 10
-0.8344638018143227
 20
0.394617971503715
 30
0.0
  0
VERTEX
  5
33D6C
  8
0
 10
-0.8344638018143156
 20
0.2116179715037116
 30
0.0
 42
0.4142135623731005
  0
VERTEX
  5
33D6D
  8
0
 10
-0.8184638018143247
 20
0.1956179715037116
 30
0.0
  0
VERTEX
  5
33D6E
  8
0
 10
-0.7604638018143035
 20
0.1956179715037134
 30
0.0
 42
-0.4142135623730951
  0
VERTEX
  5
33D6F
  8
0
 10
-0.7444638018143053
 20
0.1796179715037152
 30
0.0
  0
VERTEX
  5
33D70
  8
0
 10
-0.7444638018143124
 20
0.1066179715037148
 30
0.0
 42
-0.4142135623730831
  0
VERTEX
  5
33D71
  8
0
 10
-0.7604638018143178
 20
0.0906179715037148
 30
0.0
  0
VERTEX
  5
33D72
  8
0
 10
-0.8184638018143247
 20
0.090617971503713
 30
0.0
 42
0.414213562373078
  0
VERTEX
  5
33D73
  8
0
 10
-0.8344638018143227
 20
0.0746179715037148
 30
0.0
  0
VERTEX
  5
33D74
  8
0
 10
-0.8344638018143156
 20
-0.0693820284962836
 30
0.0
 42
0.4142135623730951
  0
VERTEX
  5
33D75
  8
0
 10
-0.8184638018143247
 20
-0.0853820284962836
 30
0.0
  0
VERTEX
  5
33D76
  8
0
 10
-0.8184638018143211
 20
-0.0853820284962819
 30
0.0
  0
VERTEX
  5
33D77
  8
0
 10
-0.7604638018143035
 20
-0.0853820284962801
 30
0.0
 42
-0.4142135623730951
  0
VERTEX
  5
33D78
  8
0
 10
-0.7444638018143124
 20
-0.1013820284962801
 30
0.0
  0
VERTEX
  5
33D79
  8
0
 10
-0.7444638018143124
 20
-0.1538109606844156
 30
0.0
  0
VERTEX
  5
33D7A
  8
0
 10
-0.7444638018143124
 20
-0.2403820284962759
 30
0.0
  0
VERTEX
  5
33D7B
  8
0
 10
-0.7020373949431118
 20
-0.2828084353674693
 30
0.0
  0
VERTEX
  5
33D7C
  8
0
 10
-0.6383977846363181
 20
-0.346448045674256
 30
0.0
  0
VERTEX
  5
33D7D
  8
0
 10
-0.5747581743294994
 20
-0.2828084353674356
 30
0.0
 42
-0.6681786379192986
  0
VERTEX
  5
33D7E
  8
0
 10
-0.5406160387057711
 20
-0.2969505709911662
 30
0.0
  0
VERTEX
  5
33D7F
  8
0
 10
-0.5401441192377554
 20
-0.3547120837828555
 30
0.0
  0
VERTEX
  5
33D80
  8
0
 10
-0.5549010014359901
 20
-0.3694689659810919
 30
0.0
  0
VERTEX
  5
33D81
  8
0
 10
-0.5399010014359824
 20
-0.3844689659810978
 30
0.0
  0
VERTEX
  5
33D82
  8
0
 10
-0.5394028352702165
 20
-0.4454429950403826
 30
0.0
  0
VERTEX
  5
33D83
  8
0
 10
-0.3555550721616996
 20
-0.6292907581488854
 30
0.0
  0
VERTEX
  5
33D84
  8
0
 10
-0.3155550721617075
 20
-0.6292907581488854
 30
0.0
  0
VERTEX
  5
33D85
  8
0
 10
-0.2555550721617052
 20
-0.6292907581488834
 30
0.0
 42
0.4142135623730951
  0
VERTEX
  5
33D86
  8
0
 10
-0.2455550721617001
 20
-0.6192907581488836
 30
0.0
  0
VERTEX
  5
33D87
  8
0
 10
-0.2455550721617037
 20
-0.4592907581488799
 30
0.0
 42
-0.4142135623730951
  0
VERTEX
  5
33D88
  8
0
 10
-0.2255550721617041
 20
-0.4392907581488803
 30
0.0
  0
VERTEX
  5
33D89
  8
0
 10
-0.2255550721617041
 20
-0.4392907581488803
 30
0.0
 42
-0.4142135623730951
  0
VERTEX
  5
33D8A
  8
0
 10
-0.2055550721617081
 20
-0.4592907581488799
 30
0.0
  0
VERTEX
  5
33D8B
  8
0
 10
-0.2055550721617187
 20
-0.6192907581488836
 30
0.0
 42
0.4142135623731014
  0
VERTEX
  5
33D8C
  8
0
 10
-0.1955550721617172
 20
-0.6292907581488854
 30
0.0
  0
VERTEX
  5
33D8D
  8
0
 10
-0.0149638018143108
 20
-0.6292907581488816
 30
0.0
  0
VERTEX
  5
33D8E
  8
0
 10
0.1656274685330956
 20
-0.6292907581488834
 30
0.0
 42
0.4142135623731011
  0
VERTEX
  5
33D8F
  8
0
 10
0.1756274685330865
 20
-0.6192907581488836
 30
0.0
  0
VERTEX
  5
33D90
  8
0
 10
0.175627468533083
 20
-0.4592907581488799
 30
0.0
 42
-0.4142135623730951
  0
VERTEX
  5
33D91
  8
0
 10
0.1956274685330967
 20
-0.4392907581488803
 30
0.0
 42
-0.4142135623730952
  0
VERTEX
  5
33D92
  8
0
 10
0.2156274685330786
 20
-0.4592907581488799
 30
0.0
  0
VERTEX
  5
33D93
  8
0
 10
0.2156274685330963
 20
-0.6192907581488836
 30
0.0
 42
0.4142135623730953
  0
VERTEX
  5
33D94
  8
0
 10
0.2256274685330979
 20
-0.6292907581488854
 30
0.0
  0
VERTEX
  5
33D95
  8
0
 10
0.2856274685330859
 20
-0.6292907581488854
 30
0.0
  0
VERTEX
  5
33D96
  8
0
 10
0.3214853329093543
 20
-0.6292907581488834
 30
0.0
 42
0.1989123673796321
  0
VERTEX
  5
33D97
  8
0
 10
0.3285564007212187
 20
-0.6263618259607479
 30
0.0
  0
VERTEX
  5
33D98
  8
0
 10
0.5065462994534542
 20
-0.4483719272285171
 30
0.0
 42
0.1989123673796605
  0
VERTEX
  5
33D99
  8
0
 10
0.509475231641595
 20
-0.441300859416652
 30
0.0
  0
VERTEX
  5
33D9A
  8
0
 10
0.5106884350771317
 20
-0.2969505709911555
 30
0.0
 42
-0.6681786379192986
  0
VERTEX
  5
33D9B
  8
0
 10
0.5448305707008601
 20
-0.2828084353674196
 30
0.0
  0
VERTEX
  5
33D9C
  8
0
 10
0.6084701810076965
 20
-0.346448045674256
 30
0.0
  0
VERTEX
  5
33D9D
  8
0
 10
0.7145361981856908
 20
-0.2403820284962794
 30
0.0
  0
VERTEX
  5
33D9E
  8
0
 10
0.7145361981856837
 20
-0.1013820284962801
 30
0.0
 42
-0.4142135623730951
  0
VERTEX
  5
33D9F
  8
0
 10
0.7305361981856821
 20
-0.0853820284962819
 30
0.0
  0
VERTEX
  5
33DA0
  8
0
 10
0.7885361981857031
 20
-0.0853820284962836
 30
0.0
 42
0.4142135623730951
  0
VERTEX
  5
33DA1
  8
0
 10
0.8045361981856942
 20
-0.0693820284962836
 30
0.0
  0
VERTEX
  5
33DA2
  8
0
 10
0.8045361981857013
 20
0.0746179715037148
 30
0.0
 42
0.4142135623730784
  0
VERTEX
  5
33DA3
  8
0
 10
0.7885361981857031
 20
0.090617971503713
 30
0.0
  0
VERTEX
  5
33DA4
  8
0
 10
0.7305361981856962
 20
0.0906179715037148
 30
0.0
 42
-0.4142135623730835
  0
VERTEX
  5
33DA5
  8
0
 10
0.7145361981856908
 20
0.1066179715037148
 30
0.0
  0
VERTEX
  5
33DA6
  8
0
 10
0.7145361981856837
 20
0.1796179715037152
 30
0.0
 42
-0.4142135623730951
  0
VERTEX
  5
33DA7
  8
0
 10
0.7305361981856821
 20
0.1956179715037134
 30
0.0
  0
VERTEX
  5
33DA8
  8
0
 10
0.7885361981857031
 20
0.1956179715037116
 30
0.0
 42
0.4142135623731
  0
VERTEX
  5
33DA9
  8
0
 10
0.8045361981856942
 20
0.2116179715037116
 30
0.0
  0
VERTEX
  5
33DAA
  8
0
 10
0.8045361981857013
 20
0.394617971503715
 30
0.0
 42
0.4142135623730927
  0
VERTEX
  5
33DAB
  8
0
 10
0.7885361981857031
 20
0.4106179715037134
 30
0.0
  0
VERTEX
  5
33DAC
  8
0
 10
0.7215361981856958
 20
0.4106179715037153
 30
0.0
 42
0.4142135623730839
  0
VERTEX
  5
33DAD
  8
0
 10
0.7055361981857047
 20
0.394617971503715
 30
0.0
  0
VERTEX
  5
33DAE
  8
0
 10
0.7055361981856905
 20
0.3461179715037117
 30
0.0
 42
-1.0000000000000191
  0
VERTEX
  5
33DAF
  8
0
 10
0.6585361981856935
 20
0.3461179715037108
 30
0.0
  0
VERTEX
  5
33DB0
  8
0
 10
0.6585361981856935
 20
0.4576179715037103
 30
0.0
  0
VERTEX
  5
33DB1
  8
0
 10
0.420098811317601
 20
0.4868944013531423
 30
0.0
 42
-0.3788661086953136
  0
VERTEX
  5
33DB2
  8
0
 10
0.4025361981857074
 20
0.5067453243859692
 30
0.0
  0
VERTEX
  5
33DB3
  8
0
 10
0.402536198185704
 20
0.5091866889939292
 30
0.0
 42
-0.4040262258351576
  0
VERTEX
  5
33DB4
  8
0
 10
0.4218382082516501
 20
0.5291745055343124
 30
0.0
  0
VERTEX
  5
33DB5
  8
0
 10
0.7495361981857016
 20
0.5406179715037081
 30
0.0
 42
-0.4142135623730952
  0
VERTEX
  5
33DB6
  8
0
 10
0.8745361981857016
 20
0.4156179715037088
 30
0.0
  0
VERTEX
  5
33DB7
  8
0
 10
0.8745361981856978
 20
0.1766752690668571
 30
0.0
 42
0.3888787318529922
  0
VERTEX
  5
33DB8
  8
0
 10
0.8882288620444852
 20
0.1617323485954811
 30
0.0
  0
VERTEX
  5
33DB9
  8
0
 10
1.224082067098659
 20
0.1323490005443961
 30
0.0
 42
-0.3888787318528166
  0
VERTEX
  5
33DBA
  8
0
 10
1.2350361981856861
 20
0.1203946641673026
 30
0.0
  0
VERTEX
  5
33DBB
  8
0
 10
1.2350361981856861
 20
0.1156179715037178
 30
0.0
 42
-0.4142135623732795
  0
VERTEX
  5
33DBC
  8
0
 10
1.2230361981856861
 20
0.1036179715037102
 30
0.0
  0
VERTEX
  5
33DBD
  8
0
 10
0.889536198185702
 20
0.1036179715037067
 30
0.0
 42
0.414213562373103
  0
VERTEX
  5
33DBE
  8
0
 10
0.8745361981857016
 20
0.088617971503707
 30
0.0
  0
VERTEX
  5
33DBF
  8
0
 10
0.8745361981857087
 20
-0.1403820284962887
 30
0.0
 42
-0.4142135623731356
  0
VERTEX
  5
33DC0
  8
0
 10
0.8595361981857044
 20
-0.1553820284962892
 30
0.0
  0
VERTEX
  5
33DC1
  8
0
 10
0.7845361981856911
 20
-0.1553820284962803
 30
0.0
 42
0.4142135623731255
  0
VERTEX
  5
33DC2
  8
0
 10
0.7745361981856898
 20
-0.1653820284962801
 30
0.0
  0
VERTEX
  5
33DC3
  8
0
 10
0.7745361981856859
 20
-0.4263820284962865
 30
0.0
 42
0.4142135623730824
  0
VERTEX
  5
33DC4
  8
0
 10
0.7845361981856877
 20
-0.4363820284962864
 30
0.0
  0
VERTEX
  5
33DC5
  8
0
 10
0.814536198185678
 20
-0.4363820284962864
 30
0.0
 42
0.41421356237313
  0
VERTEX
  5
33DC6
  8
0
 10
0.8245361981856794
 20
-0.4263820284962865
 30
0.0
  0
VERTEX
  5
33DC7
  8
0
 10
0.8245361981863297
 20
-0.3153822059492866
 30
0.0
 42
-1.000966607614417
  0
VERTEX
  5
33DC8
  8
0
 10
0.8745361482081149
 20
-0.3154301543880411
 30
0.0
  0
VERTEX
  5
33DC9
  8
0
 10
0.8745358505367127
 20
-0.476382056237978
 30
0.0
  0
VERTEX
  5
33DCA
  8
0
 10
0.8745358505367094
 20
-0.4763820586816803
 30
0.0
 42
-0.4142129729667877
  0
VERTEX
  5
33DCB
  8
0
 10
0.8595358505367408
 20
-0.491382028496289
 30
0.0
  0
VERTEX
  5
33DCC
  8
0
 10
0.7295361981856808
 20
-0.4913820284962842
 30
0.0
 42
-0.4142135623730808
  0
VERTEX
  5
33DCD
  8
0
 10
0.7145361981856802
 20
-0.4763820284962847
 30
0.0
  0
VERTEX
  5
33DCE
  8
0
 10
0.7145361981856873
 20
-0.3642764727990002
 30
0.0
 42
0.6681786379193115
  0
VERTEX
  5
33DCF
  8
0
 10
0.6889295964678901
 20
-0.3536698710812018
 30
0.0
  0
VERTEX
  5
33DD0
  8
0
 10
0.3694680889666593
 20
-0.6731313785824478
 30
0.0
 42
-0.1989123673796575
  0
VERTEX
  5
33DD1
  8
0
 10
0.3256274685330922
 20
-0.6912907581488819
 30
0.0
  0
VERTEX
  5
33DD2
  8
0
 10
0.2570361981856948
 20
-0.6912907581488839
 30
0.0
 42
0.4142135623730951
  0
VERTEX
  5
33DD3
  8
0
 10
0.2420361981856942
 20
-0.7062907581488834
 30
0.0
  0
VERTEX
  5
33DD4
  8
0
 10
0.2420361981855699
 20
-0.8432907581488784
 30
0.0
 42
-0.999999999999949
  0
VERTEX
  5
33DD5
  8
0
 10
0.1720361981855625
 20
-0.8432907581488764
 30
0.0
  0
VERTEX
  5
33DD6
  8
0
 10
0.1720361981856939
 20
-0.7062907581488834
 30
0.0
 42
0.4142135623730951
  0
VERTEX
  5
33DD7
  8
0
 10
0.1570361981856934
 20
-0.6912907581488839
 30
0.0
  0
VERTEX
  5
33DD8
  8
0
 10
0.0551212523341569
 20
-0.6915525442454431
 30
0.0
 42
0.409110801427706
  0
VERTEX
  5
33DD9
  8
0
 10
0.0401235369068118
 20
-0.7062907581488842
 30
0.0
  0
VERTEX
  5
33DDA
  8
0
 10
0.0250361981856955
 20
-1.5706438145928461
 30
0.0
 42
0.4142135623730919
  0
VERTEX
  5
33DDB
  8
0
 10
0.040036198185696
 20
-1.5856438145928431
 30
0.0
  0
VERTEX
  5
33DDC
  8
0
 10
0.140874679854754
 20
-1.5853820284962861
 30
0.0
 42
0.4040262258351638
  0
VERTEX
  5
33DDD
  8
0
 10
0.1558655422600417
 20
-1.570905520946823
 30
0.0
  0
VERTEX
  5
33DDE
  8
0
 10
0.1606358076508307
 20
-1.4343029929891631
 30
0.0
 42
-0.9999999999999754
  0
VERTEX
  5
33DDF
  8
0
 10
0.232521527474848
 20
-1.4343029929891631
 30
0.0
  0
VERTEX
  5
33DE0
  8
0
 10
0.2261981048312798
 20
-1.6153820284962881
 30
0.0
 42
-0.4142135623730961
  0
VERTEX
  5
33DE1
  8
0
 10
0.1941981048312797
 20
-1.6473820284962839
 30
0.0
  0
VERTEX
  5
33DE2
  8
0
 10
-0.2241257084598871
 20
-1.6473820284962839
 30
0.0
 42
-0.4142135623730962
  0
VERTEX
  5
33DE3
  8
0
 10
-0.2561257084598871
 20
-1.6153820284962881
 30
0.0
  0
VERTEX
  5
33DE4
  8
0
 10
-0.2624498947773475
 20
-1.4342811242300111
 30
0.0
  0
VERTEX
  5
33DE5
  8
0
 10
-0.2624498947773475
 20
-1.434281124230004
 30
0.0
 42
-0.9999999999999998
  0
VERTEX
  5
33DE6
  8
0
 10
-0.1905641749533373
 20
-1.434281124230004
 30
0.0
  0
VERTEX
  5
33DE7
  8
0
 10
-0.185793145888649
 20
-1.570905520946823
 30
0.0
 42
0.404026225835157
  0
VERTEX
  5
33DE8
  8
0
 10
-0.1708022834833613
 20
-1.5853820284962901
 30
0.0
  0
VERTEX
  5
33DE9
  8
0
 10
-0.0699638018143176
 20
-1.5856438145928391
 30
0.0
 42
0.4142135623730919
  0
VERTEX
  5
33DEA
  8
0
 10
-0.0549638018143028
 20
-1.5706438145928461
 30
0.0
  0
VERTEX
  5
33DEB
  8
0
 10
-0.0700511405354369
 20
-0.7062907581488798
 30
0.0
 42
0.4091108014277103
  0
VERTEX
  5
33DEC
  8
0
 10
-0.085048855962782
 20
-0.6915525442454396
 30
0.0
  0
VERTEX
  5
33DED
  8
0
 10
-0.1869638018143078
 20
-0.6912907581488839
 30
0.0
 42
0.4142135623731125
  0
VERTEX
  5
33DEE
  8
0
 10
-0.2019638018143084
 20
-0.7062907581488834
 30
0.0
  0
VERTEX
  5
33DEF
  8
0
 10
-0.2019638018143013
 20
-0.8432907581488802
 30
0.0
 42
-0.999999999999949
  0
VERTEX
  5
33DF0
  8
0
 10
-0.2719638018143087
 20
-0.8432907581488784
 30
0.0
  0
VERTEX
  5
33DF1
  8
0
 10
-0.2719638018143158
 20
-0.7062907581488789
 30
0.0
 42
0.4142135623729736
  0
VERTEX
  5
33DF2
  8
0
 10
-0.2869638018143128
 20
-0.6912907581488811
 30
0.0
  0
VERTEX
  5
33DF3
  8
0
 10
-0.3155550721617075
 20
-0.6912907581488827
 30
0.0
  0
VERTEX
  5
33DF4
  8
0
 10
-0.3555550721617138
 20
-0.6912907581488819
 30
0.0
 42
-0.1989123673796578
  0
VERTEX
  5
33DF5
  8
0
 10
-0.3993956925952702
 20
-0.6731313785824487
 30
0.0
  0
VERTEX
  5
33DF6
  8
0
 10
-0.7188572000965153
 20
-0.3536698710812018
 30
0.0
 42
0.6681786379193114
  0
VERTEX
  5
33DF7
  8
0
 10
-0.7444638018143091
 20
-0.3642764727990002
 30
0.0
  0
VERTEX
  5
33DF8
  8
0
 10
-0.7444638018143053
 20
-0.4763820284962847
 30
0.0
 42
-0.4142135623730808
  0
VERTEX
  5
33DF9
  8
0
 10
-0.759463801814306
 20
-0.4913820284962851
 30
0.0
  0
VERTEX
  5
33DFA
  8
0
 10
-0.8894634541653657
 20
-0.491382028496288
 30
0.0
 42
-0.4142129729667876
  0
VERTEX
  5
33DFB
  8
0
 10
-0.9044634541653343
 20
-0.4763820586816803
 30
0.0
  0
VERTEX
  5
33DFC
  8
0
 10
-0.9044635887728167
 20
-0.3154301543880669
 30
0.0
 42
-1.000966607614417
  0
VERTEX
  5
33DFD
  8
0
 10
-0.8544636387510314
 20
-0.3153822059493123
 30
0.0
  0
VERTEX
  5
33DFE
  8
0
 10
-0.8544638018143012
 20
-0.4213820284962866
 30
0.0
 42
0.4142135623732512
  0
VERTEX
  5
33DFF
  8
0
 10
-0.8444638018142994
 20
-0.4313820284962864
 30
0.0
  0
VERTEX
  5
33E00
  8
0
 10
-0.8144638018143124
 20
-0.4313820284962864
 30
0.0
 42
0.4142135623730824
  0
VERTEX
  5
33E01
  8
0
 10
-0.8044638018143075
 20
-0.4213820284962866
 30
0.0
  0
VERTEX
  5
33E02
  8
0
 10
-0.8044638018143109
 20
-0.1653820284962801
 30
0.0
 42
0.4142135623731257
  0
VERTEX
  5
33E03
  8
0
 10
-0.8144638018143124
 20
-0.1553820284962803
 30
0.0
  0
VERTEX
  5
33E04
  8
0
 10
-0.8894638018143259
 20
-0.1553820284962883
 30
0.0
 42
-0.4142135623731357
  0
VERTEX
  5
33E05
  8
0
 10
-0.90446380181433
 20
-0.1403820284962887
 30
0.0
  0
VERTEX
  5
33E06
  8
0
 10
-0.9044638018143231
 20
0.088617971503707
 30
0.0
 42
0.4142135623730951
  0
VERTEX
  5
33E07
  8
0
 10
-0.9194638018143235
 20
0.1036179715037075
 30
0.0
  0
VERTEX
  5
33E08
  8
0
 10
-1.2529638018143121
 20
0.1036179715037084
 30
0.0
 42
-0.4142135623730864
  0
VERTEX
  5
33E09
  8
0
 10
-1.264963801814311
 20
0.115617971503708
 30
0.0
  0
VERTEX
  5
33E0A
  8
0
 10
-1.264963801814311
 20
0.1203946641672928
 30
0.0
 42
-0.3888787318529996
  0
VERTEX
  5
33E0B
  8
0
 10
-1.2540096707272841
 20
0.1323490005443935
 30
0.0
  0
VERTEX
  5
33E0C
  8
0
 10
-0.9181564656731103
 20
0.1617323485954811
 30
0.0
 42
0.3888787318529902
  0
VERTEX
  5
33E0D
  8
0
 10
-0.9044638018143231
 20
0.1766752690668571
 30
0.0
  0
VERTEX
  5
33E0E
  8
0
 10
-0.9044638018143231
 20
0.4156179715037088
 30
0.0
 42
-0.4142135623730951
  0
VERTEX
  5
33E0F
  8
0
 10
-0.7794638018143232
 20
0.5406179715037088
 30
0.0
  0
VERTEX
  5
33E10
  8
0
 10
-0.4519723575764484
 20
0.5291817182689629
 30
0.0
  0
SEQEND
  5
33E11
  8
0
  0
ARC
  5
889
  8
0
 10
-0.1708022834833613
 20
-1.5703820284962891
 30
0.0
 40
0.015
 50
182.00000000000071
 51
270.0
  0
LINE
  5
88A
  8
0
 10
-0.4904899243570995
 20
-0.5820371468206158
 30
0.0
 11
-0.4489474009623893
 21
-0.6235796702153227
 31
0.0
  0
LINE
  5
88B
  8
0
 10
0.1956274685330967
 20
-0.4392907581488803
 30
0.0
 11
0.1956274685330825
 21
-0.4392907581488803
 31
0.0
  0
LINE
  5
88C
  8
0
 10
0.7885361981857031
 20
-0.0853820284962854
 30
0.0
 11
0.7305361981856962
 21
-0.0853820284962819
 31
0.0
  0
ENDBLK
  5
88D
  8
0
  0
BLOCK
  8
0
  2
SSL238
 70
     0
 10
0.0
 20
0.0
 30
0.0
  3
SSL238
  1

  0
LINE
  5
333DD
  8
0
 10
7.5885031912297514
 20
0.6050050484093366
 30
0.0
 11
7.958503130292212
 21
0.6050050484093366
 31
0.0
  0
LINE
  5
333DE
  8
0
 10
7.958503130292212
 20
6.6550049716272923
 30
0.0
 11
7.5223021426565806
 21
6.6550049716272923
 31
0.0
  0
ARC
  5
333DF
  8
0
 10
7.9585033621932917
 20
0.6700050299636482
 30
0.0
 40
0.0650000000000013
 50
270.0000000000008
 51
0.000000000000229
  0
ARC
  5
333E0
  8
0
 10
7.9585033621932917
 20
6.5900050299636428
 30
0.0
 40
0.0650000000000013
 50
0.0
 51
90.0
  0
ARC
  5
333E1
  8
0
 10
8.0385033621932962
 20
0.9600050299636482
 30
0.0
 40
0.0150000000000006
 50
90.0
 51
180.0
  0
ARC
  5
333E2
  8
0
 10
8.0385033621932891
 20
6.3000050299636463
 30
0.0
 40
0.0150000000000006
 50
179.99999999999889
 51
270.0000000000008
  0
ARC
  5
333E3
  8
0
 10
10.708503362193291
 20
1.0400050299636481
 30
0.0
 40
0.0650000000000048
 50
270.0000000000008
 51
0.000000000000229
  0
ARC
  5
333E4
  8
0
 10
10.708503362193291
 20
6.2200050299636471
 30
0.0
 40
0.0650000000000013
 50
0.000000000000229
 51
90.0
  0
LINE
  5
333E5
  8
0
 10
8.0385035927867143
 20
0.9750049874718003
 30
0.0
 11
10.70850362871845
 21
0.9750049874718003
 31
0.0
  0
LINE
  5
333E6
  8
0
 10
10.70850362871845
 20
6.2850050325648272
 30
0.0
 11
8.0385035927867143
 21
6.2850050325648272
 31
0.0
  0
ARC
  5
333E7
  8
0
 10
7.2225033621932919
 20
6.6491884874567511
 30
0.0
 40
0.0780000000000031
 50
359.87752121250168
 51
180.01326770183121
  0
LINE
  5
333E8
  8
0
 10
5.7193842501179217
 20
6.0109055056526186
 30
0.0
 11
5.7193842501179217
 21
5.9909055366939672
 31
0.0
  0
LINE
  5
333E9
  8
0
 10
6.0633840095366818
 20
5.9909055366939672
 30
0.0
 11
6.0633840095366818
 21
6.0109055056526186
 31
0.0
  0
ARC
  5
333EA
  8
0
 10
1.817836461184636
 20
3.4739530329487249
 30
0.0
 40
0.0035474999999998
 50
270.0000000000008
 51
0.0000000000017811
  0
ARC
  5
333EB
  8
0
 10
1.817836461184636
 20
3.787858032948725
 30
0.0
 40
0.0035475000000007
 50
0.0000000000143507
 51
90.0
  0
LINE
  5
333EC
  8
0
 10
1.8178365344633991
 20
3.7914055405056111
 30
0.0
 11
1.7977339000240811
 21
3.7914055405056111
 31
0.0
  0
LINE
  5
333ED
  8
0
 10
1.7977339000240811
 20
3.4704055253918451
 30
0.0
 11
1.8178365344633991
 21
3.4704055253918451
 31
0.0
  0
ARC
  5
333EE
  8
0
 10
1.9731367478726849
 20
3.630905532948725
 30
0.0
 40
0.2377527866880534
 50
189.5671913782119
 51
222.45966026027509
  0
ARC
  5
333EF
  8
0
 10
1.9731367478726849
 20
3.630905532948725
 30
0.0
 40
0.2377527866880528
 50
137.54033973972591
 51
170.43280862178909
  0
LINE
  5
333F0
  8
0
 10
1.8215923310761131
 20
3.5782173791067788
 30
0.0
 11
1.823920050852764
 21
3.5822030043144961
 31
0.0
  0
LINE
  5
333F1
  8
0
 10
6.0788841504777302
 20
6.0109055056526186
 30
0.0
 11
6.0788841504777302
 21
6.0739067645233664
 31
0.0
  0
ARC
  5
333F2
  8
0
 10
6.5593839611846319
 20
6.052905532948734
 30
0.0
 40
0.0620000000000013
 50
270.0000000000008
 51
294.89570016695188
  0
ARC
  5
333F3
  8
0
 10
6.5593839611846319
 20
1.2089055329487339
 30
0.0
 40
0.0620000000000013
 50
65.104299833048984
 51
90.0
  0
LINE
  5
333F4
  8
0
 10
5.7193842501179217
 20
5.9909055366939672
 30
0.0
 11
5.7063838669661271
 21
5.9909055366939672
 31
0.0
  0
LINE
  5
333F5
  8
0
 10
4.7063839523838071
 20
5.9909055366939672
 30
0.0
 11
4.3232167254309726
 21
5.9909055366939672
 31
0.0
  0
LINE
  5
333F6
  8
0
 10
6.5593838263711381
 20
5.9909055366939672
 30
0.0
 11
6.0633840095366818
 21
5.9909055366939672
 31
0.0
  0
LINE
  5
333F7
  8
0
 10
4.3232167254309726
 20
1.2709055292034901
 30
0.0
 11
6.5593838263711381
 21
1.2709055292034901
 31
0.0
  0
ARC
  5
333F8
  8
0
 10
4.3232166901412921
 20
5.8789055329487327
 30
0.0
 40
0.1120000000000007
 50
90.0
 51
102.0617813067802
  0
ARC
  5
333F9
  8
0
 10
4.3232166901412921
 20
1.3829055329487341
 30
0.0
 40
0.1119999999999992
 50
257.93821869322051
 51
270.0000000000008
  0
LINE
  5
333FA
  8
0
 10
4.2998125157984033
 20
5.9884329119246056
 30
0.0
 11
1.959814827651374
 21
5.488413301527145
 31
0.0
  0
LINE
  5
333FB
  8
0
 10
1.959814827651374
 20
1.77339776437031
 30
0.0
 11
4.2998125157984033
 21
1.273378153972853
 31
0.0
  0
ARC
  5
333FC
  8
0
 10
1.996383961184637
 20
5.317276754920198
 30
0.0
 40
0.1750000000000008
 50
102.0617813067812
 51
179.9999999999998
  0
ARC
  5
333FD
  8
0
 10
1.996383961184637
 20
1.944534310977269
 30
0.0
 40
0.1750000000000008
 50
179.9999999999998
 51
257.93821869321948
  0
ARC
  5
333FE
  8
0
 10
7.1055033621932919
 20
0.642165269325349
 30
0.0
 40
0.1481602393617034
 50
223.06094359490791
 51
316.93905640509468
  0
LINE
  5
333FF
  8
0
 10
6.9972532747325751
 20
0.5420051095233398
 30
0.0
 11
6.9972532747325751
 21
0.5410051477416502
 31
0.0
  0
LINE
  5
33400
  8
0
 10
7.2137536537017217
 20
0.5410051477416502
 30
0.0
 11
7.2137536537017217
 21
0.5420051095233398
 31
0.0
  0
LINE
  5
33401
  8
0
 10
7.0159706585077579
 20
0.6928928597885067
 30
0.0
 11
6.9972532747325751
 21
0.6760049748787944
 31
0.0
  0
LINE
  5
33402
  8
0
 10
6.9972532747325751
 20
0.6760049748787944
 30
0.0
 11
6.9972532747325751
 21
0.6750050130971044
 31
0.0
  0
ARC
  5
33403
  8
0
 10
7.335503362193295
 20
0.642165269325349
 30
0.0
 40
0.1481602393617034
 50
223.060943594907
 51
316.93905640509382
  0
LINE
  5
33404
  8
0
 10
7.2272532844194979
 20
0.5420051095233398
 30
0.0
 11
7.2272532844194979
 21
0.5410051477416502
 31
0.0
  0
LINE
  5
33405
  8
0
 10
7.4437530767287612
 20
0.5410051477416502
 30
0.0
 11
7.4437530767287612
 21
0.5420051095233398
 31
0.0
  0
POLYLINE
  5
33406
  8
0
 66
     1
 10
0.0
 20
0.0
 30
0.0
  0
VERTEX
  5
33E4E
  8
0
 10
7.0018327418301771
 20
0.6750050130971044
 30
0.0
  0
VERTEX
  5
33E4F
  8
0
 10
7.0200708244756242
 20
0.6598099352986067
 30
0.0
  0
VERTEX
  5
33E50
  8
0
 10
7.0235033714892161
 20
0.6574594824512383
 30
0.0
  0
SEQEND
  5
33E51
  8
0
  0
LINE
  5
33407
  8
0
 10
6.997233914956217
 20
0.6807117471724258
 30
0.0
 11
6.997233914956217
 21
0.6797117853907359
 31
0.0
  0
LINE
  5
33408
  8
0
 10
7.4609838643438966
 20
6.760555645630232
 30
0.0
 11
7.4609838643438966
 21
7.260555602921392
 31
0.0
  0
LINE
  5
33409
  8
0
 10
7.0859838230430379
 20
7.260555602921392
 30
0.0
 11
7.0859838230430379
 21
6.760555645630232
 31
0.0
  0
LINE
  5
3340A
  8
0
 10
7.0859838230430379
 20
6.760555645630232
 30
0.0
 11
7.1172340220380761
 21
6.7293054466351974
 31
0.0
  0
LINE
  5
3340B
  8
0
 10
7.4297342520087533
 20
6.7293054466351974
 30
0.0
 11
7.4609838643438966
 21
6.760555645630232
 31
0.0
  0
LINE
  5
3340C
  8
0
 10
7.4609838643438966
 20
7.260555602921392
 30
0.0
 11
7.4297342520087533
 21
7.2918055085864806
 31
0.0
  0
LINE
  5
3340D
  8
0
 10
7.1172340220380761
 20
7.2918055085864806
 30
0.0
 11
7.0859838230430379
 21
7.260555602921392
 31
0.0
  0
LINE
  5
3340E
  8
0
 10
7.3559840639772167
 20
6.6535518150809461
 30
0.0
 11
7.3559840639772167
 21
6.7293054466351974
 31
0.0
  0
LINE
  5
3340F
  8
0
 10
7.1909842100696091
 20
6.7293054466351974
 30
0.0
 11
7.1909842100696091
 21
6.7205363479365721
 31
0.0
  0
ARC
  5
33410
  8
0
 10
7.0554839611846321
 20
0.7879055329487353
 30
0.0
 40
0.0678999999999997
 50
179.9999999999998
 51
218.4430583997889
  0
ARC
  5
33411
  8
0
 10
7.0554839611846321
 20
6.4739055329487361
 30
0.0
 40
0.0678999999999981
 50
118.0989403587479
 51
180.0000000000023
  0
ARC
  5
33412
  8
0
 10
6.9555839611846331
 20
0.9380055329487345
 30
0.0
 40
0.0320000000000036
 50
0.0000000000015776
 51
90.0
  0
ARC
  5
33413
  8
0
 10
6.9555839611846331
 20
6.323805532948735
 30
0.0
 40
0.0320000000000036
 50
270.0000000000008
 51
0.0000000000004834
  0
LINE
  5
33414
  8
0
 10
6.6533837538092904
 20
0.9700054718932982
 30
0.0
 11
6.9555839960996382
 21
0.9700054718932982
 31
0.0
  0
LINE
  5
33415
  8
0
 10
6.9555839960996382
 20
6.2918055940041606
 30
0.0
 11
6.6533837538092904
 21
6.2918055940041606
 31
0.0
  0
ARC
  5
33416
  8
0
 10
6.6533839611846366
 20
1.0379055329487341
 30
0.0
 40
0.0679000000000016
 50
179.9999999999992
 51
270.0000000000008
  0
ARC
  5
33417
  8
0
 10
6.6533839611846366
 20
6.2239055329487361
 30
0.0
 40
0.0679000000000016
 50
90.0
 51
180.0
  0
ARC
  5
33418
  8
0
 10
5.2063839611846321
 20
3.630905532948689
 30
0.0
 40
0.5
 50
180.0
 51
0.0
  0
LINE
  5
33419
  8
0
 10
4.7063839523838071
 20
3.630905532948689
 30
0.0
 11
4.7063839523838071
 21
4.6309055208635348
 31
0.0
  0
LINE
  5
3341A
  8
0
 10
5.7063838669661271
 20
3.630905532948689
 30
0.0
 11
5.7063838669661271
 21
4.6309055208635348
 31
0.0
  0
LINE
  5
3341B
  8
0
 10
4.7063839523838071
 20
4.6309055208635348
 30
0.0
 11
4.7063839523838071
 21
4.6695488811188062
 31
0.0
  0
LINE
  5
3341C
  8
0
 10
5.7063838669661271
 20
4.6309055208635348
 30
0.0
 11
5.7063838669661271
 21
4.6695488811188062
 31
0.0
  0
LINE
  5
3341D
  8
0
 10
4.7063839523838071
 20
4.6695488811188062
 30
0.0
 11
4.7063839523838071
 21
7.9835487975089778
 31
0.0
  0
LINE
  5
3341E
  8
0
 10
5.7063838669661271
 20
4.6695488811188062
 30
0.0
 11
5.7063838669661271
 21
7.9835487975089778
 31
0.0
  0
LINE
  5
3341F
  8
0
 10
4.7063839523838071
 20
7.9835487975089778
 30
0.0
 11
4.7063839523838071
 21
8.1309054418991167
 31
0.0
  0
LINE
  5
33420
  8
0
 10
4.7063839523838071
 20
8.1309054418991167
 30
0.0
 11
5.7063838669661271
 21
8.1309054418991167
 31
0.0
  0
LINE
  5
33421
  8
0
 10
5.7063838669661271
 20
7.9835487975089778
 30
0.0
 11
5.7063838669661271
 21
8.1309054418991167
 31
0.0
  0
ARC
  5
33422
  8
0
 10
7.429732823965959
 20
9.6796435615460439
 30
0.0
 40
3.026091746536498
 50
270.00039359490881
 51
271.75297355869242
  0
LINE
  5
33423
  8
0
 10
7.0235033714892161
 20
0.6148236816503144
 30
0.0
 11
7.5885031912297514
 21
0.6148236816503144
 31
0.0
  0
LINE
  5
33424
  8
0
 10
7.0235033714892161
 20
0.6148236816503144
 30
0.0
 11
7.0235033714892161
 21
6.6535518150809461
 31
0.0
  0
LINE
  5
33425
  8
0
 10
7.0235033714892161
 20
6.6535518150809461
 30
0.0
 11
7.1446257589397266
 21
6.6535518150809461
 31
0.0
  0
LINE
  5
33426
  8
0
 10
7.300381026308254
 20
6.6535518150809461
 30
0.0
 11
7.4297536117851051
 21
6.6535518150809461
 31
0.0
  0
ARC
  5
33427
  8
0
 10
7.244886341030659
 20
6.8597269748925891
 30
0.0
 40
0.2175312336608858
 50
264.09400122544213
 51
284.5415589938363
  0
POLYLINE
  5
33428
  8
0
 66
     1
 10
0.0
 20
0.0
 30
0.0
  0
VERTEX
  5
33E52
  8
0
 10
7.14465978521332
 20
6.6491938120916361
 30
0.0
  0
VERTEX
  5
33E53
  8
0
 10
7.1445072536420433
 20
6.6491386660620204
 30
0.0
  0
VERTEX
  5
33E54
  8
0
 10
7.149167093144511
 20
6.6474253258546732
 30
0.0
  0
VERTEX
  5
33E55
  8
0
 10
7.1620900371908931
 20
6.6457289987841222
 30
0.0
  0
VERTEX
  5
33E56
  8
0
 10
7.1818229292348379
 20
6.6443330415770037
 30
0.0
  0
VERTEX
  5
33E57
  8
0
 10
7.2061446749346283
 20
6.643502037843497
 30
0.0
  0
VERTEX
  5
33E58
  8
0
 10
7.222503099294042
 20
6.643350386262056
 30
0.0
  0
SEQEND
  5
33E59
  8
0
  0
LINE
  5
33429
  8
0
 10
7.7422532550958927
 20
6.1300050898040581
 30
0.0
 11
7.7422532550958927
 21
1.130004930232567
 31
0.0
  0
ARC
  5
3342A
  8
0
 10
7.6485032447706782
 20
6.1300049847854341
 30
0.0
 40
0.0937500103252715
 50
0.0000641826486945
 51
179.99993581735129
  0
LINE
  5
3342B
  8
0
 10
7.5547532344454682
 20
1.130004930232567
 30
0.0
 11
7.5547532344454682
 21
6.1300050898040581
 31
0.0
  0
ARC
  5
3342C
  8
0
 10
7.6485032447706782
 20
1.130005035251193
 30
0.0
 40
0.0937500103252715
 50
180.00006418264951
 51
359.99993581735208
  0
LINE
  5
3342D
  8
0
 10
8.0235032860715361
 20
3.63000502999855
 30
0.0
 11
8.0235032860715361
 21
6.5900051091779162
 31
0.0
  0
LINE
  5
3342E
  8
0
 10
8.0235032860715361
 20
0.6700049108587125
 30
0.0
 11
8.0235032860715361
 21
3.63000502999855
 31
0.0
  0
LINE
  5
3342F
  8
0
 10
10.77350319783789
 20
3.63000502999855
 30
0.0
 11
10.77350319783789
 21
6.2200051701154502
 31
0.0
  0
LINE
  5
33430
  8
0
 10
10.77350319783789
 20
1.040005143251121
 30
0.0
 11
10.77350319783789
 21
3.63000502999855
 31
0.0
  0
LINE
  5
33431
  8
0
 10
7.5885031912297514
 20
0.6148236816503144
 30
0.0
 11
7.5885031912297514
 21
0.5420051095233398
 31
0.0
  0
LINE
  5
33432
  8
0
 10
7.5885031912297514
 20
0.5420051095233398
 30
0.0
 11
7.0235033714892161
 21
0.5420051095233398
 31
0.0
  0
LINE
  5
33433
  8
0
 10
6.8450044735237121
 20
0.5933258233287413
 30
0.0
 11
6.8448736483683517
 21
0.5983241655874654
 31
0.0
  0
ARC
  5
33434
  8
0
 10
6.843237306169148
 20
0.6608026792358804
 30
0.0
 40
0.0674999999999996
 50
268.5
 51
271.50000000000171
  0
LINE
  5
33435
  8
0
 10
6.8414704343492403
 20
0.5933258233287413
 30
0.0
 11
6.8416012595046007
 21
0.5983241655874654
 31
0.0
  0
ARC
  5
33436
  8
0
 10
6.843237306169148
 20
0.6608026792358804
 30
0.0
 40
0.0625000000000001
 50
256.50000000000222
 51
268.50000000000131
  0
LINE
  5
33437
  8
0
 10
6.8274797693039266
 20
0.5951676420518944
 30
0.0
 11
6.8286472224840731
 21
0.6000295858863041
 31
0.0
  0
ARC
  5
33438
  8
0
 10
6.843237306169148
 20
0.6608026792358804
 30
0.0
 40
0.0674999999999997
 50
253.50000000000179
 51
256.50000000000142
  0
LINE
  5
33439
  8
0
 10
6.824065995406805
 20
0.5960822448196588
 30
0.0
 11
6.8254862989993317
 21
0.600876429436829
 31
0.0
  0
ARC
  5
3343A
  8
0
 10
6.843237306169148
 20
0.6608026792358804
 30
0.0
 40
0.0624999999999992
 50
241.50000000000341
 51
253.50000000000179
  0
LINE
  5
3343B
  8
0
 10
6.8110292393418561
 20
0.6014824491027042
 30
0.0
 11
6.8134145984526482
 21
0.6058765316752206
 31
0.0
  0
ARC
  5
3343C
  8
0
 10
6.843237306169148
 20
0.6608026792358804
 30
0.0
 40
0.0675000000000003
 50
238.50000000000401
 51
241.5
  0
LINE
  5
3343D
  8
0
 10
6.8079686346982191
 20
0.6032494686899437
 30
0.0
 11
6.810581031186258
 21
0.6075127261070961
 31
0.0
  0
ARC
  5
3343E
  8
0
 10
6.843237306169148
 20
0.6608026792358804
 30
0.0
 40
0.0624999999999991
 50
226.5000000000023
 51
238.50000000000139
  0
LINE
  5
3343F
  8
0
 10
6.7967734040264798
 20
0.6118399294522076
 30
0.0
 11
6.8002153375983019
 21
0.6154666608892301
 31
0.0
  0
ARC
  5
33440
  8
0
 10
6.843237306169148
 20
0.6608026792358804
 30
0.0
 40
0.0675000000000006
 50
223.50000000000171
 51
226.50000000000091
  0
LINE
  5
33441
  8
0
 10
6.7942748195570077
 20
0.6143388072516247
 30
0.0
 11
6.7979015509940304
 21
0.6177804474935025
 31
0.0
  0
ARC
  5
33442
  8
0
 10
6.843237306169148
 20
0.6608026792358804
 30
0.0
 40
0.0624999999999988
 50
211.50000000000239
 51
223.50000000000159
  0
LINE
  5
33443
  8
0
 10
6.7856843587947413
 20
0.6255340379233652
 30
0.0
 11
6.7899470295520041
 21
0.6281464344114041
 31
0.0
  0
ARC
  5
33444
  8
0
 10
6.843237306169148
 20
0.6608026792358804
 30
0.0
 40
0.0674999999999999
 50
208.50000000000099
 51
211.50000000000151
  0
LINE
  5
33445
  8
0
 10
6.7839173392075054
 20
0.6285943492370542
 30
0.0
 11
6.7883114217800218
 21
0.6309802950077385
 31
0.0
  0
ARC
  5
33446
  8
0
 10
6.843237306169148
 20
0.6608026792358804
 30
0.0
 40
0.0625000000000008
 50
196.50000000000199
 51
208.50000000000071
  0
LINE
  5
33447
  8
0
 10
6.7785171349244591
 20
0.6416316919618919
 30
0.0
 11
6.783311319541629
 21
0.6430517022244784
 31
0.0
  0
ARC
  5
33448
  8
0
 10
6.843237306169148
 20
0.6608026792358804
 30
0.0
 40
0.067499999999999
 50
193.50000000000111
 51
196.50000000000159
  0
LINE
  5
33449
  8
0
 10
6.7776025321566946
 20
0.6450451725290725
 30
0.0
 11
6.7824641826611609
 21
0.6462123323792754
 31
0.0
  0
ARC
  5
3344A
  8
0
 10
6.843237306169148
 20
0.6608026792358804
 30
0.0
 40
0.0624999999999992
 50
181.50000000000111
 51
193.50000000000151
  0
LINE
  5
3344B
  8
0
 10
6.7757604201035972
 20
0.6590358375743826
 30
0.0
 11
6.7807587623623213
 21
0.6591666627297466
 31
0.0
  0
ARC
  5
3344C
  8
0
 10
6.843237306169148
 20
0.6608026792358804
 30
0.0
 40
0.0675000000000004
 50
178.5
 51
181.5000000000008
  0
LINE
  5
3344D
  8
0
 10
6.7757604201035972
 20
0.6625695834189163
 30
0.0
 11
6.7807587623623213
 21
0.6624387582635523
 31
0.0
  0
ARC
  5
3344E
  8
0
 10
6.843237306169148
 20
0.6608026792358804
 30
0.0
 40
0.0624999999999992
 50
166.4999999999992
 51
178.50000000000051
  0
LINE
  5
3344F
  8
0
 10
6.7776025321566946
 20
0.6765602484642264
 30
0.0
 11
6.7824641826611609
 21
0.6753930886140234
 31
0.0
  0
ARC
  5
33450
  8
0
 10
6.843237306169148
 20
0.6608026792358804
 30
0.0
 40
0.067499999999999
 50
163.4999999999998
 51
166.49999999999969
  0
LINE
  5
33451
  8
0
 10
6.7785171349244591
 20
0.6799737290314072
 30
0.0
 11
6.783311319541629
 21
0.6785537187688207
 31
0.0
  0
ARC
  5
33452
  8
0
 10
6.843237306169148
 20
0.6608026792358804
 30
0.0
 40
0.0625000000000004
 50
151.5000000000008
 51
163.4999999999994
  0
LINE
  5
33453
  8
0
 10
6.7839173392075054
 20
0.6930107784263007
 30
0.0
 11
6.7883114217800218
 21
0.6906251259855605
 31
0.0
  0
ARC
  5
33454
  8
0
 10
6.843237306169148
 20
0.6608026792358804
 30
0.0
 40
0.0674999999999999
 50
148.49999999999989
 51
151.4999999999998
  0
LINE
  5
33455
  8
0
 10
6.7856843587947413
 20
0.6960713830699339
 30
0.0
 11
6.7899470295520041
 21
0.6934586932519498
 31
0.0
  0
ARC
  5
33456
  8
0
 10
6.843237306169148
 20
0.6608026792358804
 30
0.0
 40
0.0624999999999988
 50
136.4999999999992
 51
148.49999999999909
  0
LINE
  5
33457
  8
0
 10
6.7942748195570077
 20
0.7072666137416741
 30
0.0
 11
6.7979015509940304
 21
0.7038249734997965
 31
0.0
  0
ARC
  5
33458
  8
0
 10
6.843237306169148
 20
0.6608026792358804
 30
0.0
 40
0.0675000000000006
 50
133.4999999999998
 51
136.49999999999901
  0
LINE
  5
33459
  8
0
 10
6.7967734040264798
 20
0.7097654915410914
 30
0.0
 11
6.8002153375983019
 21
0.7061384667741244
 31
0.0
  0
ARC
  5
3345A
  8
0
 10
6.843237306169148
 20
0.6608026792358804
 30
0.0
 40
0.0624999999999991
 50
121.4999999999993
 51
133.49999999999829
  0
LINE
  5
3345B
  8
0
 10
6.8079686346982191
 20
0.7183559523033553
 30
0.0
 11
6.810581031186258
 21
0.7140926948862028
 31
0.0
  0
ARC
  5
3345C
  8
0
 10
6.843237306169148
 20
0.6608026792358804
 30
0.0
 40
0.0675000000000003
 50
118.5000000000007
 51
121.4999999999993
  0
LINE
  5
3345D
  8
0
 10
6.8110292393418561
 20
0.7201229718905946
 30
0.0
 11
6.8134145984526482
 21
0.7157288893180782
 31
0.0
  0
ARC
  5
3345E
  8
0
 10
6.843237306169148
 20
0.6608026792358804
 30
0.0
 40
0.0625000000000001
 50
106.49999999999881
 51
118.5000000000002
  0
LINE
  5
3345F
  8
0
 10
6.824065995406805
 20
0.7255228828436957
 30
0.0
 11
6.8254862989993317
 21
0.7207289915564701
 31
0.0
  0
ARC
  5
33460
  8
0
 10
6.843237306169148
 20
0.6608026792358804
 30
0.0
 40
0.0675000000000005
 50
103.4999999999992
 51
106.49999999999881
  0
LINE
  5
33461
  8
0
 10
6.8274797693039266
 20
0.7264377789414045
 30
0.0
 11
6.8286472224840731
 21
0.7215758351069948
 31
0.0
  0
ARC
  5
33462
  8
0
 10
6.843237306169148
 20
0.6608026792358804
 30
0.0
 40
0.0625000000000001
 50
91.499999999999474
 51
103.49999999999839
  0
LINE
  5
33463
  8
0
 10
6.8415496334343251
 20
0.7252480326854549
 30
0.0
 11
6.8416012595046007
 21
0.7232812554058336
 31
0.0
  0
LINE
  5
33464
  8
0
 10
6.8448965281040444
 20
0.7241606585802263
 30
0.0
 11
6.8448736483683517
 21
0.7232812554058336
 31
0.0
  0
POLYLINE
  5
33465
  8
0
 66
     1
 10
0.0
 20
0.0
 30
0.0
  0
VERTEX
  5
33E5A
  8
0
 10
6.8481260907958621
 20
0.7231111240378727
 30
0.0
  0
VERTEX
  5
33E5B
  8
0
 10
6.8465080828205567
 20
0.7232170161479309
 30
0.0
  0
VERTEX
  5
33E5C
  8
0
 10
6.8448736483683517
 20
0.7232812554058336
 30
0.0
  0
SEQEND
  5
33E5D
  8
0
  0
ARC
  5
33466
  8
0
 10
6.843237306169148
 20
0.6608026792358804
 30
0.0
 40
0.0625000000000013
 50
46.49999999999914
 51
58.500000000001151
  0
LINE
  5
33467
  8
0
 10
6.889582998548792
 20
0.7096408263145682
 30
0.0
 11
6.8862595702746523
 21
0.7061384667741244
 31
0.0
  0
ARC
  5
33468
  8
0
 10
6.843237306169148
 20
0.6608026792358804
 30
0.0
 40
0.0675000000000006
 50
43.500000000001357
 51
46.500000000000192
  0
LINE
  5
33469
  8
0
 10
6.8922000883159491
 20
0.7072666137416741
 30
0.0
 11
6.8885733568789238
 21
0.7038249734997965
 31
0.0
  0
ARC
  5
3346A
  8
0
 10
6.843237306169148
 20
0.6608026792358804
 30
0.0
 40
0.062500000000002
 50
31.500000000001599
 51
43.499999999999169
  0
LINE
  5
3346B
  8
0
 10
6.900790549078212
 20
0.6960713830699339
 30
0.0
 11
6.8965272916610569
 21
0.6934586932519498
 31
0.0
  0
ARC
  5
3346C
  8
0
 10
6.843237306169148
 20
0.6608026792358804
 30
0.0
 40
0.067500000000003
 50
28.499999999998689
 51
31.499999999999741
  0
LINE
  5
3346D
  8
0
 10
6.9025575686654488
 20
0.6930107784263007
 30
0.0
 11
6.8981634860929324
 21
0.6906251259855605
 31
0.0
  0
ARC
  5
3346E
  8
0
 10
6.843237306169148
 20
0.6608026792358804
 30
0.0
 40
0.0625000000000012
 50
16.50000000000033
 51
28.500000000000622
  0
LINE
  5
3346F
  8
0
 10
6.907957772948496
 20
0.6799737290314072
 30
0.0
 11
6.9031635883313269
 21
0.6785537187688207
 31
0.0
  0
ARC
  5
33470
  8
0
 10
6.843237306169148
 20
0.6608026792358804
 30
0.0
 40
0.0675000000000027
 50
13.5000000000003
 51
16.500000000000849
  0
LINE
  5
33471
  8
0
 10
6.9088723757162578
 20
0.6765602484642264
 30
0.0
 11
6.9040101385519073
 21
0.6753930886140234
 31
0.0
  0
ARC
  5
33472
  8
0
 10
6.843237306169148
 20
0.6608026792358804
 30
0.0
 40
0.0625000000000028
 50
1.5000000000010121
 51
13.500000000001529
  0
LINE
  5
33473
  8
0
 10
6.91071390110947
 20
0.6625695834189163
 30
0.0
 11
6.9057161455106337
 21
0.6624387582635523
 31
0.0
  0
ARC
  5
33474
  8
0
 10
6.843237306169148
 20
0.6608026792358804
 30
0.0
 40
0.0675000000000004
 50
358.50000000000148
 51
1.5000000000007829
  0
LINE
  5
33475
  8
0
 10
6.91071390110947
 20
0.6590358375743826
 30
0.0
 11
6.9057161455106337
 21
0.6591666627297466
 31
0.0
  0
ARC
  5
33476
  8
0
 10
6.843237306169148
 20
0.6608026792358804
 30
0.0
 40
0.0625000000000036
 50
346.50000000000239
 51
358.50000000000142
  0
LINE
  5
33477
  8
0
 10
6.9088723757162578
 20
0.6450451725290725
 30
0.0
 11
6.9040101385519073
 21
0.6462123323792754
 31
0.0
  0
ARC
  5
33478
  8
0
 10
6.843237306169148
 20
0.6608026792358804
 30
0.0
 40
0.0675000000000023
 50
343.50000000000068
 51
346.50000000000199
  0
LINE
  5
33479
  8
0
 10
6.907957772948496
 20
0.6416316919618919
 30
0.0
 11
6.9031635883313269
 21
0.6430517022244784
 31
0.0
  0
ARC
  5
3347A
  8
0
 10
6.843237306169148
 20
0.6608026792358804
 30
0.0
 40
0.0625000000000004
 50
331.50000000000159
 51
343.50000000000119
  0
LINE
  5
3347B
  8
0
 10
6.9025575686654488
 20
0.6285943492370542
 30
0.0
 11
6.8981634860929324
 21
0.6309802950077385
 31
0.0
  0
ARC
  5
3347C
  8
0
 10
6.843237306169148
 20
0.6608026792358804
 30
0.0
 40
0.0675000000000026
 50
328.50000000000227
 51
331.50000000000267
  0
LINE
  5
3347D
  8
0
 10
6.900790549078212
 20
0.6255340379233652
 30
0.0
 11
6.8965272916610569
 21
0.6281464344114041
 31
0.0
  0
ARC
  5
3347E
  8
0
 10
6.843237306169148
 20
0.6608026792358804
 30
0.0
 40
0.0625000000000014
 50
316.50000000000239
 51
328.50000000000051
  0
LINE
  5
3347F
  8
0
 10
6.8922000883159491
 20
0.6143388072516247
 30
0.0
 11
6.8885733568789238
 21
0.6177804474935025
 31
0.0
  0
ARC
  5
33480
  8
0
 10
6.843237306169148
 20
0.6608026792358804
 30
0.0
 40
0.0675
 50
313.50000000000108
 51
316.5000000000004
  0
LINE
  5
33481
  8
0
 10
6.8897015038464717
 20
0.6118399294522076
 30
0.0
 11
6.8862595702746523
 21
0.6154666608892301
 31
0.0
  0
ARC
  5
33482
  8
0
 10
6.843237306169148
 20
0.6608026792358804
 30
0.0
 40
0.0625000000000009
 50
301.50000000000279
 51
313.5000000000021
  0
LINE
  5
33483
  8
0
 10
6.8785056865148428
 20
0.6032494686899437
 30
0.0
 11
6.8758932900268031
 21
0.6075127261070961
 31
0.0
  0
ARC
  5
33484
  8
0
 10
6.843237306169148
 20
0.6608026792358804
 30
0.0
 40
0.0675000000000003
 50
298.50000000000171
 51
301.50000000000051
  0
LINE
  5
33485
  8
0
 10
6.8754456685311034
 20
0.6014824491027042
 30
0.0
 11
6.8730597227604164
 21
0.6058765316752206
 31
0.0
  0
ARC
  5
33486
  8
0
 10
6.843237306169148
 20
0.6608026792358804
 30
0.0
 40
0.0624999999999992
 50
286.49999999999989
 51
298.50000000000131
  0
LINE
  5
33487
  8
0
 10
6.862408325806264
 20
0.5960822448196588
 30
0.0
 11
6.8609880222137321
 21
0.600876429436829
 31
0.0
  0
ARC
  5
33488
  8
0
 10
6.843237306169148
 20
0.6608026792358804
 30
0.0
 40
0.0675000000000003
 50
283.5
 51
286.50000000000261
  0
LINE
  5
33489
  8
0
 10
6.8589951385690267
 20
0.5951676420518944
 30
0.0
 11
6.8578276853888802
 21
0.6000295858863041
 31
0.0
  0
ARC
  5
3348A
  8
0
 10
6.843237306169148
 20
0.6608026792358804
 30
0.0
 40
0.0625000000000001
 50
271.50000000000028
 51
283.50000000000261
  0
LINE
  5
3348B
  8
0
 10
5.801992415821343
 20
5.9909055366939672
 30
0.0
 11
5.7193842501179217
 21
5.9909055366939672
 31
0.0
  0
LINE
  5
3348C
  8
0
 10
6.0633840095366818
 20
5.9909055366939672
 30
0.0
 11
5.801992415821343
 21
5.9909055366939672
 31
0.0
  0
LINE
  5
3348D
  8
0
 10
1.7977339000240811
 20
3.5202261498597398
 30
0.0
 11
1.7977339000240811
 21
3.7914055405056111
 31
0.0
  0
LINE
  5
3348E
  8
0
 10
1.7977339000240811
 20
3.4704055253918451
 30
0.0
 11
1.7977339000240811
 21
3.5202261498597398
 31
0.0
  0
ARC
  5
3348F
  8
0
 10
1.9481657868923641
 20
3.6440805110641881
 30
0.0
 40
0.2100190114411465
 50
183.85831118785401
 51
189.20353624038719
  0
ARC
  5
33490
  8
0
 10
1.8795317459154821
 20
3.6482959716942061
 30
0.0
 40
0.1437421790164089
 50
195.2490353267271
 51
202.7962125314057
  0
ARC
  5
33491
  8
0
 10
1.7704184143960511
 20
3.5975228526876308
 30
0.0
 40
0.0323051902963369
 50
190.18992847053411
 51
203.75605112694231
  0
ARC
  5
33492
  8
0
 10
1.8561134115733531
 20
3.618818814003915
 30
0.0
 40
0.1202610193763326
 50
196.57649541056901
 51
210.7063194308956
  0
LINE
  5
33493
  8
0
 10
1.7527134734372189
 20
3.557408997403646
 30
0.0
 11
1.7527134734372189
 21
3.584180983131382
 31
0.0
  0
ARC
  5
33494
  8
0
 10
1.8732738971812051
 20
3.650944317025381
 30
0.0
 40
0.1378120405696499
 50
196.07526812272889
 51
208.9765824105865
  0
ARC
  5
33495
  8
0
 10
1.940304238536064
 20
3.645742688646274
 30
0.0
 40
0.2021585181955538
 50
183.93699359456761
 51
189.3829872635464
  0
ARC
  5
33496
  8
0
 10
1.9481657868922939
 20
3.6177305548332761
 30
0.0
 40
0.2100190114410787
 50
170.79646375961249
 51
176.14168881214721
  0
ARC
  5
33497
  8
0
 10
1.883488323863389
 20
3.6121826444657619
 30
0.0
 40
0.1479101097567069
 50
152.147206040144
 51
164.6560990332346
  0
LINE
  5
33498
  8
0
 10
1.7527134734372189
 20
3.681286472610481
 30
0.0
 11
1.7527134734372189
 21
3.7067790860343028
 31
0.0
  0
ARC
  5
33499
  8
0
 10
1.866417843191019
 20
3.642773038290223
 30
0.0
 40
0.1304816379760985
 50
150.6241287055901
 51
164.22515551774509
  0
ARC
  5
3349A
  8
0
 10
1.77828947517418
 20
3.6637042833311861
 30
0.0
 40
0.0401637286872226
 50
158.77397065051389
 51
170.97673716890009
  0
LINE
  5
3349B
  8
0
 10
1.752075334142394
 20
3.5853548254043881
 30
0.0
 11
1.740850477146235
 21
3.584508921426345
 31
0.0
  0
LINE
  5
3349C
  8
0
 10
1.750799788877603
 20
3.677519836539648
 30
0.0
 11
1.740850477146235
 21
3.678245484406903
 31
0.0
  0
LINE
  5
3349D
  8
0
 10
1.7483699902801779
 20
3.5927304510338658
 30
0.0
 11
1.738622782880749
 21
3.5918076854437322
 31
0.0
  0
LINE
  5
3349E
  8
0
 10
1.7470174459048871
 20
3.669208669425962
 30
0.0
 11
1.738622782880749
 21
3.6700033804537231
 31
0.0
  0
LINE
  5
3349F
  8
0
 10
1.7387634345892611
 20
3.6299487941507969
 30
0.0
 11
1.738622782880749
 21
3.6299484681649781
 31
0.0
  0
LINE
  5
334A0
  8
0
 10
1.741537015881949
 20
3.6104568585485599
 30
0.0
 11
1.740850477146235
 21
3.6104896267116859
 31
0.0
  0
LINE
  5
334A1
  8
0
 10
5.7063838669661271
 20
6.0109055056526186
 30
0.0
 11
6.0788841504777302
 21
6.0109055056526186
 31
0.0
  0
ARC
  5
334A2
  8
0
 10
5.7039941423468568
 20
6.1988106871892903
 30
0.0
 40
0.1248896255969365
 50
270.20628255329581
 51
0.0435679894093245
  0
LINE
  5
334A3
  8
0
 10
5.8288837318372311
 20
6.4489054858394708
 30
0.0
 11
5.8288837318372311
 21
6.1989056538588621
 31
0.0
  0
LINE
  5
334A4
  8
0
 10
5.8288837318372311
 20
6.4489054858394708
 30
0.0
 11
5.9538839411574811
 21
6.4489054858394708
 31
0.0
  0
LINE
  5
334A5
  8
0
 10
5.9538839411574811
 20
6.1989056538588621
 30
0.0
 11
5.9538839411574811
 21
6.4489054858394708
 31
0.0
  0
POLYLINE
  5
334A6
  8
0
 66
     1
 10
0.0
 20
0.0
 30
0.0
  0
VERTEX
  5
33E5E
  8
0
 10
6.0788489508843604
 20
6.0739067645233664
 30
0.0
  0
VERTEX
  5
33E5F
  8
0
 10
6.0788835638178433
 20
6.0739055912035891
 30
0.0
  0
VERTEX
  5
33E60
  8
0
 10
6.0682996327509811
 20
6.074354532684044
 30
0.0
  0
VERTEX
  5
33E61
  8
0
 10
6.0556606320911293
 20
6.076081806063768
 30
0.0
  0
VERTEX
  5
33E62
  8
0
 10
6.038038542329681
 20
6.080767165271431
 30
0.0
  0
VERTEX
  5
33E63
  8
0
 10
6.0100431324017132
 20
6.0945696591571767
 30
0.0
  0
VERTEX
  5
33E64
  8
0
 10
5.9819532702315321
 20
6.1199787789621922
 30
0.0
  0
VERTEX
  5
33E65
  8
0
 10
5.9631707672086067
 20
6.151625266712597
 30
0.0
  0
VERTEX
  5
33E66
  8
0
 10
5.9543444691707563
 20
6.1881829777281334
 30
0.0
  0
VERTEX
  5
33E67
  8
0
 10
5.9538839411574811
 20
6.1989056538588621
 30
0.0
  0
SEQEND
  5
33E68
  8
0
  0
ARC
  5
334A7
  8
0
 10
5.891311303593838
 20
8.3451664646717898
 30
0.0
 40
2.355828337663298
 50
267.93650638738927
 51
270.0017711968872
  0
POLYLINE
  5
334A8
  8
0
 66
     1
 10
0.0
 20
0.0
 30
0.0
  0
VERTEX
  5
33E69
  8
0
 10
5.9772459112780121
 20
5.990900696749879
 30
0.0
  0
VERTEX
  5
33E6A
  8
0
 10
5.9773796697328221
 20
5.9909053900289946
 30
0.0
  0
VERTEX
  5
33E6B
  8
0
 10
5.9722604755368556
 20
5.9907244054530766
 30
0.0
  0
VERTEX
  5
33E6C
  8
0
 10
5.9580351465357371
 20
5.9902797172568203
 30
0.0
  0
VERTEX
  5
33E6D
  8
0
 10
5.9362917710503966
 20
5.9897655098636546
 30
0.0
  0
VERTEX
  5
33E6E
  8
0
 10
5.9094767208201482
 20
5.9894075006660721
 30
0.0
  0
VERTEX
  5
33E6F
  8
0
 10
5.8913841298273031
 20
5.9893381281341371
 30
0.0
  0
SEQEND
  5
33E70
  8
0
  0
LINE
  5
334A9
  8
0
 10
1.821383920150363
 20
5.3172766918451959
 30
0.0
 11
1.821383920150363
 21
1.9445343740522609
 31
0.0
  0
LINE
  5
334AA
  8
0
 10
7.2137536537017217
 20
0.5410051477416502
 30
0.0
 11
6.9972532747325751
 21
0.5410051477416502
 31
0.0
  0
LINE
  5
334AB
  8
0
 10
7.0235033714892161
 20
0.5420051095233398
 30
0.0
 11
6.9972532747325751
 21
0.5420051095233398
 31
0.0
  0
LINE
  5
334AC
  8
0
 10
6.9972532747325751
 20
0.6760049748787944
 30
0.0
 11
7.0235033714892161
 21
0.6760049748787944
 31
0.0
  0
LINE
  5
334AD
  8
0
 10
6.9972532747325751
 20
0.6750050130971044
 30
0.0
 11
7.0235033714892161
 21
0.6750050130971044
 31
0.0
  0
LINE
  5
334AE
  8
0
 10
7.2272532844194979
 20
0.5410051477416502
 30
0.0
 11
7.4437530767287612
 21
0.5410051477416502
 31
0.0
  0
LINE
  5
334AF
  8
0
 10
7.0008401132971061
 20
0.6797117853907359
 30
0.0
 11
6.997233914956217
 21
0.6797117853907359
 31
0.0
  0
LINE
  5
334B0
  8
0
 10
6.9455034192179861
 20
0.6420051009815717
 30
0.0
 11
7.0235033714892161
 21
0.6420051009815717
 31
0.0
  0
LINE
  5
334B1
  8
0
 10
6.9455034192179861
 20
0.5920049585874834
 30
0.0
 11
7.0235033714892161
 21
0.5920049585874834
 31
0.0
  0
ARC
  5
334B2
  8
0
 10
6.843237306169148
 20
0.6608026792358812
 30
0.0
 40
0.1125000000000024
 50
181.00000000000051
 51
316.00000000000182
  0
ARC
  5
334B3
  8
0
 10
6.843237306169148
 20
0.6608026792358812
 30
0.0
 40
0.0625000000000008
 50
181.00000000000011
 51
315.99999999999892
  0
ARC
  5
334B4
  8
0
 10
6.9455033621932962
 20
0.5630050299636454
 30
0.0
 40
0.0790000000000006
 50
90.0
 51
135.9999999999994
  0
ARC
  5
334B5
  8
0
 10
6.9455033621932962
 20
0.5630050299636454
 30
0.0
 40
0.0290000000000015
 50
90.0
 51
135.99999999999969
  0
LINE
  5
334B6
  8
0
 10
6.9241630790767523
 20
0.5826535999485101
 30
0.0
 11
6.9246423802064871
 21
0.58315020754499
 31
0.0
  0
LINE
  5
334B7
  8
0
 10
6.888196134569962
 20
0.6173865053776888
 30
0.0
 11
6.8886754356997022
 21
0.6178831129741697
 31
0.0
  0
LINE
  5
334B8
  8
0
 10
6.9565173719838622
 20
0.6611419465777653
 30
0.0
 11
6.9565173719838622
 21
0.6596714835646793
 31
0.0
  0
LINE
  5
334B9
  8
0
 10
6.9065175229197191
 20
0.6611419465777653
 30
0.0
 11
6.9065175229197191
 21
0.6596714835646793
 31
0.0
  0
ARC
  5
334BA
  8
0
 10
6.8440175609412002
 20
0.6611419436663895
 30
0.0
 40
0.1124999999999972
 50
0.0
 51
14.354947939232479
  0
ARC
  5
334BB
  8
0
 10
6.8440175609412002
 20
0.6611419436663895
 30
0.0
 40
0.0624999999999984
 50
0.0
 51
46.000000000001002
  0
ARC
  5
334BC
  8
0
 10
6.8432179051604924
 20
0.6619141622775251
 30
0.0
 40
0.1125000000000029
 50
129.93837874593709
 51
181.00000000000051
  0
LINE
  5
334BD
  8
0
 10
6.886633859284168
 20
0.7068729649558057
 30
0.0
 11
6.8792073317427134
 21
0.7130123606996488
 31
0.0
  0
ARC
  5
334BE
  8
0
 10
6.8432179051604924
 20
0.6619141622775251
 30
0.0
 40
0.0625000000000005
 50
89.157809726979139
 51
181.0000000000002
  0
LINE
  5
334BF
  8
0
 10
6.886633859284168
 20
0.7068729649558057
 30
0.0
 11
6.887433476713583
 21
0.7061006272112503
 31
0.0
  0
LINE
  5
334C0
  8
0
 10
6.7307542200190609
 20
0.6588393065113936
 30
0.0
 11
6.7307348602427091
 21
0.6599507336720915
 31
0.0
  0
LINE
  5
334C1
  8
0
 10
6.7807470291645302
 20
0.6597119630970562
 30
0.0
 11
6.7807276693881766
 21
0.6608233902577548
 31
0.0
  0
LINE
  5
334C2
  8
0
 10
6.9704839839737041
 20
0.7307118895665142
 30
0.0
 11
6.948128722223597
 21
0.7307118895665142
 31
0.0
  0
LINE
  5
334C3
  8
0
 10
7.0018521016065352
 20
0.6807117471724258
 30
0.0
 11
6.9548025651267933
 21
0.6807117471724258
 31
0.0
  0
LINE
  5
334C4
  8
0
 10
6.9064981631433682
 20
0.6626992352545003
 30
0.0
 11
6.9064981631433682
 21
0.6624592913596861
 31
0.0
  0
ARC
  5
334C5
  8
0
 10
6.8439981599325392
 20
0.6615748978470271
 30
0.0
 40
0.0624999999999988
 50
316.61914808907272
 51
327.53191231354879
  0
ARC
  5
334C6
  8
0
 10
6.8439981599325392
 20
0.6615748978470271
 30
0.0
 40
0.0624999999999992
 50
330.54500751212612
 51
342.62309961728442
  0
ARC
  5
334C7
  8
0
 10
6.8439981599325392
 20
0.6615748978470271
 30
0.0
 40
0.0625
 50
345.64878264822818
 51
357.7740468814049
  0
POLYLINE
  5
334C8
  8
0
 66
     1
 10
0.0
 20
0.0
 30
0.0
  0
VERTEX
  5
33E71
  8
0
 10
6.954783205350437
 20
0.6420051009815717
 30
0.0
  0
VERTEX
  5
33E72
  8
0
 10
6.9559318854141221
 20
0.6503036984487994
 30
0.0
  0
VERTEX
  5
33E73
  8
0
 10
6.9564980122075113
 20
0.6615749015762323
 30
0.0
  0
SEQEND
  5
33E74
  8
0
  0
LINE
  5
334C9
  8
0
 10
6.8886560759233451
 20
0.704833735179828
 30
0.0
 11
6.8899690207560971
 21
0.7035061238498406
 31
0.0
  0
LINE
  5
334CA
  8
0
 10
6.7307155004663519
 20
0.6627661144819053
 30
0.0
 11
6.7307348602427091
 21
0.6638775416426042
 31
0.0
  0
LINE
  5
334CB
  8
0
 10
7.0235033714892161
 20
0.7092729905638378
 30
0.0
 11
6.9737417063402161
 21
0.7013915082780609
 31
0.0
  0
LINE
  5
334CC
  8
0
 10
7.0235033714892161
 20
0.6940858326738484
 30
0.0
 11
6.9760883458983018
 21
0.6865759994280829
 31
0.0
  0
ARC
  5
334CD
  8
0
 10
6.9692053894048973
 20
0.7300344220445272
 30
0.0
 40
0.0440000000000004
 50
252.0000000000004
 51
279.00000000000313
  0
ARC
  5
334CE
  8
0
 10
6.9692053894048973
 20
0.7300344220445272
 30
0.0
 40
0.0290000000000006
 50
251.99999999999881
 51
278.99999999999858
  0
LINE
  5
334CF
  8
0
 10
6.9556086358149942
 20
0.6881878474745431
 30
0.0
 11
6.8005503203952191
 21
0.738569318796821
 31
0.0
  0
LINE
  5
334D0
  8
0
 10
6.960243835602105
 20
0.7024536560080393
 30
0.0
 11
6.8051861068422221
 21
0.7528351273303171
 31
0.0
  0
LINE
  5
334D1
  8
0
 10
6.7529980163901611
 20
0.7540201803071504
 30
0.0
 11
6.757633216177271
 21
0.7682859888406464
 31
0.0
  0
POLYLINE
  5
334D2
  8
0
 66
     1
 10
0.0
 20
0.0
 30
0.0
  0
VERTEX
  5
33E75
  8
0
 10
6.8005503203952191
 20
0.738569318796821
 30
0.0
  0
VERTEX
  5
33E76
  8
0
 10
6.7912734675622151
 20
0.741583577309183
 30
0.0
  0
VERTEX
  5
33E77
  8
0
 10
6.7823527172821514
 20
0.7444822638233087
 30
0.0
  0
VERTEX
  5
33E78
  8
0
 10
6.7741318522502851
 20
0.7471533263003006
 30
0.0
  0
VERTEX
  5
33E79
  8
0
 10
6.7669259088272931
 20
0.7494946859193812
 30
0.0
  0
VERTEX
  5
33E7A
  8
0
 10
6.7610117904810219
 20
0.7514162903875086
 30
0.0
  0
VERTEX
  5
33E7B
  8
0
 10
6.756617707908509
 20
0.7528442205586039
 30
0.0
  0
VERTEX
  5
33E7C
  8
0
 10
6.7539114458381428
 20
0.7537233304030524
 30
0.0
  0
VERTEX
  5
33E7D
  8
0
 10
6.7529980163901611
 20
0.7540201803071504
 30
0.0
  0
SEQEND
  5
33E7E
  8
0
  0
POLYLINE
  5
334D3
  8
0
 66
     1
 10
0.0
 20
0.0
 30
0.0
  0
VERTEX
  5
33E7F
  8
0
 10
6.757633216177271
 20
0.7682859888406464
 30
0.0
  0
VERTEX
  5
33E80
  8
0
 10
6.7585466456252554
 20
0.7679891389365486
 30
0.0
  0
VERTEX
  5
33E81
  8
0
 10
6.761252907695618
 20
0.7671100290921001
 30
0.0
  0
VERTEX
  5
33E82
  8
0
 10
6.7656469902681318
 20
0.7656820989210047
 30
0.0
  0
VERTEX
  5
33E83
  8
0
 10
6.7715611086144021
 20
0.7637604944528765
 30
0.0
  0
VERTEX
  5
33E84
  8
0
 10
6.7787670520373942
 20
0.7614191348337968
 30
0.0
  0
VERTEX
  5
33E85
  8
0
 10
6.7869879170692622
 20
0.7587480723568048
 30
0.0
  0
VERTEX
  5
33E86
  8
0
 10
6.7959086673493259
 20
0.7558493858426783
 30
0.0
  0
VERTEX
  5
33E87
  8
0
 10
6.8051861068422221
 20
0.7528351273303171
 30
0.0
  0
SEQEND
  5
33E88
  8
0
  0
POLYLINE
  5
334D4
  8
0
 66
     1
 10
0.0
 20
0.0
 30
0.0
  0
VERTEX
  5
33E89
  8
0
 10
6.7607231538153796
 20
0.7777966256396252
 30
0.0
  0
VERTEX
  5
33E8A
  8
0
 10
6.7601200674489501
 20
0.7759413137390129
 30
0.0
  0
VERTEX
  5
33E8B
  8
0
 10
6.7595404474781056
 20
0.7741569876850331
 30
0.0
  0
VERTEX
  5
33E8C
  8
0
 10
6.759006586978642
 20
0.7725128733446489
 30
0.0
  0
VERTEX
  5
33E8D
  8
0
 10
6.7585378457269121
 20
0.771071743326039
 30
0.0
  0
VERTEX
  5
33E8E
  8
0
 10
6.7581535834992748
 20
0.7698887436588189
 30
0.0
  0
VERTEX
  5
33E8F
  8
0
 10
6.757868466792968
 20
0.7690099271443156
 30
0.0
  0
VERTEX
  5
33E90
  8
0
 10
6.7576924688261117
 20
0.7684687333962322
 30
0.0
  0
VERTEX
  5
33E91
  8
0
 10
6.757633216177271
 20
0.7682859888406464
 30
0.0
  0
SEQEND
  5
33E92
  8
0
  0
LINE
  5
334D5
  8
0
 10
6.9538234297711821
 20
0.7150545237750725
 30
0.0
 11
6.7607231538153796
 21
0.7777966256396252
 31
0.0
  0
POLYLINE
  5
334D6
  8
0
 66
     1
 10
0.0
 20
0.0
 30
0.0
  0
VERTEX
  5
33E93
  8
0
 10
6.9507334921330708
 20
0.7055438869760941
 30
0.0
  0
VERTEX
  5
33E94
  8
0
 10
6.9507927447819116
 20
0.7057266315316797
 30
0.0
  0
VERTEX
  5
33E95
  8
0
 10
6.9509687427487679
 20
0.7062678252797641
 30
0.0
  0
VERTEX
  5
33E96
  8
0
 10
6.951253859455079
 20
0.7071466417942675
 30
0.0
  0
VERTEX
  5
33E97
  8
0
 10
6.9516387083426023
 20
0.7083296414614875
 30
0.0
  0
VERTEX
  5
33E98
  8
0
 10
6.9521068629344418
 20
0.7097707714800974
 30
0.0
  0
VERTEX
  5
33E99
  8
0
 10
6.9526407234339063
 20
0.7114148858204814
 30
0.0
  0
VERTEX
  5
33E9A
  8
0
 10
6.9532209300646421
 20
0.7131992118744606
 30
0.0
  0
VERTEX
  5
33E9B
  8
0
 10
6.9538234297711821
 20
0.7150545237750725
 30
0.0
  0
SEQEND
  5
33E9C
  8
0
  0
ARC
  5
334D7
  8
0
 10
6.8360417150267532
 20
0.6810813789007267
 30
0.0
 40
0.1225835363399865
 50
16.089749305880389
 51
127.910250694121
  0
LINE
  5
334D8
  8
0
 10
6.9704839839737041
 20
0.7307118895665142
 30
0.0
 11
6.9704839839737041
 21
0.7457119029517463
 31
0.0
  0
LINE
  5
334D9
  8
0
 10
6.9704839839737041
 20
0.7457119029517463
 30
0.0
 11
6.9934528919682517
 21
0.7457119029517463
 31
0.0
  0
LINE
  5
334DA
  8
0
 10
7.0235033714892161
 20
0.7307118895665142
 30
0.0
 11
6.9704839839737041
 21
0.7307118895665142
 31
0.0
  0
LINE
  5
334DB
  8
0
 10
7.4609838643438966
 20
7.260555602921392
 30
0.0
 11
7.0859838230430379
 21
7.260555602921392
 31
0.0
  0
LINE
  5
334DC
  8
0
 10
7.0859838230430379
 20
6.760555645630232
 30
0.0
 11
7.4609838643438966
 21
6.760555645630232
 31
0.0
  0
LINE
  5
334DD
  8
0
 10
7.4297342520087533
 20
6.7293054466351974
 30
0.0
 11
7.1172340220380761
 21
6.7293054466351974
 31
0.0
  0
LINE
  5
334DE
  8
0
 10
7.1172340220380761
 20
7.2918055085864806
 30
0.0
 11
7.4297342520087533
 21
7.2918055085864806
 31
0.0
  0
LINE
  5
334DF
  8
0
 10
7.0235033714892161
 20
0.7457119029517463
 30
0.0
 11
7.0022862299247768
 21
0.7457119029517463
 31
0.0
  0
LINE
  5
334E0
  8
0
 10
6.9875839464334772
 20
0.7879056555259159
 30
0.0
 11
6.9875839464334772
 21
6.4739054103715441
 31
0.0
  0
LINE
  5
334E1
  8
0
 10
6.5854837381960634
 20
1.037905487506523
 30
0.0
 11
6.5854837381960634
 21
6.2239055783909381
 31
0.0
  0
LINE
  5
334E2
  8
0
 10
1.8178365344633991
 20
3.5202261498597398
 30
0.0
 11
1.8178365344633991
 21
3.7914055405056111
 31
0.0
  0
LINE
  5
334E3
  8
0
 10
1.8178365344633991
 20
3.4704055253918451
 30
0.0
 11
1.8178365344633991
 21
3.5202261498597398
 31
0.0
  0
LINE
  5
334E4
  8
0
 10
6.8905492273868321
 20
0.7093269632736741
 30
0.0
 11
6.887433476713583
 21
0.7061006272112503
 31
0.0
  0
LINE
  5
334E5
  8
0
 10
6.886633859284168
 20
0.7068729649558057
 30
0.0
 11
6.8893729743083441
 21
0.7097091721916975
 31
0.0
  0
LINE
  5
334E6
  8
0
 10
6.7307155004663519
 20
0.6627661144819053
 30
0.0
 11
6.7307213670652484
 21
0.6627661144819053
 31
0.0
  0
ENDBLK
  5
334EA
  8
0
  0
BLOCK
  8
0
  2
LX2060
 70
     0
 10
0.0
 20
0.0
 30
0.0
  3
LX2060
  1

  0
ARC
  5
3356D
  8
0
 10
14.492946502204081
 20
4.3917264128988531
 30
0.0
 40
0.0100000000000007
 50
358.99999999996612
 51
90.0
  0
ARC
  5
3356E
  8
0
 10
10.28034595395922
 20
4.3917264128988531
 30
0.0
 40
0.0100000000000007
 50
90.0
 51
181.0000000000355
  0
LINE
  5
3356F
  8
0
 10
10.27034747700765
 20
4.391551888834476
 30
0.0
 11
10.29185446307198
 21
3.1594174824160559
 31
0.0
  0
LINE
  5
33570
  8
0
 10
14.48143799309131
 20
3.1594174824160559
 30
0.0
 11
14.50294497915565
 21
4.391551888834476
 31
0.0
  0
ARC
  5
33571
  8
0
 10
10.413194779804259
 20
3.1615354855230291
 30
0.0
 40
0.1213588002653755
 50
181.00000000000091
 51
263.00000000000227
  0
ARC
  5
33572
  8
0
 10
14.360097676359031
 20
3.1615354855230291
 30
0.0
 40
0.1213588002653763
 50
277.00000000000023
 51
359.00000000000068
  0
LINE
  5
33573
  8
0
 10
10.39840486249949
 20
3.041081275351821
 30
0.0
 11
10.744295596624619
 21
2.998611233441888
 31
0.0
  0
LINE
  5
33574
  8
0
 10
14.02899685953868
 20
2.998611233441888
 30
0.0
 11
14.374887593663811
 21
3.041081275351821
 31
0.0
  0
ARC
  5
33575
  8
0
 10
14.025950125953569
 20
3.023424887232923
 30
0.0
 40
0.0250000000000011
 50
270.0000000000008
 51
276.99999999997448
  0
ARC
  5
33576
  8
0
 10
10.74734233020973
 20
3.023424887232923
 30
0.0
 40
0.0250000000000011
 50
263.00000000002711
 51
270.0000000000008
  0
LINE
  5
33577
  8
0
 10
10.74734233020973
 20
2.9984248872329231
 30
0.0
 11
14.025950125953569
 21
2.9984248872329231
 31
0.0
  0
ARC
  5
33578
  8
0
 10
14.49293187729517
 20
4.4411752317964881
 30
0.0
 40
0.0098425196850389
 50
270.0000000000008
 51
0.1579116414144229
  0
ARC
  5
33579
  8
0
 10
10.28036057886813
 20
4.4411752317964881
 30
0.0
 40
0.0098425196850398
 50
179.84208835858561
 51
270.0000000000008
  0
ARC
  5
3357A
  8
0
 10
10.92173595523785
 20
4.4313327121114501
 30
0.0
 40
3.5810520051272579
 50
0.1579116414102747
 51
33.193507381731301
  0
ARC
  5
3357B
  8
0
 10
13.85155650092544
 20
4.4313327121114501
 30
0.0
 40
3.5810520051272579
 50
146.807233816711
 51
179.84208835858971
  0
ARC
  5
3357C
  8
0
 10
14.35898874776669
 20
4.4214901924264121
 30
0.0
 40
0.0098425196850407
 50
90.0
 51
180.0
  0
ARC
  5
3357D
  8
0
 10
10.414303708396609
 20
4.4214901924264121
 30
0.0
 40
0.0098425196850398
 50
0.0
 51
90.0
  0
LINE
  5
3357E
  8
0
 10
10.42414622808165
 20
4.4214901924264121
 30
0.0
 11
10.42414622808165
 21
4.4017264128988547
 31
0.0
  0
LINE
  5
3357F
  8
0
 10
14.349146228081651
 20
4.4017264128988547
 30
0.0
 11
14.349146228081651
 21
4.4214901924264121
 31
0.0
  0
ARC
  5
33580
  8
0
 10
10.77247300248438
 20
6.4457301911288267
 30
0.0
 40
0.0984251941012022
 50
326.75221089953402
 51
359.99985874783408
  0
ARC
  5
33581
  8
0
 10
14.000819456428109
 20
6.4457302082802919
 30
0.0
 40
0.0984251968503948
 50
180.0
 51
213.19350738173131
  0
LINE
  5
33582
  8
0
 10
13.90239425957771
 20
6.4457302082802919
 30
0.0
 11
13.90239425957771
 21
7.1872382239224732
 31
0.0
  0
LINE
  5
33583
  8
0
 10
12.33774468816218
 20
9.5494429483319241
 30
0.0
 11
12.179642256190091
 21
9.5494429483319241
 31
0.0
  0
LINE
  5
33584
  8
0
 10
11.49784967503882
 20
9.5494429483319241
 30
0.0
 11
11.33974724306673
 21
9.5494429483319241
 31
0.0
  0
LINE
  5
33585
  8
0
 10
11.9177971816005
 20
9.5494429483319241
 30
0.0
 11
11.759694749628411
 21
9.5494429483319241
 31
0.0
  0
LINE
  5
33586
  8
0
 10
10.48703992886905
 20
6.517946885339799
 30
0.0
 11
10.86105567690055
 21
6.517946885339799
 31
0.0
  0
LINE
  5
33587
  8
0
 10
10.58560868073255
 20
9.5494429483319241
 30
0.0
 11
10.48703992886905
 21
9.5494429483319241
 31
0.0
  0
LINE
  5
33588
  8
0
 10
11.07790216847714
 20
9.5494429483319241
 30
0.0
 11
10.763499416047621
 21
9.5494429483319241
 31
0.0
  0
ARC
  5
33589
  8
0
 10
10.48703992886905
 20
6.527789405024838
 30
0.0
 40
0.0098425196850407
 50
180.0
 51
270.0000000000008
  0
ARC
  5
3358A
  8
0
 10
10.48703992886905
 20
9.5396004286468834
 30
0.0
 40
0.0098425196850407
 50
90.0
 51
180.0
  0
ARC
  5
3358B
  8
0
 10
10.86105567690055
 20
6.5081043656547584
 30
0.0
 40
0.0098425196850398
 50
0.0
 51
90.0
  0
ARC
  5
3358C
  8
0
 10
12.961503269440509
 20
8.833738829779568
 30
0.0
 40
0.0251224341956479
 50
239.20508734153611
 51
302.35433318148512
  0
ARC
  5
3358D
  8
0
 10
13.379178883459421
 20
8.5091590474822816
 30
0.0
 40
0.0223076829372179
 50
218.38227645973799
 51
281.5544838989893
  0
POLYLINE
  5
3358E
  8
0
 66
     1
 10
0.0
 20
0.0
 30
0.0
  0
VERTEX
  5
33E9D
  8
0
 10
11.291540273015841
 20
8.9610065380256625
 30
0.0
  0
VERTEX
  5
33E9E
  8
0
 10
11.290985149307
 20
8.9607177769655184
 30
0.0
  0
VERTEX
  5
33E9F
  8
0
 10
11.28092636554771
 20
8.9591974531138963
 30
0.0
  0
SEQEND
  5
33EA0
  8
0
  0
ARC
  5
3358F
  8
0
 10
11.84763119843746
 20
7.1178276020642182
 30
0.0
 40
2.045921054953503
 50
42.327587704202386
 51
48.277269641799037
  0
POLYLINE
  5
33590
  8
0
 66
     1
 10
0.0
 20
0.0
 30
0.0
  0
VERTEX
  5
33EA1
  8
0
 10
12.536542929600371
 20
8.9426959023459283
 30
0.0
  0
VERTEX
  5
33EA2
  8
0
 10
12.46478273280284
 20
8.9521840552853575
 30
0.0
  0
VERTEX
  5
33EA3
  8
0
 10
12.39504425951732
 20
8.9568870345465612
 30
0.0
  0
SEQEND
  5
33EA4
  8
0
  0
POLYLINE
  5
33591
  8
0
 66
     1
 10
0.0
 20
0.0
 30
0.0
  0
VERTEX
  5
33EA5
  8
0
 10
12.948111064356141
 20
8.8116599544975607
 30
0.0
  0
VERTEX
  5
33EA6
  8
0
 10
12.87583466046622
 20
8.845605906814038
 30
0.0
  0
VERTEX
  5
33EA7
  8
0
 10
12.80589816402218
 20
8.8728293770021871
 30
0.0
  0
SEQEND
  5
33EA8
  8
0
  0
POLYLINE
  5
33592
  8
0
 66
     1
 10
0.0
 20
0.0
 30
0.0
  0
VERTEX
  5
33EA9
  8
0
 10
12.120908422401071
 20
8.9590231599018448
 30
0.0
  0
VERTEX
  5
33EAA
  8
0
 10
12.051686019135371
 20
8.9590230567675242
 30
0.0
  0
VERTEX
  5
33EAB
  8
0
 10
11.97653092841308
 20
8.9590231683409627
 30
0.0
  0
SEQEND
  5
33EAC
  8
0
  0
POLYLINE
  5
33593
  8
0
 66
     1
 10
0.0
 20
0.0
 30
0.0
  0
VERTEX
  5
33EAD
  8
0
 10
11.70095993202859
 20
8.959023164181918
 30
0.0
  0
VERTEX
  5
33EAE
  8
0
 10
11.62790873290918
 20
8.9590230567674922
 30
0.0
  0
VERTEX
  5
33EAF
  8
0
 10
11.556583985007389
 20
8.9590231617080303
 30
0.0
  0
SEQEND
  5
33EB0
  8
0
  0
POLYLINE
  5
33594
  8
0
 66
     1
 10
0.0
 20
0.0
 30
0.0
  0
VERTEX
  5
33EB1
  8
0
 10
11.28101413241215
 20
8.9590231683921182
 30
0.0
  0
VERTEX
  5
33EB2
  8
0
 10
11.206597858825489
 20
8.9590230567675633
 30
0.0
  0
VERTEX
  5
33EB3
  8
0
 10
11.13663643975563
 20
8.9590231621974663
 30
0.0
  0
SEQEND
  5
33EB4
  8
0
  0
ARC
  5
33595
  8
0
 10
12.473199987053739
 20
8.8665368243416225
 30
0.0
 40
0.6769491325652434
 50
63.985540276971207
 51
78.69931327713384
  0
POLYLINE
  5
33596
  8
0
 66
     1
 10
0.0
 20
0.0
 30
0.0
  0
VERTEX
  5
33EB5
  8
0
 10
10.58792962424927
 20
9.5492599981953852
 30
0.0
  0
VERTEX
  5
33EB6
  8
0
 10
10.58643578249316
 20
9.5493434170316611
 30
0.0
  0
VERTEX
  5
33EB7
  8
0
 10
10.58504484489173
 20
9.5494251097417582
 30
0.0
  0
SEQEND
  5
33EB8
  8
0
  0
POLYLINE
  5
33597
  8
0
 66
     1
 10
0.0
 20
0.0
 30
0.0
  0
VERTEX
  5
33EB9
  8
0
 10
11.291540273015841
 20
8.9610065380256625
 30
0.0
  0
VERTEX
  5
33EBA
  8
0
 10
11.290985149307
 20
8.9607177769655184
 30
0.0
  0
VERTEX
  5
33EBB
  8
0
 10
11.28092636554771
 20
8.9591974531138963
 30
0.0
  0
SEQEND
  5
33EBC
  8
0
  0
ARC
  5
33598
  8
0
 10
9.8595148848788341
 20
7.2024875746390791
 30
0.0
 40
0.6838154424691787
 50
228.08999354075721
 51
270.21164411981653
  0
LINE
  5
33599
  8
0
 10
9.8620412994624118
 20
6.517946885339799
 30
0.0
 11
10.45189819658558
 21
6.517946885339799
 31
0.0
  0
ARC
  5
3359A
  8
0
 10
10.45189819658558
 20
6.5279468853397971
 30
0.0
 40
0.0099999999999998
 50
270.0000000000008
 51
0.0
  0
ARC
  5
3359B
  8
0
 10
10.471898196585579
 20
6.8425925546311364
 30
0.0
 40
0.0100000000000007
 50
90.0
 51
180.0
  0
ARC
  5
3359C
  8
0
 10
10.471898196585579
 20
9.2247972790405832
 30
0.0
 40
0.0099999999999998
 50
180.0
 51
270.0000000000008
  0
LINE
  5
3359D
  8
0
 10
10.471898196585579
 20
6.852592554631137
 30
0.0
 11
10.47719740918401
 21
6.852592554631137
 31
0.0
  0
LINE
  5
3359E
  8
0
 10
10.47719740918401
 20
9.2147972790405852
 30
0.0
 11
10.471898196585579
 21
9.2147972790405852
 31
0.0
  0
ARC
  5
3359F
  8
0
 10
9.0586635900951222
 20
12.73152956250515
 30
0.0
 40
0.0098425196850397
 50
270.0000000000008
 51
355.00000000000222
  0
LINE
  5
335A0
  8
0
 10
10.15105449429303
 20
12.964015964005631
 30
0.0
 11
10.1488181666743
 21
12.98957730565373
 31
0.0
  0
LINE
  5
335A1
  8
0
 10
10.17351071353899
 20
12.70734020350193
 30
0.0
 11
10.16342637406038
 21
12.822604731181309
 31
0.0
  0
LINE
  5
335A2
  8
0
 10
9.0792817610563343
 20
12.85426608649802
 30
0.0
 11
9.0684686560212242
 21
12.73067173039149
 31
0.0
  0
ARC
  5
335A3
  8
0
 10
9.1091676019990881
 20
12.85165141421559
 30
0.0
 40
0.0300000000000013
 50
150.0000000000025
 51
175.00000000000301
  0
LINE
  5
335A4
  8
0
 10
9.0832907496584951
 20
12.866831391221741
 30
0.0
 11
9.0831868398855544
 21
12.866651414215591
 31
0.0
  0
LINE
  5
335A5
  8
0
 10
9.0832937174106654
 20
12.866836531519271
 30
0.0
 11
9.0832907496584951
 21
12.866831391221741
 31
0.0
  0
LINE
  5
335A6
  8
0
 10
9.0833221417683312
 20
12.86688576395092
 30
0.0
 11
9.0832937174106654
 21
12.866836531519271
 31
0.0
  0
LINE
  5
335A7
  8
0
 10
9.1613088086894745
 20
13.001962633371299
 30
0.0
 11
9.1600160299141482
 21
12.99972347484948
 31
0.0
  0
ARC
  5
335A8
  8
0
 10
9.1872895708030082
 20
12.98696263337129
 30
0.0
 40
0.0300000000000017
 50
90.0
 51
149.99999999999659
  0
POLYLINE
  5
335A9
  8
0
 66
     1
 10
0.0
 20
0.0
 30
0.0
  0
VERTEX
  5
33EBD
  8
0
 10
9.3005463640123356
 20
12.977080520733651
 30
0.0
  0
VERTEX
  5
33EBE
  8
0
 10
9.2739376731103622
 20
12.911963774395639
 30
0.0
  0
VERTEX
  5
33EBF
  8
0
 10
9.2625339364330532
 20
12.88405351403342
 30
0.0
  0
SEQEND
  5
33EC0
  8
0
  0
POLYLINE
  5
335AA
  8
0
 66
     1
 10
0.0
 20
0.0
 30
0.0
  0
VERTEX
  5
33EC1
  8
0
 10
9.9774041821191624
 20
12.884054613526191
 30
0.0
  0
VERTEX
  5
33EC2
  8
0
 10
9.9507954798459952
 20
12.94917423471442
 30
0.0
  0
VERTEX
  5
33EC3
  8
0
 10
9.9393917745950429
 20
12.9770768060117
 30
0.0
  0
SEQEND
  5
33EC4
  8
0
  0
ARC
  5
335AB
  8
0
 10
9.1779745313334153
 20
12.93228124287041
 30
0.0
 40
0.0193989178472624
 50
287.7705703812473
 51
343.38833459510352
  0
POLYLINE
  5
335AC
  8
0
 66
     1
 10
0.0
 20
0.0
 30
0.0
  0
VERTEX
  5
33EC5
  8
0
 10
9.2222116220875563
 20
12.97776345851684
 30
0.0
  0
VERTEX
  5
33EC6
  8
0
 10
9.2043326148004763
 20
12.942045609182619
 30
0.0
  0
VERTEX
  5
33EC7
  8
0
 10
9.1966708831234953
 20
12.92673686424453
 30
0.0
  0
SEQEND
  5
33EC8
  8
0
  0
ARC
  5
335AD
  8
0
 10
9.1884447770708064
 20
12.99770969192523
 30
0.0
 40
0.0391352245173052
 50
329.34746382421838
 51
347.09461627729928
  0
ARC
  5
335AE
  8
0
 10
10.118932325731549
 20
12.98696263337129
 30
0.0
 40
0.0300000000000016
 50
5.0000000000037437
 51
90.0
  0
POLYLINE
  5
335AF
  8
0
 66
     1
 10
0.0
 20
0.0
 30
0.0
  0
VERTEX
  5
33EC9
  8
0
 10
9.1383852020866705
 20
12.92167119675803
 30
0.0
  0
VERTEX
  5
33ECA
  8
0
 10
9.1365197698943632
 20
12.918976570452861
 30
0.0
  0
VERTEX
  5
33ECB
  8
0
 10
9.1339767962091312
 20
12.91591737609293
 30
0.0
  0
VERTEX
  5
33ECC
  8
0
 10
9.1319362231937138
 20
12.913948756022609
 30
0.0
  0
VERTEX
  5
33ECD
  8
0
 10
9.1311681124185
 20
12.913387717110931
 30
0.0
  0
VERTEX
  5
33ECE
  8
0
 10
9.1312328414299664
 20
12.91341123338651
 30
0.0
  0
SEQEND
  5
33ECF
  8
0
  0
POLYLINE
  5
335B0
  8
0
 66
     1
 10
0.0
 20
0.0
 30
0.0
  0
VERTEX
  5
33ED0
  8
0
 10
9.1417225461385421
 20
12.92713560756537
 30
0.0
  0
VERTEX
  5
33ED1
  8
0
 10
9.139500545635995
 20
12.92328231619712
 30
0.0
  0
VERTEX
  5
33ED2
  8
0
 10
9.1383852020866705
 20
12.92167119675803
 30
0.0
  0
SEQEND
  5
33ED3
  8
0
  0
POLYLINE
  5
335B1
  8
0
 66
     1
 10
0.0
 20
0.0
 30
0.0
  0
VERTEX
  5
33ED4
  8
0
 10
9.1702819673810154
 20
12.978156215816201
 30
0.0
  0
VERTEX
  5
33ED5
  8
0
 10
9.1503382289872341
 20
12.942438266553481
 30
0.0
  0
VERTEX
  5
33ED6
  8
0
 10
9.1417922633263551
 20
12.927129472893609
 30
0.0
  0
SEQEND
  5
33ED7
  8
0
  0
ARC
  5
335B2
  8
0
 10
9.1136138239551823
 20
13.013706770127859
 30
0.0
 40
0.0668854917443179
 50
327.89393980790572
 51
342.52047244836058
  0
ARC
  5
335B3
  8
0
 10
8.8969924998829626
 20
13.132700530261721
 30
0.0
 40
0.2948379022915702
 50
329.31615806473178
 51
332.925587631018
  0
ARC
  5
335B4
  8
0
 10
8.815362170793243
 20
13.04221202452651
 30
0.0
 40
0.3202097131340117
 50
326.93749178404067
 51
330.38064988849283
  0
POLYLINE
  5
335B5
  8
0
 66
     1
 10
0.0
 20
0.0
 30
0.0
  0
VERTEX
  5
33ED8
  8
0
 10
9.1482780848509311
 20
12.978283643468499
 30
0.0
  0
VERTEX
  5
33ED9
  8
0
 10
9.1106332424590928
 20
12.913166346436711
 30
0.0
  0
VERTEX
  5
33EDA
  8
0
 10
9.0945051133295873
 20
12.885255887248981
 30
0.0
  0
SEQEND
  5
33EDB
  8
0
  0
LINE
  5
335B6
  8
0
 10
9.1482939306580757
 20
12.97827448225372
 30
0.0
 11
9.0945087984608275
 21
12.885253768267059
 31
0.0
  0
LINE
  5
335B7
  8
0
 10
12.38664622808165
 20
4.4017264128988547
 30
0.0
 11
14.492946502204081
 21
4.4017264128988547
 31
0.0
  0
LINE
  5
335B8
  8
0
 10
10.28034595395922
 20
4.4017264128988547
 30
0.0
 11
12.38664622808165
 21
4.4017264128988547
 31
0.0
  0
LINE
  5
335B9
  8
0
 10
14.49293187729517
 20
4.4313327121114501
 30
0.0
 11
10.28036057886813
 21
4.4313327121114501
 31
0.0
  0
POLYLINE
  5
335BA
  8
0
 66
     1
 10
0.0
 20
0.0
 30
0.0
  0
VERTEX
  5
33EDC
  8
0
 10
11.03309144866922
 20
5.10888974875696
 30
0.0
  0
VERTEX
  5
33EDD
  8
0
 10
10.992047175582769
 20
4.9679530006856281
 30
0.0
  0
VERTEX
  5
33EDE
  8
0
 10
10.948665984454889
 20
4.8276618993857756
 30
0.0
  0
VERTEX
  5
33EDF
  8
0
 10
10.937616756558519
 20
4.7965524389306671
 30
0.0
  0
VERTEX
  5
33EE0
  8
0
 10
10.925054296048801
 20
4.7662975317032901
 30
0.0
  0
VERTEX
  5
33EE1
  8
0
 10
10.921772554582089
 20
4.7596418157723761
 30
0.0
  0
VERTEX
  5
33EE2
  8
0
 10
10.91824017084066
 20
4.7532022829269751
 30
0.0
  0
VERTEX
  5
33EE3
  8
0
 10
10.914032863289339
 20
4.746643509422098
 30
0.0
  0
VERTEX
  5
33EE4
  8
0
 10
10.90918199788973
 20
4.7407993428993906
 30
0.0
  0
VERTEX
  5
33EE5
  8
0
 10
10.9069294135936
 20
4.7387867569600726
 30
0.0
  0
VERTEX
  5
33EE6
  8
0
 10
10.90449561353271
 20
4.7371593289801979
 30
0.0
  0
VERTEX
  5
33EE7
  8
0
 10
10.90198657068564
 20
4.7361158873382356
 30
0.0
  0
VERTEX
  5
33EE8
  8
0
 10
10.90082155085673
 20
4.7359597432444858
 30
0.0
  0
SEQEND
  5
33EE9
  8
0
  0
POLYLINE
  5
335BB
  8
0
 66
     1
 10
0.0
 20
0.0
 30
0.0
  0
VERTEX
  5
33EEA
  8
0
 10
12.38664622808165
 20
6.3918455232525426
 30
0.0
  0
VERTEX
  5
33EEB
  8
0
 10
12.22294374970369
 20
6.3779639176125622
 30
0.0
  0
VERTEX
  5
33EEC
  8
0
 10
12.06350335377706
 20
6.338009225232736
 30
0.0
  0
VERTEX
  5
33EED
  8
0
 10
11.96954136221251
 20
6.3016530907441224
 30
0.0
  0
VERTEX
  5
33EEE
  8
0
 10
11.879035416583781
 20
6.257350427565072
 30
0.0
  0
VERTEX
  5
33EEF
  8
0
 10
11.790013413717841
 20
6.2044027369628481
 30
0.0
  0
VERTEX
  5
33EF0
  8
0
 10
11.705273959942449
 20
6.1448147820190071
 30
0.0
  0
VERTEX
  5
33EF1
  8
0
 10
11.60177353502162
 20
6.0587212558620882
 30
0.0
  0
VERTEX
  5
33EF2
  8
0
 10
11.5058594261808
 20
5.9642103601815473
 30
0.0
  0
VERTEX
  5
33EF3
  8
0
 10
11.415339349476049
 20
5.8597606644122768
 30
0.0
  0
VERTEX
  5
33EF4
  8
0
 10
11.332804880627419
 20
5.7488713639553621
 30
0.0
  0
VERTEX
  5
33EF5
  8
0
 10
11.21527445248063
 20
5.5567171126225423
 30
0.0
  0
VERTEX
  5
33EF6
  8
0
 10
11.112249017959151
 20
5.3376837820759722
 30
0.0
  0
VERTEX
  5
33EF7
  8
0
 10
11.03309144866922
 20
5.10888974875696
 30
0.0
  0
SEQEND
  5
33EF8
  8
0
  0
POLYLINE
  5
335BC
  8
0
 66
     1
 10
0.0
 20
0.0
 30
0.0
  0
VERTEX
  5
33EF9
  8
0
 10
10.96932339343598
 20
5.1275124005960606
 30
0.0
  0
VERTEX
  5
33EFA
  8
0
 10
11.02636834084185
 20
5.2985641050178334
 30
0.0
  0
VERTEX
  5
33EFB
  8
0
 10
11.0963901701077
 20
5.4647134233729151
 30
0.0
  0
VERTEX
  5
33EFC
  8
0
 10
11.18184241088859
 20
5.6288895261816156
 30
0.0
  0
VERTEX
  5
33EFD
  8
0
 10
11.281088412829421
 20
5.78508390735883
 30
0.0
  0
VERTEX
  5
33EFE
  8
0
 10
11.36511545370422
 20
5.8965271942186597
 30
0.0
  0
VERTEX
  5
33EFF
  8
0
 10
11.45705441416184
 20
6.001518118125702
 30
0.0
  0
VERTEX
  5
33F00
  8
0
 10
11.559522058070311
 20
6.1013390765811071
 30
0.0
  0
VERTEX
  5
33F01
  8
0
 10
11.67021267030557
 20
6.1919098283318794
 30
0.0
  0
VERTEX
  5
33F02
  8
0
 10
11.756949172053959
 20
6.251813306510801
 30
0.0
  0
VERTEX
  5
33F03
  8
0
 10
11.84787810063863
 20
6.305112600129676
 30
0.0
  0
VERTEX
  5
33F04
  8
0
 10
11.945248002978969
 20
6.3520864397059373
 30
0.0
  0
VERTEX
  5
33F05
  8
0
 10
12.04631536261822
 20
6.3904142198726603
 30
0.0
  0
VERTEX
  5
33F06
  8
0
 10
12.214334313087649
 20
6.4315041820501522
 30
0.0
  0
VERTEX
  5
33F07
  8
0
 10
12.38664622808165
 20
6.4457302082802972
 30
0.0
  0
SEQEND
  5
33F08
  8
0
  0
POLYLINE
  5
335BD
  8
0
 66
     1
 10
0.0
 20
0.0
 30
0.0
  0
VERTEX
  5
33F09
  8
0
 10
10.87089819658558
 20
5.1275124005960606
 30
0.0
  0
VERTEX
  5
33F0A
  8
0
 10
10.87113730660988
 20
5.0806537443531568
 30
0.0
  0
VERTEX
  5
33F0B
  8
0
 10
10.872263980018131
 20
5.0162645545134463
 30
0.0
  0
VERTEX
  5
33F0C
  8
0
 10
10.87438162997025
 20
4.9519046243940377
 30
0.0
  0
VERTEX
  5
33F0D
  8
0
 10
10.877667570627681
 20
4.8875737957888372
 30
0.0
  0
VERTEX
  5
33F0E
  8
0
 10
10.88260955873241
 20
4.823428562673052
 30
0.0
  0
VERTEX
  5
33F0F
  8
0
 10
10.886000331437209
 20
4.7928790117629401
 30
0.0
  0
VERTEX
  5
33F10
  8
0
 10
10.888180561264431
 20
4.7777052175660373
 30
0.0
  0
VERTEX
  5
33F11
  8
0
 10
10.890984477631131
 20
4.7627279794082229
 30
0.0
  0
VERTEX
  5
33F12
  8
0
 10
10.892617519994589
 20
4.7561800867967108
 30
0.0
  0
VERTEX
  5
33F13
  8
0
 10
10.894747037310649
 20
4.7498808756311712
 30
0.0
  0
VERTEX
  5
33F14
  8
0
 10
10.89589619567767
 20
4.747479654746507
 30
0.0
  0
VERTEX
  5
33F15
  8
0
 10
10.89737368108303
 20
4.7453658252599862
 30
0.0
  0
VERTEX
  5
33F16
  8
0
 10
10.898541837453109
 20
4.7444346316827746
 30
0.0
  0
VERTEX
  5
33F17
  8
0
 10
10.89964890636827
 20
4.7441265316069776
 30
0.0
  0
VERTEX
  5
33F18
  8
0
 10
10.90082155085673
 20
4.7443812904463476
 30
0.0
  0
VERTEX
  5
33F19
  8
0
 10
10.902353168941341
 20
4.7455649720494142
 30
0.0
  0
VERTEX
  5
33F1A
  8
0
 10
10.903656803255529
 20
4.7472851909222333
 30
0.0
  0
VERTEX
  5
33F1B
  8
0
 10
10.90480351304863
 20
4.7493050317333774
 30
0.0
  0
VERTEX
  5
33F1C
  8
0
 10
10.907391787758179
 20
4.7554569078417206
 30
0.0
  0
VERTEX
  5
33F1D
  8
0
 10
10.909536461704359
 20
4.762048866506972
 30
0.0
  0
VERTEX
  5
33F1E
  8
0
 10
10.91309440051926
 20
4.7755040381318707
 30
0.0
  0
VERTEX
  5
33F1F
  8
0
 10
10.91761452152306
 20
4.7962222399865571
 30
0.0
  0
VERTEX
  5
33F20
  8
0
 10
10.92162540824021
 20
4.817165613668517
 30
0.0
  0
VERTEX
  5
33F21
  8
0
 10
10.928877265922949
 20
4.8592013538279764
 30
0.0
  0
VERTEX
  5
33F22
  8
0
 10
10.93562901689501
 20
4.9014186755087623
 30
0.0
  0
VERTEX
  5
33F23
  8
0
 10
10.942136653667481
 20
4.9437577680144651
 30
0.0
  0
VERTEX
  5
33F24
  8
0
 10
10.948508542531419
 20
4.9861473480386973
 30
0.0
  0
VERTEX
  5
33F25
  8
0
 10
10.95896445857327
 20
5.0568043574596118
 30
0.0
  0
VERTEX
  5
33F26
  8
0
 10
10.96932339343598
 20
5.1275124005960606
 30
0.0
  0
SEQEND
  5
33F27
  8
0
  0
ARC
  5
335BE
  8
0
 10
104.0232092231188
 20
7.7178426769078721
 30
0.0
 40
91.273872465410292
 50
179.39327576561629
 51
179.8733272921265
  0
LINE
  5
335BF
  8
0
 10
12.74928175613387
 20
7.7131813610985667
 30
0.0
 11
12.74928175613387
 21
6.9494033888412741
 31
0.0
  0
LINE
  5
335C0
  8
0
 10
12.749559825644329
 20
7.9196358851105524
 30
0.0
 11
12.74928175613387
 21
7.7131813610985667
 31
0.0
  0
ARC
  5
335C1
  8
0
 10
20.445904271537088
 20
8.7792483395490226
 30
0.0
 40
7.6920354686098431
 50
175.05247325804979
 51
180.70685676501381
  0
LINE
  5
335C2
  8
0
 10
12.78722987560449
 20
9.4481624313781438
 30
0.0
 11
12.78252855599653
 21
9.4426353252636073
 31
0.0
  0
LINE
  5
335C3
  8
0
 10
12.787229875604501
 20
8.9007033230147652
 30
0.0
 11
12.787229875604501
 21
9.4481624313781438
 31
0.0
  0
ARC
  5
335C4
  8
0
 10
1.260222714132875
 20
8.6590518520347182
 30
0.0
 40
11.345672926247101
 50
359.40293588752638
 51
4.1871983417961021
  0
ARC
  5
335C5
  8
0
 10
-97.795678912108215
 20
7.7082785055333307
 30
0.0
 40
110.4040976460318
 50
0.0920289980719852
 51
0.432065309270632
  0
POLYLINE
  5
335C6
  8
0
 66
     1
 10
0.0
 20
0.0
 30
0.0
  0
VERTEX
  5
33F28
  8
0
 10
12.60842999586877
 20
7.7309339318847261
 30
0.0
  0
VERTEX
  5
33F29
  8
0
 10
12.608392191131969
 20
7.8082722095284822
 30
0.0
  0
VERTEX
  5
33F2A
  8
0
 10
12.608276317778479
 20
7.8856104871722366
 30
0.0
  0
SEQEND
  5
33F2B
  8
0
  0
LINE
  5
335C7
  8
0
 10
12.60842999586877
 20
6.9489735943142712
 30
0.0
 11
12.60842999586877
 21
7.7309339318847261
 31
0.0
  0
LINE
  5
335C8
  8
0
 10
12.57005208187114
 20
9.5020149528930862
 30
0.0
 11
12.57005208187114
 21
8.9722269348322126
 31
0.0
  0
POLYLINE
  5
335C9
  8
0
 66
     1
 10
0.0
 20
0.0
 30
0.0
  0
VERTEX
  5
33F2C
  8
0
 10
12.32875262377188
 20
8.2484785920984915
 30
0.0
  0
VERTEX
  5
33F2D
  8
0
 10
12.32847523548498
 20
8.1527958424818756
 30
0.0
  0
VERTEX
  5
33F2E
  8
0
 10
12.32838607343828
 20
8.0863114338058981
 30
0.0
  0
SEQEND
  5
33F2F
  8
0
  0
LINE
  5
335CA
  8
0
 10
12.32838607343828
 20
8.0863114338058981
 30
0.0
 11
12.328344076134419
 21
7.9605966907393819
 31
0.0
  0
ARC
  5
335CB
  8
0
 10
13.789485708090901
 20
7.2511329941938714
 30
0.0
 40
2.9267249005960441
 50
164.4912902437483
 51
175.7264391064931
  0
LINE
  5
335CC
  8
0
 10
10.96932339343598
 20
8.0336949168358611
 30
0.0
 11
10.96932339343598
 21
5.1275124005960606
 31
0.0
  0
LINE
  5
335CD
  8
0
 10
10.87089819658558
 20
5.1275124005960606
 30
0.0
 11
10.87089819658558
 21
7.4692283436494487
 31
0.0
  0
ARC
  5
335CE
  8
0
 10
11.49785535175749
 20
9.5199109444106238
 30
0.0
 40
0.0295320044668971
 50
0.0082336453045171
 51
90.011013543752355
  0
POLYLINE
  5
335CF
  8
0
 66
     1
 10
0.0
 20
0.0
 30
0.0
  0
VERTEX
  5
33F30
  8
0
 10
11.524844686311649
 20
9.5167904188787382
 30
0.0
  0
VERTEX
  5
33F31
  8
0
 10
11.52447798883504
 20
9.515814445017833
 30
0.0
  0
VERTEX
  5
33F32
  8
0
 10
11.52158478961587
 20
9.5034196012778072
 30
0.0
  0
VERTEX
  5
33F33
  8
0
 10
11.51872394891631
 20
9.4828000199444382
 30
0.0
  0
VERTEX
  5
33F34
  8
0
 10
11.51591147630897
 20
9.4540710904151712
 30
0.0
  0
VERTEX
  5
33F35
  8
0
 10
11.51316311069341
 20
9.4173935828731707
 30
0.0
  0
VERTEX
  5
33F36
  8
0
 10
11.51049423221955
 20
9.3729727486000556
 30
0.0
  0
VERTEX
  5
33F37
  8
0
 10
11.50791977621871
 20
9.3210571713676327
 30
0.0
  0
VERTEX
  5
33F38
  8
0
 10
11.505454149623899
 20
9.2619373763363342
 30
0.0
  0
VERTEX
  5
33F39
  8
0
 10
11.50311115034704
 20
9.1959442042451531
 30
0.0
  0
VERTEX
  5
33F3A
  8
0
 10
11.50090389006437
 20
9.1234469599912131
 30
0.0
  0
VERTEX
  5
33F3B
  8
0
 10
11.498844720842101
 20
9.0448513459598292
 30
0.0
  0
VERTEX
  5
33F3C
  8
0
 10
11.496945166012949
 20
8.9605971916702583
 30
0.0
  0
VERTEX
  5
33F3D
  8
0
 10
11.495215855690271
 20
8.8711559924423486
 30
0.0
  0
VERTEX
  5
33F3E
  8
0
 10
11.493666467280841
 20
8.7770282708579614
 30
0.0
  0
VERTEX
  5
33F3F
  8
0
 10
11.492305671329049
 20
8.6787407757827051
 30
0.0
  0
VERTEX
  5
33F40
  8
0
 10
11.491141082995551
 20
8.5768435346225775
 30
0.0
  0
VERTEX
  5
33F41
  8
0
 10
11.49017921944208
 20
8.4719067753113464
 30
0.0
  0
VERTEX
  5
33F42
  8
0
 10
11.48942546336065
 20
8.3645177352536564
 30
0.0
  0
VERTEX
  5
33F43
  8
0
 10
11.48888403285145
 20
8.2552773750812651
 30
0.0
  0
VERTEX
  5
33F44
  8
0
 10
11.488557957817919
 20
8.1447970156126512
 30
0.0
  0
VERTEX
  5
33F45
  8
0
 10
11.488449063011061
 20
8.0336949168358611
 30
0.0
  0
SEQEND
  5
33F46
  8
0
  0
LINE
  5
335D0
  8
0
 10
11.488449063011061
 20
8.0336949168358611
 30
0.0
 11
11.488449063011061
 21
6.9484132154035043
 31
0.0
  0
ARC
  5
335D1
  8
0
 10
11.52777392863074
 20
6.9483814934257282
 30
0.0
 40
0.0393248784141815
 50
179.95378153182301
 51
270.04621846818537
  0
ARC
  5
335D2
  8
0
 10
11.07790784519581
 20
9.5199109444106238
 30
0.0
 40
0.0295320044668971
 50
0.0082336453045171
 51
90.011013543755837
  0
POLYLINE
  5
335D3
  8
0
 66
     1
 10
0.0
 20
0.0
 30
0.0
  0
VERTEX
  5
33F47
  8
0
 10
11.104897179749971
 20
9.5167904188787382
 30
0.0
  0
VERTEX
  5
33F48
  8
0
 10
11.104530482273359
 20
9.515814445017833
 30
0.0
  0
VERTEX
  5
33F49
  8
0
 10
11.10163728305419
 20
9.5034196012778072
 30
0.0
  0
VERTEX
  5
33F4A
  8
0
 10
11.09877644235463
 20
9.4828000199444382
 30
0.0
  0
VERTEX
  5
33F4B
  8
0
 10
11.09596396974729
 20
9.4540710904151712
 30
0.0
  0
VERTEX
  5
33F4C
  8
0
 10
11.09321560413173
 20
9.4173935828731707
 30
0.0
  0
VERTEX
  5
33F4D
  8
0
 10
11.09054672565787
 20
9.3729727486000556
 30
0.0
  0
VERTEX
  5
33F4E
  8
0
 10
11.08797226965704
 20
9.3210571713676327
 30
0.0
  0
VERTEX
  5
33F4F
  8
0
 10
11.085506643062219
 20
9.2619373763363342
 30
0.0
  0
VERTEX
  5
33F50
  8
0
 10
11.08316364378536
 20
9.1959442042451531
 30
0.0
  0
VERTEX
  5
33F51
  8
0
 10
11.08095638350269
 20
9.1234469599912131
 30
0.0
  0
VERTEX
  5
33F52
  8
0
 10
11.078897214280421
 20
9.0448513459598292
 30
0.0
  0
VERTEX
  5
33F53
  8
0
 10
11.076997659451269
 20
8.9605971916702583
 30
0.0
  0
VERTEX
  5
33F54
  8
0
 10
11.07526834912859
 20
8.8711559924423486
 30
0.0
  0
VERTEX
  5
33F55
  8
0
 10
11.073718960719161
 20
8.7770282708579614
 30
0.0
  0
VERTEX
  5
33F56
  8
0
 10
11.072358164767371
 20
8.6787407757827051
 30
0.0
  0
VERTEX
  5
33F57
  8
0
 10
11.07119357643387
 20
8.5768435346225775
 30
0.0
  0
VERTEX
  5
33F58
  8
0
 10
11.0702317128804
 20
8.4719067753113464
 30
0.0
  0
VERTEX
  5
33F59
  8
0
 10
11.06947795679897
 20
8.3645177352536564
 30
0.0
  0
VERTEX
  5
33F5A
  8
0
 10
11.068936526289781
 20
8.2552773750812651
 30
0.0
  0
VERTEX
  5
33F5B
  8
0
 10
11.06861045125625
 20
8.1447970156126512
 30
0.0
  0
VERTEX
  5
33F5C
  8
0
 10
11.06850155644938
 20
8.0336949168358611
 30
0.0
  0
SEQEND
  5
33F5D
  8
0
  0
ARC
  5
335D4
  8
0
 10
11.309822989474799
 20
6.94838149342573
 30
0.0
 40
0.039324878414185
 50
269.95378153182651
 51
0.0462184681729679
  0
LINE
  5
335D5
  8
0
 10
11.34914785509449
 20
6.9484132154035043
 30
0.0
 11
11.34914785509449
 21
8.0336949168358611
 31
0.0
  0
LINE
  5
335D6
  8
0
 10
11.10785814404684
 20
6.9090566278060423
 30
0.0
 11
11.30979126749703
 21
6.9090566278060423
 31
0.0
  0
LINE
  5
335D7
  8
0
 10
11.06850155644938
 20
8.0336949168358611
 30
0.0
 11
11.06850155644938
 21
6.9484132154035043
 31
0.0
  0
ARC
  5
335D8
  8
0
 10
11.10782642206906
 20
6.9483814934257211
 30
0.0
 40
0.0393248784141779
 50
179.95378153181639
 51
270.04621846818281
  0
LINE
  5
335D9
  8
0
 10
11.527805650608521
 20
6.9090566278060423
 30
0.0
 11
11.72973877405871
 21
6.9090566278060423
 31
0.0
  0
ARC
  5
335DA
  8
0
 10
11.72977049603649
 20
6.9483814934257282
 30
0.0
 40
0.0393248784141832
 50
269.95378153182651
 51
0.0462184681768522
  0
LINE
  5
335DB
  8
0
 10
12.328344076134419
 20
7.9605966907393819
 30
0.0
 11
12.328344076134419
 21
6.9484132154035043
 31
0.0
  0
LINE
  5
335DC
  8
0
 10
11.908396569572741
 20
8.0336949168358611
 30
0.0
 11
11.908396569572741
 21
6.9484132154035043
 31
0.0
  0
ARC
  5
335DD
  8
0
 10
12.149718002598171
 20
6.9483814934257229
 30
0.0
 40
0.0393248784141797
 50
269.95378153182139
 51
0.0462184681807386
  0
ARC
  5
335DE
  8
0
 10
11.947721435192429
 20
6.9483814934257282
 30
0.0
 40
0.0393248784141815
 50
179.95378153182301
 51
270.04621846818031
  0
ARC
  5
335DF
  8
0
 10
12.386915819631779
 20
63.283584468233883
 30
0.0
 40
56.374527841072457
 50
269.99972600288532
 51
270.18540422536159
  0
LINE
  5
335E0
  8
0
 10
12.367700663731879
 20
6.9090566278060423
 30
0.0
 11
12.38664622808165
 21
6.9090566278060423
 31
0.0
  0
LINE
  5
335E1
  8
0
 10
11.76909536165617
 20
6.9484132154035043
 30
0.0
 11
11.76909536165617
 21
8.0336949168358611
 31
0.0
  0
LINE
  5
335E2
  8
0
 10
12.18904286821785
 20
6.9484132154035043
 30
0.0
 11
12.18904286821785
 21
8.0336949168358611
 31
0.0
  0
ARC
  5
335E3
  8
0
 10
12.367668941754101
 20
6.9483814934257229
 30
0.0
 40
0.0393248784141788
 50
179.9537815318192
 51
270.04621846818799
  0
LINE
  5
335E4
  8
0
 10
11.947753157170199
 20
6.9090566278060423
 30
0.0
 11
12.14968628062039
 21
6.9090566278060423
 31
0.0
  0
ARC
  5
335E5
  8
0
 10
11.91780285831917
 20
9.5199109444106274
 30
0.0
 40
0.0295320044668936
 50
0.0082336452976254
 51
90.011013543762701
  0
POLYLINE
  5
335E6
  8
0
 66
     1
 10
0.0
 20
0.0
 30
0.0
  0
VERTEX
  5
33F5E
  8
0
 10
11.944792192873329
 20
9.5167904188787382
 30
0.0
  0
VERTEX
  5
33F5F
  8
0
 10
11.94442549539672
 20
9.515814445017833
 30
0.0
  0
VERTEX
  5
33F60
  8
0
 10
11.941532296177551
 20
9.5034196012778072
 30
0.0
  0
VERTEX
  5
33F61
  8
0
 10
11.938671455477991
 20
9.4828000199444382
 30
0.0
  0
VERTEX
  5
33F62
  8
0
 10
11.93585898287065
 20
9.4540710904151712
 30
0.0
  0
VERTEX
  5
33F63
  8
0
 10
11.933110617255091
 20
9.4173935828731707
 30
0.0
  0
VERTEX
  5
33F64
  8
0
 10
11.93044173878123
 20
9.3729727486000556
 30
0.0
  0
VERTEX
  5
33F65
  8
0
 10
11.92786728278039
 20
9.3210571713676327
 30
0.0
  0
VERTEX
  5
33F66
  8
0
 10
11.92540165618558
 20
9.2619373763363342
 30
0.0
  0
VERTEX
  5
33F67
  8
0
 10
11.92305865690872
 20
9.1959442042451531
 30
0.0
  0
VERTEX
  5
33F68
  8
0
 10
11.92085139662605
 20
9.1234469599912131
 30
0.0
  0
VERTEX
  5
33F69
  8
0
 10
11.918792227403779
 20
9.0448513459598292
 30
0.0
  0
VERTEX
  5
33F6A
  8
0
 10
11.91689267257463
 20
8.9605971916702583
 30
0.0
  0
VERTEX
  5
33F6B
  8
0
 10
11.915163362251951
 20
8.8711559924423486
 30
0.0
  0
VERTEX
  5
33F6C
  8
0
 10
11.913613973842519
 20
8.7770282708579614
 30
0.0
  0
VERTEX
  5
33F6D
  8
0
 10
11.912253177890729
 20
8.6787407757827051
 30
0.0
  0
VERTEX
  5
33F6E
  8
0
 10
11.911088589557229
 20
8.5768435346225775
 30
0.0
  0
VERTEX
  5
33F6F
  8
0
 10
11.91012672600376
 20
8.4719067753113464
 30
0.0
  0
VERTEX
  5
33F70
  8
0
 10
11.90937296992233
 20
8.3645177352536564
 30
0.0
  0
VERTEX
  5
33F71
  8
0
 10
11.908831539413139
 20
8.2552773750812651
 30
0.0
  0
VERTEX
  5
33F72
  8
0
 10
11.90850546437961
 20
8.1447970156126512
 30
0.0
  0
VERTEX
  5
33F73
  8
0
 10
11.908396569572741
 20
8.0336949168358611
 30
0.0
  0
SEQEND
  5
33F74
  8
0
  0
POLYLINE
  5
335E7
  8
0
 66
     1
 10
0.0
 20
0.0
 30
0.0
  0
VERTEX
  5
33F75
  8
0
 10
12.18904286821785
 20
8.0336949168358611
 30
0.0
  0
VERTEX
  5
33F76
  8
0
 10
12.18893397341099
 20
8.1447970156126512
 30
0.0
  0
VERTEX
  5
33F77
  8
0
 10
12.188607898377461
 20
8.2552773750812705
 30
0.0
  0
VERTEX
  5
33F78
  8
0
 10
12.188066467868261
 20
8.3645177352536582
 30
0.0
  0
VERTEX
  5
33F79
  8
0
 10
12.187312711786831
 20
8.4719067753113464
 30
0.0
  0
VERTEX
  5
33F7A
  8
0
 10
12.18635084823336
 20
8.5768435346225829
 30
0.0
  0
VERTEX
  5
33F7B
  8
0
 10
12.18518625989987
 20
8.6787407757827122
 30
0.0
  0
VERTEX
  5
33F7C
  8
0
 10
12.18382546394807
 20
8.7770282708579668
 30
0.0
  0
VERTEX
  5
33F7D
  8
0
 10
12.18227607553864
 20
8.8711559924423522
 30
0.0
  0
VERTEX
  5
33F7E
  8
0
 10
12.18054676521596
 20
8.9605971916702654
 30
0.0
  0
VERTEX
  5
33F7F
  8
0
 10
12.17864721038681
 20
9.0448513459598363
 30
0.0
  0
VERTEX
  5
33F80
  8
0
 10
12.17658804116455
 20
9.1234469599912202
 30
0.0
  0
VERTEX
  5
33F81
  8
0
 10
12.17438078088187
 20
9.1959442042451602
 30
0.0
  0
VERTEX
  5
33F82
  8
0
 10
12.17203778160501
 20
9.2619373763363431
 30
0.0
  0
VERTEX
  5
33F83
  8
0
 10
12.169572155010201
 20
9.3210571713676398
 30
0.0
  0
VERTEX
  5
33F84
  8
0
 10
12.166997699009359
 20
9.3729727486000645
 30
0.0
  0
VERTEX
  5
33F85
  8
0
 10
12.1643288205355
 20
9.4173935828731796
 30
0.0
  0
VERTEX
  5
33F86
  8
0
 10
12.161580454919941
 20
9.4540710904151766
 30
0.0
  0
VERTEX
  5
33F87
  8
0
 10
12.1587679823126
 20
9.4828000199444435
 30
0.0
  0
VERTEX
  5
33F88
  8
0
 10
12.15590714161304
 20
9.5034196012778107
 30
0.0
  0
VERTEX
  5
33F89
  8
0
 10
12.153056597569011
 20
9.5156922843254996
 30
0.0
  0
SEQEND
  5
33F8A
  8
0
  0
ARC
  5
335E8
  8
0
 10
12.17963810155115
 20
9.5199094218194968
 30
0.0
 40
0.0295335268046549
 50
89.991939896686105
 51
179.9888129142565
  0
POLYLINE
  5
335E9
  8
0
 66
     1
 10
0.0
 20
0.0
 30
0.0
  0
VERTEX
  5
33F8B
  8
0
 10
10.763499416047621
 20
9.5494349958628462
 30
0.0
  0
VERTEX
  5
33F8C
  8
0
 10
10.763632157344331
 20
9.5494427209241195
 30
0.0
  0
VERTEX
  5
33F8D
  8
0
 10
10.758331513144279
 20
9.5491351692448028
 30
0.0
  0
VERTEX
  5
33F8E
  8
0
 10
10.743578092841879
 20
9.5483776202829311
 30
0.0
  0
VERTEX
  5
33F8F
  8
0
 10
10.729960886337009
 20
9.5478071302102396
 30
0.0
  0
VERTEX
  5
33F90
  8
0
 10
10.70364069921764
 20
9.54705518308708
 30
0.0
  0
VERTEX
  5
33F91
  8
0
 10
10.673980453578491
 20
9.5467624820312267
 30
0.0
  0
VERTEX
  5
33F92
  8
0
 10
10.64435095669212
 20
9.547057242828993
 30
0.0
  0
VERTEX
  5
33F93
  8
0
 10
10.618067943716049
 20
9.5478096260400971
 30
0.0
  0
VERTEX
  5
33F94
  8
0
 10
10.598065989057091
 20
9.5486910550412567
 30
0.0
  0
VERTEX
  5
33F95
  8
0
 10
10.58663334833204
 20
9.5493145604825749
 30
0.0
  0
VERTEX
  5
33F96
  8
0
 10
10.58560868073255
 20
9.5493748751518162
 30
0.0
  0
SEQEND
  5
33F97
  8
0
  0
POLYLINE
  5
335EA
  8
0
 66
     1
 10
0.0
 20
0.0
 30
0.0
  0
VERTEX
  5
33F98
  8
0
 10
11.76909536165617
 20
8.0336949168358611
 30
0.0
  0
VERTEX
  5
33F99
  8
0
 10
11.768986466849309
 20
8.1447970156126512
 30
0.0
  0
VERTEX
  5
33F9A
  8
0
 10
11.76866039181578
 20
8.2552773750812705
 30
0.0
  0
VERTEX
  5
33F9B
  8
0
 10
11.76811896130658
 20
8.3645177352536582
 30
0.0
  0
VERTEX
  5
33F9C
  8
0
 10
11.767365205225151
 20
8.4719067753113464
 30
0.0
  0
VERTEX
  5
33F9D
  8
0
 10
11.76640334167168
 20
8.5768435346225829
 30
0.0
  0
VERTEX
  5
33F9E
  8
0
 10
11.76523875333819
 20
8.6787407757827122
 30
0.0
  0
VERTEX
  5
33F9F
  8
0
 10
11.76387795738639
 20
8.7770282708579668
 30
0.0
  0
VERTEX
  5
33FA0
  8
0
 10
11.76232856897696
 20
8.8711559924423522
 30
0.0
  0
VERTEX
  5
33FA1
  8
0
 10
11.760599258654279
 20
8.9605971916702654
 30
0.0
  0
VERTEX
  5
33FA2
  8
0
 10
11.75869970382513
 20
9.0448513459598363
 30
0.0
  0
VERTEX
  5
33FA3
  8
0
 10
11.75664053460287
 20
9.1234469599912202
 30
0.0
  0
VERTEX
  5
33FA4
  8
0
 10
11.75443327432019
 20
9.1959442042451602
 30
0.0
  0
VERTEX
  5
33FA5
  8
0
 10
11.752090275043329
 20
9.2619373763363431
 30
0.0
  0
VERTEX
  5
33FA6
  8
0
 10
11.749624648448521
 20
9.3210571713676398
 30
0.0
  0
VERTEX
  5
33FA7
  8
0
 10
11.747050192447681
 20
9.3729727486000645
 30
0.0
  0
VERTEX
  5
33FA8
  8
0
 10
11.74438131397382
 20
9.4173935828731796
 30
0.0
  0
VERTEX
  5
33FA9
  8
0
 10
11.74163294835826
 20
9.4540710904151766
 30
0.0
  0
VERTEX
  5
33FAA
  8
0
 10
11.73882047575092
 20
9.4828000199444435
 30
0.0
  0
VERTEX
  5
33FAB
  8
0
 10
11.73595963505136
 20
9.5034196012778107
 30
0.0
  0
VERTEX
  5
33FAC
  8
0
 10
11.73310909100733
 20
9.5156922843254996
 30
0.0
  0
SEQEND
  5
33FAD
  8
0
  0
ARC
  5
335EB
  8
0
 10
11.75969059498947
 20
9.5199094218195004
 30
0.0
 40
0.0295335268046513
 50
89.991939896679199
 51
179.98881291426329
  0
POLYLINE
  5
335EC
  8
0
 66
     1
 10
0.0
 20
0.0
 30
0.0
  0
VERTEX
  5
33FAE
  8
0
 10
11.34914785509449
 20
8.0336949168358611
 30
0.0
  0
VERTEX
  5
33FAF
  8
0
 10
11.349038960287629
 20
8.1447970156126512
 30
0.0
  0
VERTEX
  5
33FB0
  8
0
 10
11.3487128852541
 20
8.2552773750812705
 30
0.0
  0
VERTEX
  5
33FB1
  8
0
 10
11.3481714547449
 20
8.3645177352536582
 30
0.0
  0
VERTEX
  5
33FB2
  8
0
 10
11.34741769866347
 20
8.4719067753113464
 30
0.0
  0
VERTEX
  5
33FB3
  8
0
 10
11.34645583511
 20
8.5768435346225829
 30
0.0
  0
VERTEX
  5
33FB4
  8
0
 10
11.345291246776499
 20
8.6787407757827122
 30
0.0
  0
VERTEX
  5
33FB5
  8
0
 10
11.343930450824709
 20
8.7770282708579668
 30
0.0
  0
VERTEX
  5
33FB6
  8
0
 10
11.34238106241528
 20
8.8711559924423522
 30
0.0
  0
VERTEX
  5
33FB7
  8
0
 10
11.340651752092599
 20
8.9605971916702654
 30
0.0
  0
VERTEX
  5
33FB8
  8
0
 10
11.33875219726345
 20
9.0448513459598363
 30
0.0
  0
VERTEX
  5
33FB9
  8
0
 10
11.336693028041189
 20
9.1234469599912202
 30
0.0
  0
VERTEX
  5
33FBA
  8
0
 10
11.33448576775851
 20
9.1959442042451602
 30
0.0
  0
VERTEX
  5
33FBB
  8
0
 10
11.332142768481649
 20
9.2619373763363431
 30
0.0
  0
VERTEX
  5
33FBC
  8
0
 10
11.32967714188684
 20
9.3210571713676398
 30
0.0
  0
VERTEX
  5
33FBD
  8
0
 10
11.327102685886009
 20
9.3729727486000645
 30
0.0
  0
VERTEX
  5
33FBE
  8
0
 10
11.32443380741214
 20
9.4173935828731796
 30
0.0
  0
VERTEX
  5
33FBF
  8
0
 10
11.32168544179658
 20
9.4540710904151766
 30
0.0
  0
VERTEX
  5
33FC0
  8
0
 10
11.31887296918924
 20
9.4828000199444435
 30
0.0
  0
VERTEX
  5
33FC1
  8
0
 10
11.31601212848968
 20
9.5034196012778107
 30
0.0
  0
VERTEX
  5
33FC2
  8
0
 10
11.31316158444565
 20
9.5156922843254996
 30
0.0
  0
SEQEND
  5
33FC3
  8
0
  0
ARC
  5
335ED
  8
0
 10
11.33974308842779
 20
9.5199094218194986
 30
0.0
 40
0.0295335268046534
 50
89.991939896686105
 51
179.98881291425991
  0
LINE
  5
335EE
  8
0
 10
10.47719740918401
 20
6.527789405024838
 30
0.0
 11
10.47719740918401
 21
9.5396004286468834
 31
0.0
  0
ARC
  5
335EF
  8
0
 10
12.56893262729333
 20
6.9488472635166767
 30
0.0
 40
0.0394975706069947
 50
270.58897176424358
 51
0.183257697993311
  0
ARC
  5
335F0
  8
0
 10
12.337750364880851
 20
9.5199109444106238
 30
0.0
 40
0.0295320044668977
 50
0.0082336453045166
 51
90.011013543748916
  0
POLYLINE
  5
335F1
  8
0
 66
     1
 10
0.0
 20
0.0
 30
0.0
  0
VERTEX
  5
33FC4
  8
0
 10
12.36473938012896
 20
9.5167896268354202
 30
0.0
  0
VERTEX
  5
33FC5
  8
0
 10
12.364363555415579
 20
9.5157875461546642
 30
0.0
  0
VERTEX
  5
33FC6
  8
0
 10
12.361461068170881
 20
9.5033119315911261
 30
0.0
  0
VERTEX
  5
33FC7
  8
0
 10
12.35859125573594
 20
9.4825586142140761
 30
0.0
  0
VERTEX
  5
33FC8
  8
0
 10
12.35577028249525
 20
9.4536444882836577
 30
0.0
  0
VERTEX
  5
33FC9
  8
0
 10
12.353014037743719
 20
9.4167324142860753
 30
0.0
  0
VERTEX
  5
33FCA
  8
0
 10
12.350338046189259
 20
9.3720303016125044
 30
0.0
  0
VERTEX
  5
33FCB
  8
0
 10
12.34775738050905
 20
9.3197899374973865
 30
0.0
  0
VERTEX
  5
33FCC
  8
0
 10
12.345286576451761
 20
9.2603055688123064
 30
0.0
  0
VERTEX
  5
33FCD
  8
0
 10
12.3429395509641
 20
9.1939122447034602
 30
0.0
  0
VERTEX
  5
33FCE
  8
0
 10
12.34072952380286
 20
9.1209839294079611
 30
0.0
  0
VERTEX
  5
33FCF
  8
0
 10
12.338668943073801
 20
9.041931395878656
 30
0.0
  0
VERTEX
  5
33FD0
  8
0
 10
12.33676941511702
 20
8.9571999120817178
 30
0.0
  0
VERTEX
  5
33FD1
  8
0
 10
12.3350416391336
 20
8.8672667329990702
 30
0.0
  0
VERTEX
  5
33FD2
  8
0
 10
12.33349534692165
 20
8.7726384124621291
 30
0.0
  0
VERTEX
  5
33FD3
  8
0
 10
12.332139248061459
 20
8.6738479499580183
 30
0.0
  0
VERTEX
  5
33FD4
  8
0
 10
12.3309809808583
 20
8.5714517884791732
 30
0.0
  0
VERTEX
  5
33FD5
  8
0
 10
12.330027069319151
 20
8.4660266803259905
 30
0.0
  0
VERTEX
  5
33FD6
  8
0
 10
12.32928288640591
 20
8.3581664385161591
 30
0.0
  0
VERTEX
  5
33FD7
  8
0
 10
12.32875262377188
 20
8.2484785920984915
 30
0.0
  0
SEQEND
  5
33FD8
  8
0
  0
LINE
  5
335F2
  8
0
 10
12.367282369042821
 20
8.9867328608194406
 30
0.0
 11
12.367282369042821
 21
9.5199151882842763
 31
0.0
  0
LINE
  5
335F3
  8
0
 10
11.10743984935778
 20
8.9884393125543447
 30
0.0
 11
11.10743984935778
 21
9.5199151882842763
 31
0.0
  0
LINE
  5
335F4
  8
0
 10
11.52738735591946
 20
8.9884393125543447
 30
0.0
 11
11.52738735591946
 21
9.5199151882842763
 31
0.0
  0
LINE
  5
335F5
  8
0
 10
11.31020956218609
 20
9.5199151882842763
 30
0.0
 11
11.31020956218609
 21
8.9884393125543411
 31
0.0
  0
LINE
  5
335F6
  8
0
 10
11.94733486248114
 20
8.9884393125543411
 30
0.0
 11
11.94733486248114
 21
9.5199151882842763
 31
0.0
  0
LINE
  5
335F7
  8
0
 10
12.150104575309459
 20
9.5199151882842763
 30
0.0
 11
12.150104575309459
 21
8.9884393125543411
 31
0.0
  0
LINE
  5
335F8
  8
0
 10
11.73015706874777
 20
9.5199151882842763
 30
0.0
 11
11.73015706874777
 21
8.9884393125543447
 31
0.0
  0
ARC
  5
335F9
  8
0
 10
12.788271536419931
 20
6.9494917144151671
 30
0.0
 40
0.0389898803301842
 50
180.12979488248291
 51
271.22079481962737
  0
ARC
  5
335FA
  8
0
 10
12.44340811073852
 20
54.159015627500587
 30
0.0
 40
47.249769563515351
 50
270.41919761163672
 51
270.65830082924589
  0
ARC
  5
335FB
  8
0
 10
10.9496383540659
 20
7.1872382239224732
 30
0.0
 40
2.9527559055118102
 50
40.437540931776951
 51
44.834635803928528
  0
POLYLINE
  5
335FC
  8
0
 66
     1
 10
0.0
 20
0.0
 30
0.0
  0
VERTEX
  5
33FD9
  8
0
 10
13.02355589537137
 20
8.0574073121133534
 30
0.0
  0
VERTEX
  5
33FDA
  8
0
 10
13.02281960627557
 20
8.1670719806724854
 30
0.0
  0
VERTEX
  5
33FDB
  8
0
 10
13.021649251990439
 20
8.3091250055666581
 30
0.0
  0
VERTEX
  5
33FDC
  8
0
 10
13.0202259372612
 20
8.447734815433213
 30
0.0
  0
VERTEX
  5
33FDD
  8
0
 10
13.01847911097911
 20
8.5848540033160692
 30
0.0
  0
VERTEX
  5
33FDE
  8
0
 10
13.016418034418249
 20
8.7153951491037276
 30
0.0
  0
VERTEX
  5
33FDF
  8
0
 10
13.0134891071216
 20
8.8612302179915083
 30
0.0
  0
VERTEX
  5
33FE0
  8
0
 10
13.009998468296249
 20
8.9926586235077828
 30
0.0
  0
VERTEX
  5
33FE1
  8
0
 10
13.006311761265129
 20
9.0950313670744247
 30
0.0
  0
VERTEX
  5
33FE2
  8
0
 10
13.002143994641211
 20
9.1757207325562078
 30
0.0
  0
VERTEX
  5
33FE3
  8
0
 10
12.997786314853419
 20
9.2269319782379302
 30
0.0
  0
VERTEX
  5
33FE4
  8
0
 10
12.995462357520889
 20
9.2417361118961772
 30
0.0
  0
VERTEX
  5
33FE5
  8
0
 10
12.993112653997541
 20
9.2482984386684741
 30
0.0
  0
SEQEND
  5
33FE6
  8
0
  0
ARC
  5
335FD
  8
0
 10
13.022642136305331
 20
9.2482836029691082
 30
0.0
 40
0.0295294860345344
 50
44.871522184072383
 51
179.9712144331109
  0
ARC
  5
335FE
  8
0
 10
12.98486829784504
 20
6.9522625840668546
 30
0.0
 40
0.0399225841677356
 50
272.01668483886738
 51
0.4287594853391802
  0
LINE
  5
335FF
  8
0
 10
12.993112653997541
 20
9.2482984386684741
 30
0.0
 11
12.989999588432809
 21
9.2514248036770876
 31
0.0
  0
POLYLINE
  5
33600
  8
0
 66
     1
 10
0.0
 20
0.0
 30
0.0
  0
VERTEX
  5
33FE7
  8
0
 10
13.024789764200589
 20
7.6323141717205933
 30
0.0
  0
VERTEX
  5
33FE8
  8
0
 10
13.024496759745251
 20
7.844860741916972
 30
0.0
  0
VERTEX
  5
33FE9
  8
0
 10
13.02355589537137
 20
8.0574073121133534
 30
0.0
  0
SEQEND
  5
33FEA
  8
0
  0
LINE
  5
33601
  8
0
 10
13.024789764200589
 20
6.9525613325441196
 30
0.0
 11
13.024789764200589
 21
7.6323141717205933
 31
0.0
  0
LINE
  5
33602
  8
0
 10
12.989999588432809
 20
9.2514248036770876
 30
0.0
 11
12.989999588432809
 21
8.8381010802670072
 31
0.0
  0
LINE
  5
33603
  8
0
 10
13.173673652273649
 20
7.6076695609359852
 30
0.0
 11
13.173673652273649
 21
6.9538477784193811
 31
0.0
  0
ARC
  5
33604
  8
0
 10
77.276293666425701
 20
7.6224448479002751
 30
0.0
 40
64.102621716961579
 50
179.57689633643869
 51
180.01320634896081
  0
POLYLINE
  5
33605
  8
0
 66
     1
 10
0.0
 20
0.0
 30
0.0
  0
VERTEX
  5
33FEB
  8
0
 10
13.20406431660145
 20
9.0832988861859452
 30
0.0
  0
VERTEX
  5
33FEC
  8
0
 10
13.20079158936349
 20
9.0782622252242611
 30
0.0
  0
VERTEX
  5
33FED
  8
0
 10
13.19756875418061
 20
9.0558873524102381
 30
0.0
  0
VERTEX
  5
33FEE
  8
0
 10
13.19436044558654
 20
9.0150776128093266
 30
0.0
  0
VERTEX
  5
33FEF
  8
0
 10
13.191310530090551
 20
8.9577993975664345
 30
0.0
  0
VERTEX
  5
33FF0
  8
0
 10
13.18848834307167
 20
8.8863779737690418
 30
0.0
  0
VERTEX
  5
33FF1
  8
0
 10
13.185940768617019
 20
8.8032039446522479
 30
0.0
  0
VERTEX
  5
33FF2
  8
0
 10
13.183639231115199
 20
8.7095507473505407
 30
0.0
  0
VERTEX
  5
33FF3
  8
0
 10
13.18159941063424
 20
8.6077909964995651
 30
0.0
  0
VERTEX
  5
33FF4
  8
0
 10
13.17905949948611
 20
8.4464698231410988
 30
0.0
  0
VERTEX
  5
33FF5
  8
0
 10
13.177013424924111
 20
8.2743758307267434
 30
0.0
  0
VERTEX
  5
33FF6
  8
0
 10
13.175419751051949
 20
8.0958096894636622
 30
0.0
  0
SEQEND
  5
33FF7
  8
0
  0
LINE
  5
33606
  8
0
 10
13.207177382166179
 20
9.0796398122746442
 30
0.0
 11
13.20406431660145
 21
9.083298886185954
 31
0.0
  0
LINE
  5
33607
  8
0
 10
13.207177382166179
 20
8.6553848170409662
 30
0.0
 11
13.207177382166179
 21
9.0796398122746425
 31
0.0
  0
ARC
  5
33608
  8
0
 10
13.21237417771985
 20
6.9543085599373287
 30
0.0
 40
0.0387032684591171
 50
180.682150656164
 51
272.68437801790128
  0
ARC
  5
33609
  8
0
 10
12.74087022152168
 20
34.189778523453917
 30
0.0
 40
27.27823743252349
 50
270.9942139393317
 51
271.38269699178369
  0
ARC
  5
3360A
  8
0
 10
13.17457489378801
 20
9.0833247875610876
 30
0.0
 40
0.0294894341883839
 50
359.94967554615141
 51
40.434546958744512
  0
ARC
  5
3360B
  8
0
 10
13.395985715404761
 20
6.9600965066850558
 30
0.0
 40
0.0407319567644918
 50
274.38715996583568
 51
0.6855351763792889
  0
ARC
  5
3360C
  8
0
 10
-33.747710464227779
 20
7.5520371932189523
 30
0.0
 40
47.184451101431279
 50
359.9399898258448
 51
0.8188345644436239
  0
ARC
  5
3360D
  8
0
 10
8.0052387652396551
 20
8.2604911979573021
 30
0.0
 40
5.4267908410894581
 50
359.6394751269487
 51
4.79203518196333
  0
LINE
  5
3360E
  8
0
 10
13.43671475666069
 20
6.9605838466457142
 30
0.0
 11
13.43671475666069
 21
7.5026173819445523
 31
0.0
  0
LINE
  5
3360F
  8
0
 10
13.409947094994489
 20
8.7189136304019872
 30
0.0
 11
13.409947094994489
 21
8.5149446523169825
 31
0.0
  0
LINE
  5
33610
  8
0
 10
13.58743362965645
 20
8.2662513429747531
 30
0.0
 11
13.58743362965645
 21
7.4651278822946692
 31
0.0
  0
LINE
  5
33611
  8
0
 10
13.58743362965645
 20
7.4651278822946647
 30
0.0
 11
13.58743362965645
 21
6.9689885477808611
 31
0.0
  0
ARC
  5
33612
  8
0
 10
13.62680033647786
 20
6.9689919202735418
 30
0.0
 40
0.039366706965872
 50
180.00490845768181
 51
270.004907616818
  0
ARC
  5
33613
  8
0
 10
10.9496383540659
 20
7.1872382239224732
 30
0.0
 40
2.9527559055118102
 50
26.841895429730108
 51
31.48208891122453
  0
LINE
  5
33614
  8
0
 10
13.697301682753441
 20
6.9296252134520797
 30
0.0
 11
13.62680370839661
 21
6.9296252134520797
 31
0.0
  0
ARC
  5
33615
  8
0
 10
13.616961188711571
 20
8.1681867257803162
 30
0.0
 40
0.0295275590551203
 50
180.0
 51
270.0000000000008
  0
POLYLINE
  5
33616
  8
0
 66
     1
 10
0.0
 20
0.0
 30
0.0
  0
VERTEX
  5
33FF8
  8
0
 10
13.207177382166179
 20
8.6553848170409662
 30
0.0
  0
VERTEX
  5
33FF9
  8
0
 10
13.20885032611768
 20
8.6455641323169417
 30
0.0
  0
VERTEX
  5
33FFA
  8
0
 10
13.209245894380929
 20
8.6448503205896596
 30
0.0
  0
SEQEND
  5
33FFB
  8
0
  0
POLYLINE
  5
33617
  8
0
 66
     1
 10
0.0
 20
0.0
 30
0.0
  0
VERTEX
  5
33FFC
  8
0
 10
12.94848474695951
 20
8.8116450880875625
 30
0.0
  0
VERTEX
  5
33FFD
  8
0
 10
12.94818775964659
 20
8.8119319776956093
 30
0.0
  0
VERTEX
  5
33FFE
  8
0
 10
12.947744286119629
 20
8.81183221869248
 30
0.0
  0
SEQEND
  5
33FFF
  8
0
  0
ARC
  5
33618
  8
0
 10
12.962880099225851
 20
8.836828788545068
 30
0.0
 40
0.0271493171382345
 50
296.39655486153038
 51
2.6860216674471391
  0
ARC
  5
33619
  8
0
 10
13.38201591936053
 20
8.5137264189326167
 30
0.0
 40
0.0279577299663935
 50
273.33885587335209
 51
2.4974037055004619
  0
ARC
  5
3361A
  8
0
 10
12.816818792935541
 20
8.9007059699490778
 30
0.0
 40
0.0295889174494369
 50
180.00512550569809
 51
249.64407673890449
  0
ARC
  5
3361B
  8
0
 10
12.54050130520603
 20
8.9722321353300085
 30
0.0
 40
0.0295507771227061
 50
261.30093771290791
 51
359.98991679388843
  0
ARC
  5
3361C
  8
0
 10
12.39683727791232
 20
8.9867380364615652
 30
0.0
 40
0.0295549093226784
 50
180.0100336106099
 51
267.17451585449732
  0
ARC
  5
3361D
  8
0
 10
11.700604980613999
 20
8.9884438556943067
 30
0.0
 40
0.0295520884829871
 50
269.99798692691468
 51
359.99119173094277
  0
ARC
  5
3361E
  8
0
 10
11.136992811845451
 20
8.9884447302133612
 30
0.0
 40
0.0295529629842578
 50
180.0105034814485
 51
270.00031786070781
  0
ARC
  5
3361F
  8
0
 10
11.556940318407131
 20
8.9884447302133612
 30
0.0
 40
0.0295529629842566
 50
180.010503481445
 51
270.00031786071128
  0
ARC
  5
33620
  8
0
 10
11.97688782496882
 20
8.9884447302133665
 30
0.0
 40
0.0295529629842631
 50
180.0105034814554
 51
270.00031786069752
  0
ARC
  5
33621
  8
0
 10
12.120552487175679
 20
8.9884438556943067
 30
0.0
 40
0.0295520884829876
 50
269.99798692691132
 51
359.99119173093578
  0
ARC
  5
33622
  8
0
 10
11.28123316028271
 20
8.9882385375898455
 30
0.0
 40
0.0289770974711518
 50
290.69101867531441
 51
0.3969911118231691
  0
ARC
  5
33623
  8
0
 10
13.69714083465287
 20
6.9589472992931132
 30
0.0
 40
0.0293225270087742
 50
270.31429636067969
 51
0.3817232947778409
  0
LINE
  5
33624
  8
0
 10
13.616961188711571
 20
8.1386591667251942
 30
0.0
 11
13.72369199414914
 21
8.1386591667251942
 31
0.0
  0
POLYLINE
  5
33625
  8
0
 66
     1
 10
0.0
 20
0.0
 30
0.0
  0
VERTEX
  5
34000
  8
0
 10
13.72646271090014
 20
7.3771104605588818
 30
0.0
  0
VERTEX
  5
34001
  8
0
 10
13.726457381217889
 20
7.3822168100883108
 30
0.0
  0
VERTEX
  5
34002
  8
0
 10
13.72610407002492
 20
7.5304638840958882
 30
0.0
  0
VERTEX
  5
34003
  8
0
 10
13.72565270822323
 20
7.6787107168487374
 30
0.0
  0
VERTEX
  5
34004
  8
0
 10
13.725281910803149
 20
7.7814239536496563
 30
0.0
  0
VERTEX
  5
34005
  8
0
 10
13.72488239981066
 20
7.8797725376681367
 30
0.0
  0
VERTEX
  5
34006
  8
0
 10
13.72452372787323
 20
7.959349936264311
 30
0.0
  0
VERTEX
  5
34007
  8
0
 10
13.724179107607981
 20
8.0300222925226024
 30
0.0
  0
VERTEX
  5
34008
  8
0
 10
13.723927818380959
 20
8.078629415673344
 30
0.0
  0
VERTEX
  5
34009
  8
0
 10
13.723746351366071
 20
8.1149452214107001
 30
0.0
  0
VERTEX
  5
3400A
  8
0
 10
13.723676754847871
 20
8.1325243277240666
 30
0.0
  0
VERTEX
  5
3400B
  8
0
 10
13.72369199215453
 20
8.1386591667190498
 30
0.0
  0
VERTEX
  5
3400C
  8
0
 10
13.72369199414914
 20
8.1386591667251942
 30
0.0
  0
SEQEND
  5
3400D
  8
0
  0
ARC
  5
33626
  8
0
 10
13.723691990585159
 20
8.1091316185697391
 30
0.0
 40
0.0295275481554571
 50
18.38016660918964
 51
89.999993084394575
  0
LINE
  5
33627
  8
0
 10
13.751713276250181
 20
8.1184436620513676
 30
0.0
 11
13.751713197344589
 21
8.1184422615023468
 31
0.0
  0
ARC
  5
33628
  8
0
 10
10.949638354065589
 20
7.1872382239224244
 30
0.0
 40
2.952755905512118
 50
0.0000000000009996
 51
18.383045634981102
  0
LINE
  5
33629
  8
0
 10
12.39538039773379
 20
8.957219056716033
 30
0.0
 11
12.40596645709191
 21
8.9561504702620276
 31
0.0
  0
LINE
  5
3362A
  8
0
 10
12.52778859816843
 20
8.9438534024534455
 30
0.0
 11
12.53603190848864
 21
8.9430212996429148
 31
0.0
  0
LINE
  5
3362B
  8
0
 10
12.806526261133749
 20
8.8729648844451052
 30
0.0
 11
12.8147257259612
 21
8.8693931615567116
 31
0.0
  0
LINE
  5
3362C
  8
0
 10
13.72646271090014
 20
6.9591426541501811
 30
0.0
 11
13.72646271090014
 21
7.3771104605588818
 31
0.0
  0
ARC
  5
3362D
  8
0
 10
13.55790607060133
 20
8.5071637840988696
 30
0.0
 40
0.0295275590551187
 50
0.0
 51
26.841895429730322
  0
LINE
  5
3362E
  8
0
 10
13.58743362965645
 20
8.5071637840988696
 30
0.0
 11
13.58743362965645
 21
8.2662513429747531
 31
0.0
  0
ARC
  5
3362F
  8
0
 10
12.59958334039616
 20
9.5020082825715875
 30
0.0
 40
0.0295312592783495
 50
77.509766936113749
 51
179.98705841598499
  0
ARC
  5
33630
  8
0
 10
12.757690116588099
 20
9.4481595657340556
 30
0.0
 40
0.0295397591553921
 50
0.005558248171235
 51
64.875234090607904
  0
LINE
  5
33631
  8
0
 10
13.464634739731791
 20
8.7343518647460563
 30
0.0
 11
13.4677588057744
 21
8.7292618385997098
 31
0.0
  0
ARC
  5
33632
  8
0
 10
13.43947035847977
 20
8.7189124021733821
 30
0.0
 40
0.0295232635108275
 50
31.530959628313031
 51
179.99761637749711
  0
LINE
  5
33633
  8
0
 10
13.04044533916443
 20
9.2722546719626493
 30
0.0
 11
13.04356940520705
 21
9.2691172287164143
 31
0.0
  0
ARC
  5
33634
  8
0
 10
13.01952628673007
 20
9.2514167444616682
 30
0.0
 40
0.0295266993971199
 50
44.888686623030878
 51
179.98436130536481
  0
LINE
  5
33635
  8
0
 10
13.19702069935626
 20
9.1024510140876025
 30
0.0
 11
13.200144765398869
 21
9.0987790500844667
 31
0.0
  0
POLYLINE
  5
33636
  8
0
 66
     1
 10
0.0
 20
0.0
 30
0.0
  0
VERTEX
  5
3400E
  8
0
 10
13.200144765398869
 20
9.0987790500844667
 30
0.0
  0
VERTEX
  5
3400F
  8
0
 10
13.20536047358325
 20
9.089842299311508
 30
0.0
  0
VERTEX
  5
34010
  8
0
 10
13.207177382166179
 20
9.0796398122746425
 30
0.0
  0
SEQEND
  5
34011
  8
0
  0
ARC
  5
33637
  8
0
 10
13.723692527028341
 20
8.1091316076700792
 30
0.0
 40
0.0295275590551185
 50
18.38304563498064
 51
90.0
  0
POLYLINE
  5
33638
  8
0
 66
     1
 10
0.0
 20
0.0
 30
0.0
  0
VERTEX
  5
34012
  8
0
 10
9.3971834491251318
 20
6.6986341917449588
 30
0.0
  0
VERTEX
  5
34013
  8
0
 10
9.3976975320349592
 20
6.6981651375024072
 30
0.0
  0
VERTEX
  5
34014
  8
0
 10
9.3894340766755331
 20
6.7057279883589818
 30
0.0
  0
VERTEX
  5
34015
  8
0
 10
9.3713433283235528
 20
6.7224879551748522
 30
0.0
  0
VERTEX
  5
34016
  8
0
 10
9.3525042058653831
 20
6.7402433063889591
 30
0.0
  0
VERTEX
  5
34017
  8
0
 10
9.3298275896368121
 20
6.762034982531917
 30
0.0
  0
VERTEX
  5
34018
  8
0
 10
9.3039367826686412
 20
6.787493232620017
 30
0.0
  0
VERTEX
  5
34019
  8
0
 10
9.2753394081377731
 20
6.816355214908917
 30
0.0
  0
VERTEX
  5
3401A
  8
0
 10
9.2229200014639119
 20
6.8713923384816766
 30
0.0
  0
VERTEX
  5
3401B
  8
0
 10
9.1669642074756652
 20
6.9334142127129068
 30
0.0
  0
VERTEX
  5
3401C
  8
0
 10
9.1080474304353292
 20
7.002730666257837
 30
0.0
  0
VERTEX
  5
3401D
  8
0
 10
9.0483448831224962
 20
7.0776491524430956
 30
0.0
  0
VERTEX
  5
3401E
  8
0
 10
8.9935396962032446
 20
7.151088215796829
 30
0.0
  0
VERTEX
  5
3401F
  8
0
 10
8.9394539908315291
 20
7.2285400640779356
 30
0.0
  0
VERTEX
  5
34020
  8
0
 10
8.8861144688339824
 20
7.3104817128362516
 30
0.0
  0
VERTEX
  5
34021
  8
0
 10
8.8344272875086478
 20
7.3960172670113531
 30
0.0
  0
VERTEX
  5
34022
  8
0
 10
8.7841296802178714
 20
7.4861147605320211
 30
0.0
  0
VERTEX
  5
34023
  8
0
 10
8.7362910739527351
 20
7.5793804023028617
 30
0.0
  0
VERTEX
  5
34024
  8
0
 10
8.6908181488065974
 20
7.676466299580869
 30
0.0
  0
VERTEX
  5
34025
  8
0
 10
8.6485209368854719
 20
7.776077662470918
 30
0.0
  0
SEQEND
  5
34026
  8
0
  0
ARC
  5
33639
  8
0
 10
11.38709504697929
 20
8.8801516097492481
 30
0.0
 40
2.9527559055118129
 50
180.0
 51
201.95714821292131
  0
LINE
  5
3363A
  8
0
 10
10.46189819658558
 20
8.0336949168358611
 30
0.0
 11
10.46189819658558
 21
6.5279468853397971
 31
0.0
  0
LINE
  5
3363B
  8
0
 10
10.46189819658558
 20
12.327986255418541
 30
0.0
 11
10.46189819658558
 21
8.0336949168358611
 31
0.0
  0
LINE
  5
3363C
  8
0
 10
8.4343391414674755
 20
8.8801516097492481
 30
0.0
 11
8.4343391414674755
 21
12.71168704282011
 31
0.0
  0
LINE
  5
3363D
  8
0
 10
9.1233155194202311
 20
12.72168704282012
 30
0.0
 11
10.068197409184011
 21
12.72168704282012
 31
0.0
  0
LINE
  5
3363E
  8
0
 10
8.4443391414674753
 20
12.72168704282012
 30
0.0
 11
9.1233155194202311
 21
12.72168704282012
 31
0.0
  0
ARC
  5
3363F
  8
0
 10
8.4443391414674753
 20
12.71168704282011
 30
0.0
 40
0.0100000000000016
 50
90.0
 51
180.0
  0
ARC
  5
33640
  8
0
 10
10.068197409184011
 20
12.327986255418541
 30
0.0
 40
0.3937007874015759
 50
0.0000000000000323
 51
90.0
  0
POLYLINE
  5
33641
  8
0
 66
     1
 10
0.0
 20
0.0
 30
0.0
  0
VERTEX
  5
34027
  8
0
 10
10.130402840656499
 20
12.891022894032711
 30
0.0
  0
VERTEX
  5
34028
  8
0
 10
10.130982361100029
 20
12.87598669023161
 30
0.0
  0
VERTEX
  5
34029
  8
0
 10
10.13035110299111
 20
12.86525073883446
 30
0.0
  0
VERTEX
  5
3402A
  8
0
 10
10.12904321246689
 20
12.859288380146021
 30
0.0
  0
VERTEX
  5
3402B
  8
0
 10
10.126846875024039
 20
12.85545435715963
 30
0.0
  0
VERTEX
  5
3402C
  8
0
 10
10.12431801911767
 20
12.85427845274161
 30
0.0
  0
VERTEX
  5
3402D
  8
0
 10
10.123991345675259
 20
12.85426608649802
 30
0.0
  0
SEQEND
  5
3402E
  8
0
  0
POLYLINE
  5
33642
  8
0
 66
     1
 10
0.0
 20
0.0
 30
0.0
  0
VERTEX
  5
3402F
  8
0
 10
10.12319007778679
 20
12.98957730565373
 30
0.0
  0
VERTEX
  5
34030
  8
0
 10
10.12756504538433
 20
12.92983641079261
 30
0.0
  0
VERTEX
  5
34031
  8
0
 10
10.12816600954814
 20
12.92162092970292
 30
0.0
  0
VERTEX
  5
34032
  8
0
 10
10.130402840656499
 20
12.891022894032711
 30
0.0
  0
SEQEND
  5
34033
  8
0
  0
POLYLINE
  5
33643
  8
0
 66
     1
 10
0.0
 20
0.0
 30
0.0
  0
VERTEX
  5
34034
  8
0
 10
10.163392725674219
 20
12.822601787328971
 30
0.0
  0
VERTEX
  5
34035
  8
0
 10
10.163445921593629
 20
12.822361301872849
 30
0.0
  0
VERTEX
  5
34036
  8
0
 10
10.16214091155563
 20
12.8282866912151
 30
0.0
  0
VERTEX
  5
34037
  8
0
 10
10.15899277339507
 20
12.844045372012159
 30
0.0
  0
VERTEX
  5
34038
  8
0
 10
10.155231260704451
 20
12.867203043588781
 30
0.0
  0
VERTEX
  5
34039
  8
0
 10
10.15354304893199
 20
12.88051034824192
 30
0.0
  0
VERTEX
  5
3403A
  8
0
 10
10.1521568496009
 20
12.894369010474749
 30
0.0
  0
VERTEX
  5
3403B
  8
0
 10
10.15115762396649
 20
12.908152559387689
 30
0.0
  0
VERTEX
  5
3403C
  8
0
 10
10.15055396100875
 20
12.92146536508784
 30
0.0
  0
VERTEX
  5
3403D
  8
0
 10
10.150314040613649
 20
12.93363359816683
 30
0.0
  0
VERTEX
  5
3403E
  8
0
 10
10.150349542374011
 20
12.944328548257371
 30
0.0
  0
VERTEX
  5
3403F
  8
0
 10
10.15078908916615
 20
12.95936023160089
 30
0.0
  0
VERTEX
  5
34040
  8
0
 10
10.151018481143961
 20
12.96401281326335
 30
0.0
  0
SEQEND
  5
34041
  8
0
  0
ARC
  5
33644
  8
0
 10
9.6238961001333792
 20
12.887531956059989
 30
0.0
 40
0.0209394383372976
 50
260.39981771433168
 51
353.7536354203358
  0
ARC
  5
33645
  8
0
 10
8.4746194981685719
 20
12.86773800590187
 30
0.0
 40
1.1457848093422931
 50
359.9573830347403
 51
0.2034745443428088
  0
POLYLINE
  5
33646
  8
0
 66
     1
 10
0.0
 20
0.0
 30
0.0
  0
VERTEX
  5
34042
  8
0
 10
9.620397082350145
 20
12.871807023793441
 30
0.0
  0
VERTEX
  5
34043
  8
0
 10
9.6273367517823072
 20
12.872529619439529
 30
0.0
  0
VERTEX
  5
34044
  8
0
 10
9.6321442479528105
 20
12.874338354306991
 30
0.0
  0
VERTEX
  5
34045
  8
0
 10
9.6348272584247532
 20
12.87644355007818
 30
0.0
  0
VERTEX
  5
34046
  8
0
 10
9.6355452069250731
 20
12.877339515584939
 30
0.0
  0
VERTEX
  5
34047
  8
0
 10
9.6368570962524664
 20
12.88045318918625
 30
0.0
  0
VERTEX
  5
34048
  8
0
 10
9.6368980081106166
 20
12.88068936769492
 30
0.0
  0
VERTEX
  5
34049
  8
0
 10
9.6368820656644711
 20
12.883563009778641
 30
0.0
  0
SEQEND
  5
3404A
  8
0
  0
ARC
  5
33647
  8
0
 10
9.6439808802637668
 20
12.86966265020445
 30
0.0
 40
0.0156081121538433
 50
87.317995857787139
 51
117.0530772657835
  0
ARC
  5
33648
  8
0
 10
10.084757971789751
 20
13.040022745486111
 30
0.0
 40
0.0862006510095968
 50
206.2014965366084
 51
226.79339514374561
  0
POLYLINE
  5
33649
  8
0
 66
     1
 10
0.0
 20
0.0
 30
0.0
  0
VERTEX
  5
3404B
  8
0
 10
10.120351077556309
 20
12.866651414215591
 30
0.0
  0
VERTEX
  5
3404C
  8
0
 10
10.08469339567152
 20
12.91142812449699
 30
0.0
  0
VERTEX
  5
3404D
  8
0
 10
10.02574232230962
 20
12.977191977936149
 30
0.0
  0
SEQEND
  5
3404E
  8
0
  0
POLYLINE
  5
3364A
  8
0
 66
     1
 10
0.0
 20
0.0
 30
0.0
  0
VERTEX
  5
3404F
  8
0
 10
9.2401949700187345
 20
12.86688576395092
 30
0.0
  0
VERTEX
  5
34050
  8
0
 10
9.2345792313038153
 20
12.867823527809209
 30
0.0
  0
VERTEX
  5
34051
  8
0
 10
9.2312098671908682
 20
12.870101284468049
 30
0.0
  0
VERTEX
  5
34052
  8
0
 10
9.2292981520139463
 20
12.87383181059665
 30
0.0
  0
VERTEX
  5
34053
  8
0
 10
9.2291775491138637
 20
12.8792074130339
 30
0.0
  0
VERTEX
  5
34054
  8
0
 10
9.2309173696028264
 20
12.885253665563351
 30
0.0
  0
SEQEND
  5
34055
  8
0
  0
LINE
  5
3364B
  8
0
 10
9.2408100508574602
 20
12.86688576395092
 30
0.0
 11
9.2401949700187345
 21
12.86688576395092
 31
0.0
  0
ARC
  5
3364C
  8
0
 10
9.2394443920006069
 20
12.895082811194991
 30
0.0
 40
0.0282300991389889
 50
272.77282200672829
 51
339.62398614861672
  0
POLYLINE
  5
3364D
  8
0
 66
     1
 10
0.0
 20
0.0
 30
0.0
  0
VERTEX
  5
34056
  8
0
 10
9.3039546496519083
 20
12.978279525006339
 30
0.0
  0
VERTEX
  5
34057
  8
0
 10
9.2969839363696174
 20
12.961237655910841
 30
0.0
  0
VERTEX
  5
34058
  8
0
 10
9.2691036693203301
 20
12.89306796198264
 30
0.0
  0
VERTEX
  5
34059
  8
0
 10
9.2659080726506833
 20
12.885253665563351
 30
0.0
  0
SEQEND
  5
3405A
  8
0
  0
POLYLINE
  5
3364E
  8
0
 66
     1
 10
0.0
 20
0.0
 30
0.0
  0
VERTEX
  5
3405B
  8
0
 10
9.3013348858739473
 20
12.999683055692101
 30
0.0
  0
VERTEX
  5
3405C
  8
0
 10
9.3029483673867528
 20
12.999432995723019
 30
0.0
  0
VERTEX
  5
3405D
  8
0
 10
9.3056332444613918
 20
12.997735125264899
 30
0.0
  0
VERTEX
  5
3405E
  8
0
 10
9.3071022511005754
 20
12.99434783998481
 30
0.0
  0
VERTEX
  5
3405F
  8
0
 10
9.3072207404274074
 20
12.9901612614957
 30
0.0
  0
VERTEX
  5
34060
  8
0
 10
9.3039546496519083
 20
12.978279525006339
 30
0.0
  0
SEQEND
  5
34061
  8
0
  0
LINE
  5
3364F
  8
0
 10
9.2882304288330921
 20
12.999683055692101
 30
0.0
 11
9.3013348858739526
 21
12.999683055692101
 31
0.0
  0
POLYLINE
  5
33650
  8
0
 66
     1
 10
0.0
 20
0.0
 30
0.0
  0
VERTEX
  5
34062
  8
0
 10
9.268922032054272
 20
12.978279525006339
 30
0.0
  0
VERTEX
  5
34063
  8
0
 10
9.2752165049649236
 20
12.9901612614957
 30
0.0
  0
VERTEX
  5
34064
  8
0
 10
9.2785956223131052
 20
12.99434783998481
 30
0.0
  0
VERTEX
  5
34065
  8
0
 10
9.2826159361758531
 20
12.997735125264899
 30
0.0
  0
VERTEX
  5
34066
  8
0
 10
9.2864889658129766
 20
12.999432995723019
 30
0.0
  0
VERTEX
  5
34067
  8
0
 10
9.2882304288330957
 20
12.999683055692101
 30
0.0
  0
SEQEND
  5
34068
  8
0
  0
POLYLINE
  5
33651
  8
0
 66
     1
 10
0.0
 20
0.0
 30
0.0
  0
VERTEX
  5
34069
  8
0
 10
9.2309173696028264
 20
12.885253665563351
 30
0.0
  0
VERTEX
  5
3406A
  8
0
 10
9.2378792459872852
 20
12.90229648247921
 30
0.0
  0
VERTEX
  5
3406B
  8
0
 10
9.2657293586452951
 20
12.97046571635881
 30
0.0
  0
VERTEX
  5
3406C
  8
0
 10
9.268922032054272
 20
12.978279525006339
 30
0.0
  0
SEQEND
  5
3406D
  8
0
  0
POLYLINE
  5
33652
  8
0
 66
     1
 10
0.0
 20
0.0
 30
0.0
  0
VERTEX
  5
3406E
  8
0
 10
9.1735548972456868
 20
12.927253405290511
 30
0.0
  0
VERTEX
  5
3406F
  8
0
 10
9.1820840473641692
 20
12.944295723695451
 30
0.0
  0
VERTEX
  5
34070
  8
0
 10
9.1990931423603381
 20
12.978279291968249
 30
0.0
  0
SEQEND
  5
34071
  8
0
  0
POLYLINE
  5
33653
  8
0
 66
     1
 10
0.0
 20
0.0
 30
0.0
  0
VERTEX
  5
34072
  8
0
 10
9.1759947815635616
 20
12.90888576395092
 30
0.0
  0
VERTEX
  5
34073
  8
0
 10
9.1722630303963673
 20
12.90981586943292
 30
0.0
  0
VERTEX
  5
34074
  8
0
 10
9.1704132479112737
 20
12.91208756594833
 30
0.0
  0
VERTEX
  5
34075
  8
0
 10
9.1699131950655861
 20
12.915817886635191
 30
0.0
  0
VERTEX
  5
34076
  8
0
 10
9.1710219234705761
 20
12.921198946739841
 30
0.0
  0
VERTEX
  5
34077
  8
0
 10
9.1735548972456868
 20
12.927253405290511
 30
0.0
  0
SEQEND
  5
34078
  8
0
  0
LINE
  5
33654
  8
0
 10
9.1764439520577934
 20
12.90888576395092
 30
0.0
 11
9.1759947815635616
 21
12.90888576395092
 31
0.0
  0
ARC
  5
33655
  8
0
 10
9.1708832249413934
 20
12.93770387333578
 30
0.0
 40
0.0293497038244098
 50
280.92153499880271
 51
339.14113274599572
  0
POLYLINE
  5
33656
  8
0
 66
     1
 10
0.0
 20
0.0
 30
0.0
  0
VERTEX
  5
34079
  8
0
 10
9.2238646399605368
 20
12.97827929196826
 30
0.0
  0
VERTEX
  5
3407A
  8
0
 10
9.2153291178336438
 20
12.96123742906067
 30
0.0
  0
VERTEX
  5
3407B
  8
0
 10
9.1983093590513114
 20
12.927253405290511
 30
0.0
  0
SEQEND
  5
3407C
  8
0
  0
POLYLINE
  5
33657
  8
0
 66
     1
 10
0.0
 20
0.0
 30
0.0
  0
VERTEX
  5
3407D
  8
0
 10
9.2263317287207531
 20
12.99968306096234
 30
0.0
  0
VERTEX
  5
3407E
  8
0
 10
9.2274396106307801
 20
12.999432960862279
 30
0.0
  0
VERTEX
  5
3407F
  8
0
 10
9.2290305410992435
 20
12.997735014569271
 30
0.0
  0
VERTEX
  5
34080
  8
0
 10
9.2294088890782806
 20
12.99434766570814
 30
0.0
  0
VERTEX
  5
34081
  8
0
 10
9.2286486967752737
 20
12.99016104923421
 30
0.0
  0
VERTEX
  5
34082
  8
0
 10
9.2238646399605368
 20
12.97827929196826
 30
0.0
  0
SEQEND
  5
34083
  8
0
  0
LINE
  5
33658
  8
0
 10
9.2170656321787447
 20
12.99968306096234
 30
0.0
 11
9.2263317287207531
 21
12.99968306096234
 31
0.0
  0
POLYLINE
  5
33659
  8
0
 66
     1
 10
0.0
 20
0.0
 30
0.0
  0
VERTEX
  5
34084
  8
0
 10
9.1990931423603381
 20
12.978279291968249
 30
0.0
  0
VERTEX
  5
34085
  8
0
 10
9.2060183775589142
 20
12.99016104923421
 30
0.0
  0
VERTEX
  5
34086
  8
0
 10
9.2092516678850114
 20
12.99434766570813
 30
0.0
  0
VERTEX
  5
34087
  8
0
 10
9.212754784467263
 20
12.997735014569271
 30
0.0
  0
VERTEX
  5
34088
  8
0
 10
9.2158009743855729
 20
12.999432960862279
 30
0.0
  0
VERTEX
  5
34089
  8
0
 10
9.2170656321787447
 20
12.99968306096234
 30
0.0
  0
SEQEND
  5
3408A
  8
0
  0
POLYLINE
  5
3365A
  8
0
 66
     1
 10
0.0
 20
0.0
 30
0.0
  0
VERTEX
  5
3408B
  8
0
 10
9.1294568402946741
 20
12.927253405290511
 30
0.0
  0
VERTEX
  5
3408C
  8
0
 10
9.1389715770243019
 20
12.944295723695451
 30
0.0
  0
VERTEX
  5
3408D
  8
0
 10
9.1579461427962023
 20
12.978279291968249
 30
0.0
  0
SEQEND
  5
3408E
  8
0
  0
POLYLINE
  5
3365B
  8
0
 66
     1
 10
0.0
 20
0.0
 30
0.0
  0
VERTEX
  5
3408F
  8
0
 10
9.1249143349649575
 20
12.90888576395092
 30
0.0
  0
VERTEX
  5
34090
  8
0
 10
9.1233012743733326
 20
12.90981586943292
 30
0.0
  0
VERTEX
  5
34091
  8
0
 10
9.1230991467023834
 20
12.91208756594833
 30
0.0
  0
VERTEX
  5
34092
  8
0
 10
9.1240465804936548
 20
12.915817886635191
 30
0.0
  0
VERTEX
  5
34093
  8
0
 10
9.1263070905465877
 20
12.921198946739841
 30
0.0
  0
VERTEX
  5
34094
  8
0
 10
9.1294568402946741
 20
12.927253405290511
 30
0.0
  0
SEQEND
  5
34095
  8
0
  0
LINE
  5
3365C
  8
0
 10
9.1251468427217635
 20
12.90888576395092
 30
0.0
 11
9.1249143349649575
 21
12.90888576395092
 31
0.0
  0
ARC
  5
3365D
  8
0
 10
9.1102645366778976
 20
12.93992625556341
 30
0.0
 40
0.0344237585502877
 50
295.61530205644698
 51
338.39889090891302
  0
POLYLINE
  5
3365E
  8
0
 66
     1
 10
0.0
 20
0.0
 30
0.0
  0
VERTEX
  5
34096
  8
0
 10
9.1707688135054948
 20
12.978279291968249
 30
0.0
  0
VERTEX
  5
34097
  8
0
 10
9.1612503705233301
 20
12.96123742906067
 30
0.0
  0
VERTEX
  5
34098
  8
0
 10
9.1422706926277932
 20
12.927253405290511
 30
0.0
  0
SEQEND
  5
34099
  8
0
  0
POLYLINE
  5
3365F
  8
0
 66
     1
 10
0.0
 20
0.0
 30
0.0
  0
VERTEX
  5
3409A
  8
0
 10
9.178154414224716
 20
12.99968306096234
 30
0.0
  0
VERTEX
  5
3409B
  8
0
 10
9.178681042296974
 20
12.999432960862279
 30
0.0
  0
VERTEX
  5
3409C
  8
0
 10
9.1790696518635233
 20
12.997735014569271
 30
0.0
  0
VERTEX
  5
3409D
  8
0
 10
9.1783316355602125
 20
12.99434766570813
 30
0.0
  0
VERTEX
  5
3409E
  8
0
 10
9.1767446448770311
 20
12.99016104923421
 30
0.0
  0
VERTEX
  5
3409F
  8
0
 10
9.170768813505493
 20
12.97827929196826
 30
0.0
  0
SEQEND
  5
340A0
  8
0
  0
LINE
  5
33660
  8
0
 10
9.1733579297070502
 20
12.99968306096234
 30
0.0
 11
9.178154414224716
 21
12.99968306096234
 31
0.0
  0
ARC
  5
33661
  8
0
 10
9.1993425667371511
 20
12.96472230519363
 30
0.0
 40
0.0435597957468326
 50
126.6216352531527
 51
161.8668061543913
  0
LINE
  5
33662
  8
0
 10
9.0833223180129359
 20
12.86688576395092
 30
0.0
 11
9.0833221417683312
 21
12.86688576395092
 31
0.0
  0
ARC
  5
33663
  8
0
 10
8.7762817513335616
 20
13.066475269899501
 30
0.0
 40
0.3662101588863793
 50
326.97440905895007
 51
330.33968893080299
  0
POLYLINE
  5
33664
  8
0
 66
     1
 10
0.0
 20
0.0
 30
0.0
  0
VERTEX
  5
340A1
  8
0
 10
9.1482853923846932
 20
12.978279525006339
 30
0.0
  0
VERTEX
  5
340A2
  8
0
 10
9.1384327052517396
 20
12.961237655910841
 30
0.0
  0
VERTEX
  5
340A3
  8
0
 10
9.0990257925428146
 20
12.89306796198264
 30
0.0
  0
VERTEX
  5
340A4
  8
0
 10
9.0945090452500637
 20
12.885253665563351
 30
0.0
  0
SEQEND
  5
340A5
  8
0
  0
LINE
  5
33665
  8
0
 10
9.150544026629527
 20
12.98224922168542
 30
0.0
 11
9.1482853923846932
 21
12.978279525006339
 31
0.0
  0
POLYLINE
  5
33666
  8
0
 66
     1
 10
0.0
 20
0.0
 30
0.0
  0
VERTEX
  5
340A6
  8
0
 10
9.3479397289293225
 20
12.927253405290511
 30
0.0
  0
VERTEX
  5
340A7
  8
0
 10
9.3528607405234272
 20
12.944295723695451
 30
0.0
  0
VERTEX
  5
340A8
  8
0
 10
9.3626744060003109
 20
12.978279291968249
 30
0.0
  0
SEQEND
  5
340A9
  8
0
  0
ARC
  5
33667
  8
0
 10
9.3609583244325076
 20
12.92252345440005
 30
0.0
 40
0.013851218874225
 50
160.03276927562251
 51
280.07351377754168
  0
LINE
  5
33668
  8
0
 10
9.3641590493956706
 20
12.90888576395092
 30
0.0
 11
9.3633810632784016
 21
12.90888576395092
 31
0.0
  0
ARC
  5
33669
  8
0
 10
9.3653701785373862
 20
12.9356550887747
 30
0.0
 40
0.0267967084791965
 50
267.40952380401342
 51
341.72765496592569
  0
POLYLINE
  5
3366A
  8
0
 66
     1
 10
0.0
 20
0.0
 30
0.0
  0
VERTEX
  5
340AA
  8
0
 10
9.4055798984234276
 20
12.978279291968249
 30
0.0
  0
VERTEX
  5
340AB
  8
0
 10
9.4006486381086756
 20
12.96123742906067
 30
0.0
  0
VERTEX
  5
340AC
  8
0
 10
9.3908157144906834
 20
12.927253405290511
 30
0.0
  0
SEQEND
  5
340AD
  8
0
  0
POLYLINE
  5
3366B
  8
0
 66
     1
 10
0.0
 20
0.0
 30
0.0
  0
VERTEX
  5
340AE
  8
0
 10
9.3980522253084153
 20
12.99968306096234
 30
0.0
  0
VERTEX
  5
340AF
  8
0
 10
9.4000616476637031
 20
12.999432960862279
 30
0.0
  0
VERTEX
  5
340B0
  8
0
 10
9.4036574145014971
 20
12.997735014569271
 30
0.0
  0
VERTEX
  5
340B1
  8
0
 10
9.406116818418349
 20
12.99434766570814
 30
0.0
  0
VERTEX
  5
340B2
  8
0
 10
9.4071057649969347
 20
12.99016104923421
 30
0.0
  0
VERTEX
  5
340B3
  8
0
 10
9.4055798984234276
 20
12.978279291968249
 30
0.0
  0
SEQEND
  5
340B4
  8
0
  0
LINE
  5
3366C
  8
0
 10
9.3820028753098121
 20
12.99968306096234
 30
0.0
 11
9.3980522253084153
 21
12.99968306096234
 31
0.0
  0
POLYLINE
  5
3366D
  8
0
 66
     1
 10
0.0
 20
0.0
 30
0.0
  0
VERTEX
  5
340B5
  8
0
 10
9.3626744060003109
 20
12.978279291968249
 30
0.0
  0
VERTEX
  5
340B6
  8
0
 10
9.3679089023227071
 20
12.99016104923421
 30
0.0
  0
VERTEX
  5
340B7
  8
0
 10
9.3712034871722132
 20
12.99434766570814
 30
0.0
  0
VERTEX
  5
340B8
  8
0
 10
9.375466977083283
 20
12.997735014569271
 30
0.0
  0
VERTEX
  5
340B9
  8
0
 10
9.3799029383561852
 20
12.999432960862279
 30
0.0
  0
VERTEX
  5
340BA
  8
0
 10
9.3820028753098121
 20
12.99968306096234
 30
0.0
  0
SEQEND
  5
340BB
  8
0
  0
POLYLINE
  5
3366E
  8
0
 66
     1
 10
0.0
 20
0.0
 30
0.0
  0
VERTEX
  5
340BC
  8
0
 10
9.4663424655672568
 20
12.927253405290511
 30
0.0
  0
VERTEX
  5
340BD
  8
0
 10
9.4688868139258329
 20
12.944295723695451
 30
0.0
  0
VERTEX
  5
340BE
  8
0
 10
9.4739608772899011
 20
12.978279291968249
 30
0.0
  0
SEQEND
  5
340BF
  8
0
  0
POLYLINE
  5
3366F
  8
0
 66
     1
 10
0.0
 20
0.0
 30
0.0
  0
VERTEX
  5
340C0
  8
0
 10
9.4869168329662354
 20
12.90888576395092
 30
0.0
  0
VERTEX
  5
340C1
  8
0
 10
9.478837113686847
 20
12.90981586943292
 30
0.0
  0
VERTEX
  5
340C2
  8
0
 10
9.4731998439248937
 20
12.91208756594833
 30
0.0
  0
VERTEX
  5
340C3
  8
0
 10
9.4689381972377404
 20
12.915817886635191
 30
0.0
  0
VERTEX
  5
340C4
  8
0
 10
9.466472246470877
 20
12.921198946739841
 30
0.0
  0
VERTEX
  5
340C5
  8
0
 10
9.4663424655672568
 20
12.927253405290511
 30
0.0
  0
SEQEND
  5
340C6
  8
0
  0
LINE
  5
33670
  8
0
 10
9.4877845637278071
 20
12.90888576395092
 30
0.0
 11
9.4869168329662354
 21
12.90888576395092
 31
0.0
  0
ARC
  5
33671
  8
0
 10
9.4905611964040375
 20
12.93302529283652
 30
0.0
 40
0.0242986942825568
 50
263.43842887040267
 51
346.25866444843479
  0
POLYLINE
  5
33672
  8
0
 66
     1
 10
0.0
 20
0.0
 30
0.0
  0
VERTEX
  5
340C7
  8
0
 10
9.5218157358656832
 20
12.97827929196826
 30
0.0
  0
VERTEX
  5
340C8
  8
0
 10
9.5192601920216369
 20
12.96123742906067
 30
0.0
  0
VERTEX
  5
340C9
  8
0
 10
9.5141644135151306
 20
12.927253405290511
 30
0.0
  0
SEQEND
  5
340CA
  8
0
  0
POLYLINE
  5
33673
  8
0
 66
     1
 10
0.0
 20
0.0
 30
0.0
  0
VERTEX
  5
340CB
  8
0
 10
9.5098929393391174
 20
12.99968306096234
 30
0.0
  0
VERTEX
  5
340CC
  8
0
 10
9.5121612098104222
 20
12.999432960862279
 30
0.0
  0
VERTEX
  5
340CD
  8
0
 10
9.5164228658302168
 20
12.997735014569271
 30
0.0
  0
VERTEX
  5
340CE
  8
0
 10
9.5197051408794842
 20
12.99434766570813
 30
0.0
  0
VERTEX
  5
340CF
  8
0
 10
9.5214972270352973
 20
12.99016104923421
 30
0.0
  0
VERTEX
  5
340D0
  8
0
 10
9.5218157358656832
 20
12.97827929196826
 30
0.0
  0
SEQEND
  5
340D1
  8
0
  0
LINE
  5
33674
  8
0
 10
9.4919922154214795
 20
12.99968306096234
 30
0.0
 11
9.5098929393391174
 21
12.99968306096234
 31
0.0
  0
POLYLINE
  5
33675
  8
0
 66
     1
 10
0.0
 20
0.0
 30
0.0
  0
VERTEX
  5
340D2
  8
0
 10
9.4739608772899011
 20
12.978279291968249
 30
0.0
  0
VERTEX
  5
340D3
  8
0
 10
9.4777788074588152
 20
12.99016104923421
 30
0.0
  0
VERTEX
  5
340D4
  8
0
 10
9.4807643798058852
 20
12.99434766570813
 30
0.0
  0
VERTEX
  5
340D5
  8
0
 10
9.4849805184837681
 20
12.997735014569271
 30
0.0
  0
VERTEX
  5
340D6
  8
0
 10
9.4896770911463566
 20
12.999432960862279
 30
0.0
  0
VERTEX
  5
340D7
  8
0
 10
9.4919922154214795
 20
12.99968306096234
 30
0.0
  0
SEQEND
  5
340D8
  8
0
  0
POLYLINE
  5
33676
  8
0
 66
     1
 10
0.0
 20
0.0
 30
0.0
  0
VERTEX
  5
340D9
  8
0
 10
9.6195341348952752
 20
12.86688576395092
 30
0.0
  0
VERTEX
  5
340DA
  8
0
 10
9.6109755986136953
 20
12.867823527809209
 30
0.0
  0
VERTEX
  5
340DB
  8
0
 10
9.6047545076836194
 20
12.870101284468049
 30
0.0
  0
VERTEX
  5
340DC
  8
0
 10
9.5997288791661486
 20
12.87383181059665
 30
0.0
  0
VERTEX
  5
340DD
  8
0
 10
9.5963106497781485
 20
12.8792074130339
 30
0.0
  0
VERTEX
  5
340DE
  8
0
 10
9.5952268993236931
 20
12.885253665563351
 30
0.0
  0
SEQEND
  5
340DF
  8
0
  0
LINE
  5
33677
  8
0
 10
9.6204039905593604
 20
12.86688576395092
 30
0.0
 11
9.6195341348952752
 21
12.86688576395092
 31
0.0
  0
POLYLINE
  5
33678
  8
0
 66
     1
 10
0.0
 20
0.0
 30
0.0
  0
VERTEX
  5
340E0
  8
0
 10
9.6447408641933201
 20
12.978279525006339
 30
0.0
  0
VERTEX
  5
340E1
  8
0
 10
9.6447354740630384
 20
12.961237655910841
 30
0.0
  0
VERTEX
  5
340E2
  8
0
 10
9.6447137349882812
 20
12.89306796198264
 30
0.0
  0
VERTEX
  5
340E3
  8
0
 10
9.6447112261309424
 20
12.885253665563351
 30
0.0
  0
SEQEND
  5
340E4
  8
0
  0
POLYLINE
  5
33679
  8
0
 66
     1
 10
0.0
 20
0.0
 30
0.0
  0
VERTEX
  5
340E5
  8
0
 10
9.6292353131646742
 20
12.999683055692101
 30
0.0
  0
VERTEX
  5
340E6
  8
0
 10
9.6316076171944083
 20
12.999432995723019
 30
0.0
  0
VERTEX
  5
340E7
  8
0
 10
9.6362447575006822
 20
12.997735125264899
 30
0.0
  0
VERTEX
  5
340E8
  8
0
 10
9.6401262932517024
 20
12.99434783998481
 30
0.0
  0
VERTEX
  5
340E9
  8
0
 10
9.6425994746495327
 20
12.9901612614957
 30
0.0
  0
VERTEX
  5
340EA
  8
0
 10
9.6447408641933237
 20
12.978279525006339
 30
0.0
  0
SEQEND
  5
340EB
  8
0
  0
LINE
  5
3367A
  8
0
 10
9.6107028122899596
 20
12.999683055692101
 30
0.0
 11
9.6292353131646742
 21
12.999683055692101
 31
0.0
  0
POLYLINE
  5
3367B
  8
0
 66
     1
 10
0.0
 20
0.0
 30
0.0
  0
VERTEX
  5
340EC
  8
0
 10
9.5951972612613172
 20
12.978279525006339
 30
0.0
  0
VERTEX
  5
340ED
  8
0
 10
9.5973386508051011
 20
12.9901612614957
 30
0.0
  0
VERTEX
  5
340EE
  8
0
 10
9.5998118322029313
 20
12.99434783998481
 30
0.0
  0
VERTEX
  5
340EF
  8
0
 10
9.6036933679539533
 20
12.997735125264899
 30
0.0
  0
VERTEX
  5
340F0
  8
0
 10
9.6083305082602308
 20
12.999432995723019
 30
0.0
  0
VERTEX
  5
340F1
  8
0
 10
9.6107028122899596
 20
12.999683055692101
 30
0.0
  0
SEQEND
  5
340F2
  8
0
  0
POLYLINE
  5
3367C
  8
0
 66
     1
 10
0.0
 20
0.0
 30
0.0
  0
VERTEX
  5
340F3
  8
0
 10
9.5952268993236931
 20
12.885253665563351
 30
0.0
  0
VERTEX
  5
340F4
  8
0
 10
9.5952214318329005
 20
12.90229648247921
 30
0.0
  0
VERTEX
  5
340F5
  8
0
 10
9.5951997303279768
 20
12.97046571635881
 30
0.0
  0
VERTEX
  5
340F6
  8
0
 10
9.5951972612613172
 20
12.978279525006339
 30
0.0
  0
SEQEND
  5
340F7
  8
0
  0
POLYLINE
  5
3367D
  8
0
 66
     1
 10
0.0
 20
0.0
 30
0.0
  0
VERTEX
  5
340F8
  8
0
 10
9.725773711939512
 20
12.927253405290511
 30
0.0
  0
VERTEX
  5
340F9
  8
0
 10
9.7232183365468625
 20
12.944295723695451
 30
0.0
  0
VERTEX
  5
340FA
  8
0
 10
9.7181223895889612
 20
12.978279291968249
 30
0.0
  0
SEQEND
  5
340FB
  8
0
  0
ARC
  5
3367E
  8
0
 10
9.7492359156692032
 20
12.932822767550309
 30
0.0
 40
0.0241141618107378
 50
193.35348874041921
 51
276.94941794075811
  0
LINE
  5
3367F
  8
0
 10
9.7530212924884037
 20
12.90888576395092
 30
0.0
 11
9.7521535617268356
 21
12.90888576395092
 31
0.0
  0
POLYLINE
  5
33680
  8
0
 66
     1
 10
0.0
 20
0.0
 30
0.0
  0
VERTEX
  5
340FC
  8
0
 10
9.7735956598873823
 20
12.927253405290511
 30
0.0
  0
VERTEX
  5
340FD
  8
0
 10
9.7737132828419622
 20
12.922742393920631
 30
0.0
  0
VERTEX
  5
340FE
  8
0
 10
9.7721027402696166
 20
12.91751102730754
 30
0.0
  0
VERTEX
  5
340FF
  8
0
 10
9.7678790155842261
 20
12.91283041263077
 30
0.0
  0
VERTEX
  5
34100
  8
0
 10
9.7618226382840074
 20
12.91001016808983
 30
0.0
  0
VERTEX
  5
34101
  8
0
 10
9.7530212924884037
 20
12.90888576395092
 30
0.0
  0
SEQEND
  5
34102
  8
0
  0
POLYLINE
  5
33681
  8
0
 66
     1
 10
0.0
 20
0.0
 30
0.0
  0
VERTEX
  5
34103
  8
0
 10
9.7659772481647416
 20
12.97827929196826
 30
0.0
  0
VERTEX
  5
34104
  8
0
 10
9.7685218359301871
 20
12.96123742906067
 30
0.0
  0
VERTEX
  5
34105
  8
0
 10
9.7735956598873823
 20
12.927253405290511
 30
0.0
  0
SEQEND
  5
34106
  8
0
  0
ARC
  5
33682
  8
0
 10
9.7451418219132862
 20
12.97902376950082
 30
0.0
 40
0.0208487225957913
 50
357.95361607617019
 51
82.270472146726419
  0
LINE
  5
33683
  8
0
 10
9.7300451861155235
 20
12.99968306096234
 30
0.0
 11
9.7479459100331596
 21
12.99968306096234
 31
0.0
  0
POLYLINE
  5
33684
  8
0
 66
     1
 10
0.0
 20
0.0
 30
0.0
  0
VERTEX
  5
34107
  8
0
 10
9.7181223895889612
 20
12.978279291968249
 30
0.0
  0
VERTEX
  5
34108
  8
0
 10
9.7184408984193436
 20
12.99016104923421
 30
0.0
  0
VERTEX
  5
34109
  8
0
 10
9.7202329845751567
 20
12.99434766570813
 30
0.0
  0
VERTEX
  5
3410A
  8
0
 10
9.7235152596244223
 20
12.997735014569271
 30
0.0
  0
VERTEX
  5
3410B
  8
0
 10
9.7277769156442204
 20
12.999432960862279
 30
0.0
  0
VERTEX
  5
3410C
  8
0
 10
9.7300451861155235
 20
12.99968306096234
 30
0.0
  0
SEQEND
  5
3410D
  8
0
  0
POLYLINE
  5
33685
  8
0
 66
     1
 10
0.0
 20
0.0
 30
0.0
  0
VERTEX
  5
3410E
  8
0
 10
9.8491224109639628
 20
12.927253405290511
 30
0.0
  0
VERTEX
  5
3410F
  8
0
 10
9.8441915128015758
 20
12.944295723695451
 30
0.0
  0
VERTEX
  5
34110
  8
0
 10
9.8343582270312204
 20
12.978279291968249
 30
0.0
  0
SEQEND
  5
34111
  8
0
  0
ARC
  5
33686
  8
0
 10
9.874504617544499
 20
12.93556317986549
 30
0.0
 40
0.0267078408783663
 50
198.12771302695961
 51
272.73510820311498
  0
LINE
  5
33687
  8
0
 10
9.8765570621762464
 20
12.90888576395092
 30
0.0
 11
9.8757790760589774
 21
12.90888576395092
 31
0.0
  0
ARC
  5
33688
  8
0
 10
9.8788909797004312
 20
12.92259812483271
 30
0.0
 40
0.0139095654843032
 50
260.34051847665552
 51
19.55319847020732
  0
POLYLINE
  5
33689
  8
0
 66
     1
 10
0.0
 20
0.0
 30
0.0
  0
VERTEX
  5
34112
  8
0
 10
9.8772637194543353
 20
12.978279291968249
 30
0.0
  0
VERTEX
  5
34113
  8
0
 10
9.8821851568177443
 20
12.96123742906067
 30
0.0
  0
VERTEX
  5
34114
  8
0
 10
9.8919983965253238
 20
12.927253405290511
 30
0.0
  0
SEQEND
  5
34115
  8
0
  0
ARC
  5
3368A
  8
0
 10
9.8532871178821608
 20
12.976056530119781
 30
0.0
 40
0.0240794122267533
 50
5.2964929237541201
 51
78.870133343379834
  0
LINE
  5
3368B
  8
0
 10
9.8418859001462309
 20
12.99968306096234
 30
0.0
 11
9.8579352501448323
 21
12.99968306096234
 31
0.0
  0
POLYLINE
  5
3368C
  8
0
 66
     1
 10
0.0
 20
0.0
 30
0.0
  0
VERTEX
  5
34116
  8
0
 10
9.8343582270312204
 20
12.978279291968249
 30
0.0
  0
VERTEX
  5
34117
  8
0
 10
9.8328323604577132
 20
12.99016104923421
 30
0.0
  0
VERTEX
  5
34118
  8
0
 10
9.8338213070362972
 20
12.99434766570813
 30
0.0
  0
VERTEX
  5
34119
  8
0
 10
9.8362807109531492
 20
12.997735014569271
 30
0.0
  0
VERTEX
  5
3411A
  8
0
 10
9.8398764777909431
 20
12.999432960862279
 30
0.0
  0
VERTEX
  5
3411B
  8
0
 10
9.8418859001462273
 20
12.99968306096234
 30
0.0
  0
SEQEND
  5
3411C
  8
0
  0
ARC
  5
3368D
  8
0
 10
10.00056571543934
 20
12.895181167854011
 30
0.0
 40
0.0283319023934148
 50
200.5117908189734
 51
267.09140102567841
  0
LINE
  5
3368E
  8
0
 10
9.9997431554359064
 20
12.86688576395092
 30
0.0
 11
9.9991280745971771
 21
12.86688576395092
 31
0.0
  0
POLYLINE
  5
3368F
  8
0
 66
     1
 10
0.0
 20
0.0
 30
0.0
  0
VERTEX
  5
3411D
  8
0
 10
10.009020755851809
 20
12.885253665563351
 30
0.0
  0
VERTEX
  5
3411E
  8
0
 10
10.010465122863771
 20
12.880763801835229
 30
0.0
  0
VERTEX
  5
3411F
  8
0
 10
10.01091132551511
 20
12.875529893420429
 30
0.0
  0
VERTEX
  5
34120
  8
0
 10
10.00931673298347
 20
12.87084078991642
 30
0.0
  0
VERTEX
  5
34121
  8
0
 10
10.005812867180159
 20
12.86801476884677
 30
0.0
  0
VERTEX
  5
34122
  8
0
 10
9.9997431554359064
 20
12.86688576395092
 30
0.0
  0
SEQEND
  5
34123
  8
0
  0
POLYLINE
  5
33690
  8
0
 66
     1
 10
0.0
 20
0.0
 30
0.0
  0
VERTEX
  5
34124
  8
0
 10
9.9710160934003671
 20
12.978279525006339
 30
0.0
  0
VERTEX
  5
34125
  8
0
 10
9.9779791838873102
 20
12.961237655910841
 30
0.0
  0
VERTEX
  5
34126
  8
0
 10
10.005828707242239
 20
12.89306796198264
 30
0.0
  0
VERTEX
  5
34127
  8
0
 10
10.009020755851809
 20
12.885253665563351
 30
0.0
  0
SEQEND
  5
34128
  8
0
  0
ARC
  5
33691
  8
0
 10
9.9438841479887472
 20
12.9732143928565
 30
0.0
 40
0.0276006888594212
 50
10.57454851012001
 51
73.533491399965939
  0
LINE
  5
33692
  8
0
 10
9.93860323958069
 20
12.999683055692101
 30
0.0
 11
9.9517076966215452
 21
12.999683055692101
 31
0.0
  0
POLYLINE
  5
33693
  8
0
 66
     1
 10
0.0
 20
0.0
 30
0.0
  0
VERTEX
  5
34129
  8
0
 10
9.9359834758027308
 20
12.978279525006339
 30
0.0
  0
VERTEX
  5
3412A
  8
0
 10
9.9327173850272317
 20
12.9901612614957
 30
0.0
  0
VERTEX
  5
3412B
  8
0
 10
9.9328358743540637
 20
12.994347839984821
 30
0.0
  0
VERTEX
  5
3412C
  8
0
 10
9.934304880993249
 20
12.997735125264899
 30
0.0
  0
VERTEX
  5
3412D
  8
0
 10
9.9369897580678863
 20
12.999432995723019
 30
0.0
  0
VERTEX
  5
3412E
  8
0
 10
9.93860323958069
 20
12.999683055692101
 30
0.0
  0
SEQEND
  5
3412F
  8
0
  0
POLYLINE
  5
33694
  8
0
 66
     1
 10
0.0
 20
0.0
 30
0.0
  0
VERTEX
  5
34130
  8
0
 10
9.9740300528039612
 20
12.885253665563351
 30
0.0
  0
VERTEX
  5
34131
  8
0
 10
9.9670604442198663
 20
12.90229648247921
 30
0.0
  0
VERTEX
  5
34132
  8
0
 10
9.9391796409992672
 20
12.97046571635881
 30
0.0
  0
VERTEX
  5
34133
  8
0
 10
9.9359834758027308
 20
12.978279525006339
 30
0.0
  0
SEQEND
  5
34134
  8
0
  0
ARC
  5
33695
  8
0
 10
9.5959572451908741
 20
12.86966265020447
 30
0.0
 40
0.0156081121538246
 50
62.946922734204279
 51
92.682004142235741
  0
POLYLINE
  5
33696
  8
0
 66
     1
 10
0.0
 20
0.0
 30
0.0
  0
VERTEX
  5
34135
  8
0
 10
9.6030560597901644
 20
12.88356300977865
 30
0.0
  0
VERTEX
  5
34136
  8
0
 10
9.603262461394765
 20
12.87969323404166
 30
0.0
  0
VERTEX
  5
34137
  8
0
 10
9.6045813491488818
 20
12.87708006994807
 30
0.0
  0
VERTEX
  5
34138
  8
0
 10
9.6052900692687757
 20
12.87625269367685
 30
0.0
  0
VERTEX
  5
34139
  8
0
 10
9.607942133210404
 20
12.8742548515169
 30
0.0
  0
VERTEX
  5
3413A
  8
0
 10
9.6086970042866131
 20
12.873865049523991
 30
0.0
  0
VERTEX
  5
3413B
  8
0
 10
9.6131604493070721
 20
12.87240721966818
 30
0.0
  0
VERTEX
  5
3413C
  8
0
 10
9.6195410431044941
 20
12.871807023793441
 30
0.0
  0
SEQEND
  5
3413D
  8
0
  0
ARC
  5
33697
  8
0
 10
10.765318625793411
 20
12.867738005903551
 30
0.0
 40
1.1457848078496431
 50
179.79652545547609
 51
180.04261696540101
  0
LINE
  5
33698
  8
0
 10
9.6195410431044959
 20
12.871807023793441
 30
0.0
 11
9.620397082350145
 21
12.871807023793441
 31
0.0
  0
ARC
  5
33699
  8
0
 10
9.6188281111068008
 20
12.886385857808319
 30
0.0
 40
0.0146234117713259
 50
274.47489413626317
 51
348.86997259773358
  0
LINE
  5
3369A
  8
0
 10
9.6331764803812163
 20
12.883563009778641
 30
0.0
 11
9.6368820656644711
 21
12.883563009778641
 31
0.0
  0
ARC
  5
3369B
  8
0
 10
9.6211100143478365
 20
12.886385857808319
 30
0.0
 40
0.0146234117713222
 50
191.13002740225011
 51
265.52510586373728
  0
LINE
  5
3369C
  8
0
 10
9.6030560597901644
 20
12.88356300977865
 30
0.0
 11
9.6067616450734192
 21
12.88356300977865
 31
0.0
  0
ARC
  5
3369D
  8
0
 10
9.6199690627273196
 20
12.910233698530609
 30
0.0
 40
0.0297617459096179
 50
243.65522704530201
 51
296.34477295469202
  0
LINE
  5
3369E
  8
0
 10
9.6368820656644711
 20
12.883563009778641
 30
0.0
 11
9.6368655811225725
 21
12.97658886922164
 31
0.0
  0
ARC
  5
3369F
  8
0
 10
9.6439737688672604
 20
12.962665402003161
 30
0.0
 40
0.0156329546918553
 50
87.187417082624492
 51
117.0451529153512
  0
ARC
  5
336A0
  8
0
 10
9.5959643565873822
 20
12.962665402003161
 30
0.0
 40
0.0156329546918555
 50
62.954847084663307
 51
92.812582917388497
  0
LINE
  5
336A1
  8
0
 10
9.6030725443320648
 20
12.97658886922164
 30
0.0
 11
9.6030560597901644
 21
12.88356300977865
 31
0.0
  0
LINE
  5
336A2
  8
0
 10
9.6331764803812163
 20
12.96810638743575
 30
0.0
 11
9.6331764803812163
 21
12.883563009778641
 31
0.0
  0
LINE
  5
336A3
  8
0
 10
9.6368655811225725
 20
12.97658886922164
 30
0.0
 11
9.6331764803812163
 21
12.96810638743575
 31
0.0
  0
LINE
  5
336A4
  8
0
 10
9.6067616450734192
 20
12.88356300977865
 30
0.0
 11
9.6067616450734192
 21
12.96810638743575
 31
0.0
  0
LINE
  5
336A5
  8
0
 10
9.6067616450734192
 20
12.96810638743575
 30
0.0
 11
9.6030725443320648
 21
12.97658886922164
 31
0.0
  0
ARC
  5
336A6
  8
0
 10
9.6199690627273196
 20
12.994777076187701
 30
0.0
 40
0.0297617459096035
 50
243.65522704528831
 51
296.3447729547072
  0
POLYLINE
  5
336A7
  8
0
 66
     1
 10
0.0
 20
0.0
 30
0.0
  0
VERTEX
  5
3413E
  8
0
 10
9.4899834858547738
 20
12.91380702379344
 30
0.0
  0
VERTEX
  5
3413F
  8
0
 10
9.496428039437232
 20
12.914526674822589
 30
0.0
  0
VERTEX
  5
34140
  8
0
 10
9.5011749637447132
 20
12.91633171254534
 30
0.0
  0
VERTEX
  5
34141
  8
0
 10
9.5040526020890912
 20
12.918438721925471
 30
0.0
  0
VERTEX
  5
34142
  8
0
 10
9.5048817761914126
 20
12.91932744072939
 30
0.0
  0
VERTEX
  5
34143
  8
0
 10
9.5067043223441328
 20
12.922445926611561
 30
0.0
  0
VERTEX
  5
34144
  8
0
 10
9.5067862143967279
 20
12.92267566601307
 30
0.0
  0
VERTEX
  5
34145
  8
0
 10
9.5073395138202397
 20
12.925562843196531
 30
0.0
  0
SEQEND
  5
34146
  8
0
  0
ARC
  5
336A8
  8
0
 10
9.5132296786780604
 20
12.916405441420711
 30
0.0
 40
0.0108881609712661
 50
85.075167834350566
 51
122.7496729717828
  0
POLYLINE
  5
336A9
  8
0
 66
     1
 10
0.0
 20
0.0
 30
0.0
  0
VERTEX
  5
34147
  8
0
 10
9.4899834858547738
 20
12.91380702379344
 30
0.0
  0
VERTEX
  5
34148
  8
0
 10
9.4896520672486169
 20
12.91372281967311
 30
0.0
  0
VERTEX
  5
34149
  8
0
 10
9.4893263193066932
 20
12.91347164806794
 30
0.0
  0
VERTEX
  5
3414A
  8
0
 10
9.4890118156666077
 20
12.91305780659375
 30
0.0
  0
VERTEX
  5
3414B
  8
0
 10
9.4887139375728395
 20
12.912488376192901
 30
0.0
  0
VERTEX
  5
3414C
  8
0
 10
9.4884377818021637
 20
12.91177309997741
 30
0.0
  0
VERTEX
  5
3414D
  8
0
 10
9.4881880734563762
 20
12.910924216521661
 30
0.0
  0
VERTEX
  5
3414E
  8
0
 10
9.4879690851145106
 20
12.90995625045691
 30
0.0
  0
VERTEX
  5
3414F
  8
0
 10
9.4877845637278071
 20
12.90888576395092
 30
0.0
  0
SEQEND
  5
34150
  8
0
  0
ARC
  5
336AA
  8
0
 10
9.7267084467765983
 20
12.91640544142075
 30
0.0
 40
0.0108881609712231
 50
57.25032702817159
 51
94.924832165743993
  0
ARC
  5
336AB
  8
0
 10
9.7475872010298552
 20
12.92900172542466
 30
0.0
 40
0.0153780272806546
 50
192.9219250646199
 51
278.85587186445417
  0
POLYLINE
  5
336AC
  8
0
 66
     1
 10
0.0
 20
0.0
 30
0.0
  0
VERTEX
  5
34151
  8
0
 10
9.7521535617268356
 20
12.90888576395092
 30
0.0
  0
VERTEX
  5
34152
  8
0
 10
9.751969040340132
 20
12.90995625045691
 30
0.0
  0
VERTEX
  5
34153
  8
0
 10
9.7517500519982612
 20
12.910924216521661
 30
0.0
  0
VERTEX
  5
34154
  8
0
 10
9.7515003436524754
 20
12.91177309997741
 30
0.0
  0
VERTEX
  5
34155
  8
0
 10
9.7512241878818013
 20
12.912488376192901
 30
0.0
  0
VERTEX
  5
34156
  8
0
 10
9.7509263097880332
 20
12.91305780659375
 30
0.0
  0
VERTEX
  5
34157
  8
0
 10
9.7506118061479512
 20
12.91347164806794
 30
0.0
  0
VERTEX
  5
34158
  8
0
 10
9.7502860582060276
 20
12.91372281967311
 30
0.0
  0
VERTEX
  5
34159
  8
0
 10
9.7499546395998671
 20
12.91380702379344
 30
0.0
  0
SEQEND
  5
3415A
  8
0
  0
POLYLINE
  5
336AD
  8
0
 66
     1
 10
0.0
 20
0.0
 30
0.0
  0
VERTEX
  5
3415B
  8
0
 10
9.7508079354436799
 20
12.91380702379344
 30
0.0
  0
VERTEX
  5
3415C
  8
0
 10
9.7577387626359702
 20
12.914526674822589
 30
0.0
  0
VERTEX
  5
3415D
  8
0
 10
9.7622698488133874
 20
12.91633171254534
 30
0.0
  0
VERTEX
  5
3415E
  8
0
 10
9.7645797298627421
 20
12.918438721925471
 30
0.0
  0
VERTEX
  5
3415F
  8
0
 10
9.7651266124292437
 20
12.91932744072939
 30
0.0
  0
VERTEX
  5
34160
  8
0
 10
9.7658447510324304
 20
12.922445926611561
 30
0.0
  0
VERTEX
  5
34161
  8
0
 10
9.7658399892319192
 20
12.922675666013079
 30
0.0
  0
VERTEX
  5
34162
  8
0
 10
9.7652579521047063
 20
12.925562843196531
 30
0.0
  0
SEQEND
  5
34163
  8
0
  0
ARC
  5
336AE
  8
0
 10
9.7731496658878321
 20
12.90804729738945
 30
0.0
 40
0.0192112855206196
 50
88.669747023214114
 51
114.2541759876764
  0
POLYLINE
  5
336AF
  8
0
 66
     1
 10
0.0
 20
0.0
 30
0.0
  0
VERTEX
  5
34164
  8
0
 10
9.7508079354436799
 20
12.91380702379344
 30
0.0
  0
VERTEX
  5
34165
  8
0
 10
9.7511415296613642
 20
12.91372281967311
 30
0.0
  0
VERTEX
  5
34166
  8
0
 10
9.7514694159894955
 20
12.91347164806794
 30
0.0
  0
VERTEX
  5
34167
  8
0
 10
9.7517859842020922
 20
12.91305780659375
 30
0.0
  0
VERTEX
  5
34168
  8
0
 10
9.7520858177292631
 20
12.912488376192901
 30
0.0
  0
VERTEX
  5
34169
  8
0
 10
9.752363786336236
 20
12.91177309997741
 30
0.0
  0
VERTEX
  5
3416A
  8
0
 10
9.7526151339030704
 20
12.910924216521661
 30
0.0
  0
VERTEX
  5
3416B
  8
0
 10
9.7528355598032164
 20
12.90995625045691
 30
0.0
  0
VERTEX
  5
3416C
  8
0
 10
9.7530212924884037
 20
12.90888576395092
 30
0.0
  0
SEQEND
  5
3416D
  8
0
  0
ARC
  5
336B0
  8
0
 10
9.4667884595668301
 20
12.90804729738954
 30
0.0
 40
0.019211285520526
 50
65.745824012285041
 51
91.330252976866575
  0
POLYLINE
  5
336B1
  8
0
 66
     1
 10
0.0
 20
0.0
 30
0.0
  0
VERTEX
  5
3416E
  8
0
 10
9.4746801733499311
 20
12.925562843196531
 30
0.0
  0
VERTEX
  5
3416F
  8
0
 10
9.4741274418734953
 20
12.921687815369641
 30
0.0
  0
VERTEX
  5
34170
  8
0
 10
9.4749480384555351
 20
12.919074271568951
 30
0.0
  0
VERTEX
  5
34171
  8
0
 10
9.4755055489450921
 20
12.918243781940539
 30
0.0
  0
VERTEX
  5
34172
  8
0
 10
9.4778014760435632
 20
12.91624886194985
 30
0.0
  0
VERTEX
  5
34173
  8
0
 10
9.4784976717351181
 20
12.915856269276301
 30
0.0
  0
VERTEX
  5
34174
  8
0
 10
9.4827555383701565
 20
12.914402318086809
 30
0.0
  0
VERTEX
  5
34175
  8
0
 10
9.489130190010961
 20
12.91380702379344
 30
0.0
  0
SEQEND
  5
34176
  8
0
  0
POLYLINE
  5
336B2
  8
0
 66
     1
 10
0.0
 20
0.0
 30
0.0
  0
VERTEX
  5
34177
  8
0
 10
9.4869168329662354
 20
12.90888576395092
 30
0.0
  0
VERTEX
  5
34178
  8
0
 10
9.4871025656514263
 20
12.90995625045691
 30
0.0
  0
VERTEX
  5
34179
  8
0
 10
9.4873229915515722
 20
12.910924216521661
 30
0.0
  0
VERTEX
  5
3417A
  8
0
 10
9.4875743391184066
 20
12.91177309997741
 30
0.0
  0
VERTEX
  5
3417B
  8
0
 10
9.4878523077253778
 20
12.912488376192901
 30
0.0
  0
VERTEX
  5
3417C
  8
0
 10
9.4881521412525451
 20
12.91305780659375
 30
0.0
  0
VERTEX
  5
3417D
  8
0
 10
9.4884687094651454
 20
12.91347164806794
 30
0.0
  0
VERTEX
  5
3417E
  8
0
 10
9.4887965957932732
 20
12.91372281967311
 30
0.0
  0
VERTEX
  5
3417F
  8
0
 10
9.489130190010961
 20
12.91380702379344
 30
0.0
  0
SEQEND
  5
34180
  8
0
  0
LINE
  5
336B3
  8
0
 10
9.489130190010961
 20
12.91380702379344
 30
0.0
 11
9.4899834858547738
 21
12.91380702379344
 31
0.0
  0
LINE
  5
336B4
  8
0
 10
9.7499546395998671
 20
12.91380702379344
 30
0.0
 11
9.7508079354436799
 21
12.91380702379344
 31
0.0
  0
ARC
  5
336B5
  8
0
 10
9.4893283793465102
 20
12.930176668212651
 30
0.0
 40
0.0163740624538407
 50
271.33101739892032
 51
343.63374318982142
  0
LINE
  5
336B6
  8
0
 10
9.5050389662216972
 20
12.925562843196531
 30
0.0
 11
9.5073395138202397
 21
12.925562843196531
 31
0.0
  0
ARC
  5
336B7
  8
0
 10
9.7506097461081307
 20
12.93017666821264
 30
0.0
 40
0.0163740624538364
 50
196.36625681015809
 51
268.66898260108701
  0
LINE
  5
336B8
  8
0
 10
9.7325986116343994
 20
12.925562843196531
 30
0.0
 11
9.7348991592329401
 21
12.925562843196531
 31
0.0
  0
LINE
  5
336B9
  8
0
 10
9.5073395138202397
 20
12.925562843196531
 30
0.0
 11
9.5149648560879765
 21
12.97658872987428
 31
0.0
  0
ARC
  5
336BA
  8
0
 10
9.5208634493221194
 20
12.967411737086559
 30
0.0
 40
0.0109091978975429
 50
84.992158733975714
 51
122.7312407355567
  0
ARC
  5
336BB
  8
0
 10
9.7190746761325268
 20
12.96741173708657
 30
0.0
 40
0.0109091978975329
 50
57.268759264441528
 51
95.007841266066364
  0
LINE
  5
336BC
  8
0
 10
9.7249732693666662
 20
12.97658872987428
 30
0.0
 11
9.7325986116343994
 21
12.925562843196531
 31
0.0
  0
ARC
  5
336BD
  8
0
 10
9.7476911405210611
 20
12.92629555863021
 30
0.0
 40
0.0127438716942874
 50
281.48871608049421
 51
356.70393210452539
  0
LINE
  5
336BE
  8
0
 10
9.7604139308539146
 20
12.925562843196531
 30
0.0
 11
9.7652579521047063
 21
12.925562843196531
 31
0.0
  0
ARC
  5
336BF
  8
0
 10
9.4922469849335744
 20
12.92629555863021
 30
0.0
 40
0.0127438716942826
 50
183.29606789546949
 51
258.51128391952932
  0
LINE
  5
336C0
  8
0
 10
9.4746801733499311
 20
12.925562843196531
 30
0.0
 11
9.4795241946007263
 21
12.925562843196531
 31
0.0
  0
ARC
  5
336C1
  8
0
 10
9.4922815804112126
 20
12.95011353056608
 30
0.0
 40
0.0276674383171798
 50
242.5420520621598
 51
297.45794793784182
  0
ARC
  5
336C2
  8
0
 10
9.7476565450434283
 20
12.95011353056608
 30
0.0
 40
0.0276674383171814
 50
242.5420520621615
 51
297.45794793784017
  0
LINE
  5
336C3
  8
0
 10
9.5114017464981462
 20
12.968107179849779
 30
0.0
 11
9.5050389662216972
 21
12.925562843196531
 31
0.0
  0
LINE
  5
336C4
  8
0
 10
9.5149648560879765
 20
12.97658872987428
 30
0.0
 11
9.5114017464981462
 21
12.968107179849779
 31
0.0
  0
LINE
  5
336C5
  8
0
 10
9.7348991592329401
 20
12.925562843196531
 30
0.0
 11
9.7285363789564947
 21
12.968107179849779
 31
0.0
  0
LINE
  5
336C6
  8
0
 10
9.7285363789564947
 20
12.968107179849779
 30
0.0
 11
9.7249732693666662
 21
12.97658872987428
 31
0.0
  0
LINE
  5
336C7
  8
0
 10
9.4795241946007263
 20
12.925562843196531
 30
0.0
 11
9.4858869748771717
 21
12.968107179849779
 31
0.0
  0
ARC
  5
336C8
  8
0
 10
9.4986443606876598
 20
12.99265786721933
 30
0.0
 40
0.0276674383171798
 50
242.5420520621598
 51
297.45794793784182
  0
LINE
  5
336C9
  8
0
 10
9.7540511505774621
 20
12.968107179849779
 30
0.0
 11
9.7604139308539146
 21
12.925562843196531
 31
0.0
  0
ARC
  5
336CA
  8
0
 10
9.7412937647669828
 20
12.99265786721933
 30
0.0
 40
0.0276674383171854
 50
242.54205206216159
 51
297.45794793783682
  0
ARC
  5
336CB
  8
0
 10
9.4744309429452507
 20
12.959074063777299
 30
0.0
 40
0.0192109799746605
 50
65.741459931024067
 51
91.402087056570565
  0
LINE
  5
336CC
  8
0
 10
9.4823238652873432
 20
12.97658872987428
 30
0.0
 11
9.4746801733499311
 21
12.925562843196531
 31
0.0
  0
LINE
  5
336CD
  8
0
 10
9.7652579521047063
 20
12.925562843196531
 30
0.0
 11
9.7576142601672977
 21
12.97658872987428
 31
0.0
  0
ARC
  5
336CE
  8
0
 10
9.7655071825094062
 20
12.95907406377723
 30
0.0
 40
0.0192109799747399
 50
88.597912943488254
 51
114.2585400689333
  0
LINE
  5
336CF
  8
0
 10
9.4858869748771717
 20
12.968107179849779
 30
0.0
 11
9.4823238652873432
 21
12.97658872987428
 31
0.0
  0
LINE
  5
336D0
  8
0
 10
9.7576142601672977
 20
12.97658872987428
 30
0.0
 11
9.7540511505774621
 21
12.968107179849779
 31
0.0
  0
LINE
  5
336D1
  8
0
 10
9.6108745261839434
 20
12.99476179584958
 30
0.0
 11
9.6107028122899596
 21
12.999683055692101
 31
0.0
  0
POLYLINE
  5
336D2
  8
0
 66
     1
 10
0.0
 20
0.0
 30
0.0
  0
VERTEX
  5
34181
  8
0
 10
9.6108745261839434
 20
12.99476179584958
 30
0.0
  0
VERTEX
  5
34182
  8
0
 10
9.6092838800528622
 20
12.99483259554534
 30
0.0
  0
VERTEX
  5
34183
  8
0
 10
9.6074398154088136
 20
12.9944285785206
 30
0.0
  0
VERTEX
  5
34184
  8
0
 10
9.6063334508444758
 20
12.99383120779731
 30
0.0
  0
VERTEX
  5
34185
  8
0
 10
9.6045562966757174
 20
12.99191669354879
 30
0.0
  0
VERTEX
  5
34186
  8
0
 10
9.6041217928550431
 20
12.99113964416458
 30
0.0
  0
VERTEX
  5
34187
  8
0
 10
9.6029786902251821
 20
12.987512669016811
 30
0.0
  0
VERTEX
  5
34188
  8
0
 10
9.6029258186329614
 20
12.977723909527979
 30
0.0
  0
VERTEX
  5
34189
  8
0
 10
9.6030725443320648
 20
12.97658886922164
 30
0.0
  0
SEQEND
  5
3418A
  8
0
  0
POLYLINE
  5
336D3
  8
0
 66
     1
 10
0.0
 20
0.0
 30
0.0
  0
VERTEX
  5
3418B
  8
0
 10
9.6368655811225725
 20
12.97658886922164
 30
0.0
  0
VERTEX
  5
3418C
  8
0
 10
9.6369594352294534
 20
12.987512669016811
 30
0.0
  0
VERTEX
  5
3418D
  8
0
 10
9.6358163325995942
 20
12.991139644164569
 30
0.0
  0
VERTEX
  5
3418E
  8
0
 10
9.6346360177519603
 20
12.99291228541882
 30
0.0
  0
VERTEX
  5
3418F
  8
0
 10
9.6336046746101598
 20
12.99383120779731
 30
0.0
  0
VERTEX
  5
34190
  8
0
 10
9.6319072078730272
 20
12.994626939742099
 30
0.0
  0
VERTEX
  5
34191
  8
0
 10
9.6306542454017734
 20
12.99483259554534
 30
0.0
  0
VERTEX
  5
34192
  8
0
 10
9.6290635992707081
 20
12.994761795849721
 30
0.0
  0
SEQEND
  5
34193
  8
0
  0
LINE
  5
336D4
  8
0
 10
9.6290635992706939
 20
12.99476179584958
 30
0.0
 11
9.6292353131646742
 21
12.999683055692101
 31
0.0
  0
LINE
  5
336D5
  8
0
 10
9.6331764803812163
 20
12.96810638743575
 30
0.0
 11
9.619969062727316
 21
12.97385040145055
 31
0.0
  0
LINE
  5
336D6
  8
0
 10
9.619969062727316
 20
12.97385040145055
 30
0.0
 11
9.6290635992706939
 21
12.99476179584958
 31
0.0
  0
LINE
  5
336D7
  8
0
 10
9.619969062727316
 20
12.97385040145055
 30
0.0
 11
9.6067616450734192
 21
12.96810638743575
 31
0.0
  0
LINE
  5
336D8
  8
0
 10
9.6108745261839434
 20
12.99476179584958
 30
0.0
 11
9.619969062727316
 21
12.97385040145055
 31
0.0
  0
POLYLINE
  5
336D9
  8
0
 66
     1
 10
0.0
 20
0.0
 30
0.0
  0
VERTEX
  5
34194
  8
0
 10
9.5149648560879765
 20
12.97658872987428
 30
0.0
  0
VERTEX
  5
34195
  8
0
 10
9.5161758173146822
 20
12.987512537882701
 30
0.0
  0
VERTEX
  5
34196
  8
0
 10
9.5154539929381556
 20
12.991139541594301
 30
0.0
  0
VERTEX
  5
34197
  8
0
 10
9.5145076408668192
 20
12.99291220921728
 30
0.0
  0
VERTEX
  5
34198
  8
0
 10
9.5136170570915048
 20
12.99383115497915
 30
0.0
  0
VERTEX
  5
34199
  8
0
 10
9.5120795319020637
 20
12.99462691831569
 30
0.0
  0
VERTEX
  5
3419A
  8
0
 10
9.5109067837907517
 20
12.994832600196879
 30
0.0
  0
VERTEX
  5
3419B
  8
0
 10
9.509385340412793
 20
12.994761801119971
 30
0.0
  0
SEQEND
  5
3419C
  8
0
  0
ARC
  5
336DA
  8
0
 10
9.5434747106704361
 20
12.993732491481399
 30
0.0
 40
0.0341049064343622
 50
169.9516943954149
 51
178.27051116450841
  0
ARC
  5
336DB
  8
0
 10
9.6964634147841071
 20
12.99373249148138
 30
0.0
 40
0.0341049064344588
 50
1.7294888355225391
 51
10.048305604592709
  0
POLYLINE
  5
336DC
  8
0
 66
     1
 10
0.0
 20
0.0
 30
0.0
  0
VERTEX
  5
3419D
  8
0
 10
9.7305527850418798
 20
12.99476180111982
 30
0.0
  0
VERTEX
  5
3419E
  8
0
 10
9.7290313416638892
 20
12.994832600196879
 30
0.0
  0
VERTEX
  5
3419F
  8
0
 10
9.7273153725986603
 20
12.99442855434692
 30
0.0
  0
VERTEX
  5
341A0
  8
0
 10
9.7263210683631325
 20
12.99383115497915
 30
0.0
  0
VERTEX
  5
341A1
  8
0
 10
9.7248199054829243
 20
12.991916651622249
 30
0.0
  0
VERTEX
  5
341A2
  8
0
 10
9.724484132516487
 20
12.991139541594301
 30
0.0
  0
VERTEX
  5
341A3
  8
0
 10
9.7237623081399605
 20
12.987512537882701
 30
0.0
  0
VERTEX
  5
341A4
  8
0
 10
9.7247160280995075
 20
12.97772428551599
 30
0.0
  0
VERTEX
  5
341A5
  8
0
 10
9.7249732693666662
 20
12.97658872987428
 30
0.0
  0
SEQEND
  5
341A6
  8
0
  0
LINE
  5
336DD
  8
0
 10
9.6290635992706939
 20
12.99476179584958
 30
0.0
 11
9.6108745261839434
 21
12.99476179584958
 31
0.0
  0
ARC
  5
336DE
  8
0
 10
9.4756718375963001
 20
12.91395013528982
 30
0.0
 40
0.0648815217577649
 50
56.585315977200388
 51
67.404461542719446
  0
LINE
  5
336DF
  8
0
 10
9.500600838585294
 20
12.973851360446689
 30
0.0
 11
9.5093853404127593
 21
12.99476180111982
 31
0.0
  0
ARC
  5
336E0
  8
0
 10
9.7642662878584172
 20
12.913950135289671
 30
0.0
 40
0.0648815217579359
 50
112.5955384572959
 51
123.4146840227864
  0
LINE
  5
336E1
  8
0
 10
9.7305527850418798
 20
12.99476180111982
 30
0.0
 11
9.7393372868693433
 21
12.973851360446689
 31
0.0
  0
ARC
  5
336E2
  8
0
 10
9.9892026979459931
 20
12.99852748710213
 30
0.0
 40
0.0185331493088626
 50
10.681623922584951
 51
84.105128324464758
  0
LINE
  5
336E3
  8
0
 10
9.1872895708030082
 20
13.016962633371289
 30
0.0
 11
9.9911061173268241
 21
13.016962633371289
 31
0.0
  0
ARC
  5
336E4
  8
0
 10
9.4407600811778867
 20
13.10541791514621
 30
0.0
 40
0.1445360666497921
 50
288.19300351953831
 51
294.45758809975251
  0
ARC
  5
336E5
  8
0
 10
9.7991780442768555
 20
13.1054179151465
 30
0.0
 40
0.1445360666500943
 50
245.54241190025789
 51
251.8069964804597
  0
ARC
  5
336E6
  8
0
 10
9.5254212746433922
 20
12.99602458229829
 30
0.0
 40
0.033628655438441
 50
173.7544013751706
 51
182.15200534379301
  0
POLYLINE
  5
336E7
  8
0
 66
     1
 10
0.0
 20
0.0
 30
0.0
  0
VERTEX
  5
341A7
  8
0
 10
9.4918163367578252
 20
12.99476180111982
 30
0.0
  0
VERTEX
  5
341A8
  8
0
 10
9.4902645750832821
 20
12.994832600196879
 30
0.0
  0
VERTEX
  5
341A9
  8
0
 10
9.4884181165922037
 20
12.99442855434692
 30
0.0
  0
VERTEX
  5
341AA
  8
0
 10
9.4872750863994249
 20
12.99383115497915
 30
0.0
  0
VERTEX
  5
341AB
  8
0
 10
9.4853431895895461
 20
12.991916651622249
 30
0.0
  0
VERTEX
  5
341AC
  8
0
 10
9.4848395338207503
 20
12.991139541594301
 30
0.0
  0
VERTEX
  5
341AD
  8
0
 10
9.483353181317117
 20
12.987512537882701
 30
0.0
  0
VERTEX
  5
341AE
  8
0
 10
9.4822975033486721
 20
12.97772428551599
 30
0.0
  0
VERTEX
  5
341AF
  8
0
 10
9.4823238652873432
 20
12.97658872987428
 30
0.0
  0
SEQEND
  5
341B0
  8
0
  0
POLYLINE
  5
336E8
  8
0
 66
     1
 10
0.0
 20
0.0
 30
0.0
  0
VERTEX
  5
341B1
  8
0
 10
9.7576142601672977
 20
12.97658872987428
 30
0.0
  0
VERTEX
  5
341B2
  8
0
 10
9.7565849441375203
 20
12.987512537882701
 30
0.0
  0
VERTEX
  5
341B3
  8
0
 10
9.7550985916338906
 20
12.991139541594301
 30
0.0
  0
VERTEX
  5
341B4
  8
0
 10
9.7537648206033598
 20
12.99291220921728
 30
0.0
  0
VERTEX
  5
341B5
  8
0
 10
9.752663039055216
 20
12.99383115497915
 30
0.0
  0
VERTEX
  5
341B6
  8
0
 10
9.7509213658617444
 20
12.99462691831569
 30
0.0
  0
VERTEX
  5
341B7
  8
0
 10
9.7496735503713552
 20
12.994832600196879
 30
0.0
  0
VERTEX
  5
341B8
  8
0
 10
9.7481217886968068
 20
12.994761801119971
 30
0.0
  0
SEQEND
  5
341B9
  8
0
  0
ARC
  5
336E9
  8
0
 10
9.7145168508117514
 20
12.9960245822983
 30
0.0
 40
0.0336286554379376
 50
357.847994656146
 51
6.2455986248927751
  0
ARC
  5
336EA
  8
0
 10
9.8501143102406168
 20
12.9211178963397
 30
0.0
 40
0.0062151696887869
 50
45.657712691290307
 51
99.183289163653924
  0
ARC
  5
336EB
  8
0
 10
9.8705999225767869
 20
12.930730390234951
 30
0.0
 40
0.0169485555451303
 50
197.7519080054131
 51
273.12414687889151
  0
ARC
  5
336EC
  8
0
 10
9.8701271811209903
 20
12.90829901410234
 30
0.0
 40
0.0056822699491371
 50
5.9269133088989978
 51
75.773696875890863
  0
ARC
  5
336ED
  8
0
 10
9.3697318680912751
 20
12.930158928945019
 30
0.0
 40
0.0164048842434113
 50
265.3940390940021
 51
343.72990602169972
  0
ARC
  5
336EE
  8
0
 10
9.3898238152140383
 20
12.92111789633967
 30
0.0
 40
0.0062151696888165
 50
80.81671083650626
 51
134.3422873086202
  0
ARC
  5
336EF
  8
0
 10
9.3698109443336648
 20
12.90829901410234
 30
0.0
 40
0.0056822699491421
 50
104.2263031241351
 51
174.0730866910709
  0
LINE
  5
336F0
  8
0
 10
9.7393372868693433
 20
12.973851360446689
 30
0.0
 11
9.7481217886968121
 21
12.99476180111982
 31
0.0
  0
LINE
  5
336F1
  8
0
 10
9.4918163367578252
 20
12.99476180111982
 30
0.0
 11
9.500600838585294
 21
12.973851360446689
 31
0.0
  0
LINE
  5
336F2
  8
0
 10
9.5093853404127593
 20
12.99476180111982
 30
0.0
 11
9.4918163367578252
 21
12.99476180111982
 31
0.0
  0
LINE
  5
336F3
  8
0
 10
9.7481217886968121
 20
12.99476180111982
 30
0.0
 11
9.7305527850418798
 21
12.99476180111982
 31
0.0
  0
LINE
  5
336F4
  8
0
 10
9.3854797639136471
 20
12.925562843196531
 30
0.0
 11
9.4002202924630112
 21
12.97658872987428
 31
0.0
  0
ARC
  5
336F5
  8
0
 10
9.4045743322173241
 20
12.97212616128615
 30
0.0
 40
0.0062347558561597
 50
80.718569441923165
 51
134.29474806581101
  0
ARC
  5
336F6
  8
0
 10
9.8353637932373221
 20
12.972126161286161
 30
0.0
 40
0.0062347558561518
 50
45.705251934132022
 51
99.281430558057806
  0
LINE
  5
336F7
  8
0
 10
9.8397178329916368
 20
12.97658872987428
 30
0.0
 11
9.8544583615409991
 21
12.925562843196531
 31
0.0
  0
POLYLINE
  5
336F8
  8
0
 66
     1
 10
0.0
 20
0.0
 30
0.0
  0
VERTEX
  5
341BA
  8
0
 10
9.8722886567749075
 20
12.91380702379344
 30
0.0
  0
VERTEX
  5
341BB
  8
0
 10
9.8787543801800624
 20
12.914526674822589
 30
0.0
  0
VERTEX
  5
341BC
  8
0
 10
9.8827051148715732
 20
12.91633171254534
 30
0.0
  0
VERTEX
  5
341BD
  8
0
 10
9.8844822047621594
 20
12.918438721925471
 30
0.0
  0
VERTEX
  5
341BE
  8
0
 10
9.8848264014059524
 20
12.91932744072939
 30
0.0
  0
VERTEX
  5
341BF
  8
0
 10
9.8848985834484395
 20
12.922445926611561
 30
0.0
  0
VERTEX
  5
341C0
  8
0
 10
9.8848494587998736
 20
12.92267566601307
 30
0.0
  0
VERTEX
  5
341C1
  8
0
 10
9.8837399251438622
 20
12.925562843196531
 30
0.0
  0
SEQEND
  5
341C2
  8
0
  0
ARC
  5
336F9
  8
0
 10
9.8919507025635376
 20
12.906469610490729
 30
0.0
 40
0.020783849522967
 50
89.868519779551576
 51
113.2694455649788
  0
ARC
  5
336FA
  8
0
 10
9.8708992748451365
 20
12.908290248057909
 30
0.0
 40
0.0056890418053397
 50
6.0085986286298168
 51
75.864214152708897
  0
ARC
  5
336FB
  8
0
 10
9.3479874228911424
 20
12.90646961049084
 30
0.0
 40
0.0207838495228499
 50
66.73055443497384
 51
90.131480220537327
  0
POLYLINE
  5
336FC
  8
0
 66
     1
 10
0.0
 20
0.0
 30
0.0
  0
VERTEX
  5
341C3
  8
0
 10
9.3561982003107822
 20
12.925562843196531
 30
0.0
  0
VERTEX
  5
341C4
  8
0
 10
9.3549243935980151
 20
12.921687815369641
 30
0.0
  0
VERTEX
  5
341C5
  8
0
 10
9.3551915335349101
 20
12.919074271568951
 30
0.0
  0
VERTEX
  5
341C6
  8
0
 10
9.3555571814573941
 20
12.918243781940539
 30
0.0
  0
VERTEX
  5
341C7
  8
0
 10
9.3573431405454528
 20
12.91624886194985
 30
0.0
  0
VERTEX
  5
341C8
  8
0
 10
9.3579268502077504
 20
12.915856269276301
 30
0.0
  0
VERTEX
  5
341C9
  8
0
 10
9.3616885609523397
 20
12.914402318086809
 30
0.0
  0
VERTEX
  5
341CA
  8
0
 10
9.3676494686797387
 20
12.91380702379344
 30
0.0
  0
SEQEND
  5
341CB
  8
0
  0
ARC
  5
336FD
  8
0
 10
9.3690388506095115
 20
12.908290248057909
 30
0.0
 40
0.0056890418053397
 50
104.1357858472911
 51
173.99140137137019
  0
ARC
  5
336FE
  8
0
 10
9.3682880463523048
 20
12.931188160276109
 30
0.0
 40
0.0173811766510493
 50
270.12318001834228
 51
341.11654528745959
  0
LINE
  5
336FF
  8
0
 10
9.384733748208081
 20
12.925562843196531
 30
0.0
 11
9.3854797639136471
 21
12.925562843196531
 31
0.0
  0
ARC
  5
33700
  8
0
 10
9.8716500791023432
 20
12.931188160276109
 30
0.0
 40
0.0173811766510493
 50
198.883454712542
 51
269.8768199816592
  0
LINE
  5
33701
  8
0
 10
9.8544583615409991
 20
12.925562843196531
 30
0.0
 11
9.8552043772465652
 21
12.925562843196531
 31
0.0
  0
LINE
  5
33702
  8
0
 10
9.3676494686797387
 20
12.91380702379344
 30
0.0
 11
9.3684145128038043
 21
12.91380702379344
 31
0.0
  0
LINE
  5
33703
  8
0
 10
9.8715236126508437
 20
12.91380702379344
 30
0.0
 11
9.8722886567749075
 21
12.91380702379344
 31
0.0
  0
LINE
  5
33704
  8
0
 10
9.3970256958001226
 20
12.968107179849779
 30
0.0
 11
9.384733748208081
 21
12.925562843196531
 31
0.0
  0
LINE
  5
33705
  8
0
 10
9.4002202924630112
 20
12.97658872987428
 30
0.0
 11
9.3970256958001226
 21
12.968107179849779
 31
0.0
  0
LINE
  5
33706
  8
0
 10
9.8552043772465652
 20
12.925562843196531
 30
0.0
 11
9.8429124296545201
 21
12.968107179849779
 31
0.0
  0
LINE
  5
33707
  8
0
 10
9.8429124296545201
 20
12.968107179849779
 30
0.0
 11
9.8397178329916368
 21
12.97658872987428
 31
0.0
  0
POLYLINE
  5
33708
  8
0
 66
     1
 10
0.0
 20
0.0
 30
0.0
  0
VERTEX
  5
341CC
  8
0
 10
9.8716127113934569
 20
12.91380702379344
 30
0.0
  0
VERTEX
  5
341CD
  8
0
 10
9.8726666627797481
 20
12.91401559379014
 30
0.0
  0
VERTEX
  5
341CE
  8
0
 10
9.8736954915789354
 20
12.91463633218671
 30
0.0
  0
VERTEX
  5
341CF
  8
0
 10
9.8746746740402411
 20
12.91565444270824
 30
0.0
  0
VERTEX
  5
341D0
  8
0
 10
9.8755808698113636
 20
12.91704565709095
 30
0.0
  0
VERTEX
  5
341D1
  8
0
 10
9.8763924782924146
 20
12.918776813554359
 30
0.0
  0
VERTEX
  5
341D2
  8
0
 10
9.8770901535201645
 20
12.920806647264429
 30
0.0
  0
VERTEX
  5
341D3
  8
0
 10
9.8776572653094803
 20
12.9230867739457
 30
0.0
  0
VERTEX
  5
341D4
  8
0
 10
9.8780802956599008
 20
12.925562843196531
 30
0.0
  0
SEQEND
  5
341D5
  8
0
  0
LINE
  5
33709
  8
0
 10
9.8780802956599008
 20
12.925562843196531
 30
0.0
 11
9.8837399251438622
 21
12.925562843196531
 31
0.0
  0
POLYLINE
  5
3370A
  8
0
 66
     1
 10
0.0
 20
0.0
 30
0.0
  0
VERTEX
  5
341D6
  8
0
 10
9.3683254140611911
 20
12.91380702379344
 30
0.0
  0
VERTEX
  5
341D7
  8
0
 10
9.3672714626748999
 20
12.91401559379014
 30
0.0
  0
VERTEX
  5
341D8
  8
0
 10
9.3662426338757125
 20
12.91463633218671
 30
0.0
  0
VERTEX
  5
341D9
  8
0
 10
9.3652634514144033
 20
12.91565444270824
 30
0.0
  0
VERTEX
  5
341DA
  8
0
 10
9.3643572556432826
 20
12.91704565709095
 30
0.0
  0
VERTEX
  5
341DB
  8
0
 10
9.3635456471622316
 20
12.918776813554359
 30
0.0
  0
VERTEX
  5
341DC
  8
0
 10
9.3628479719344782
 20
12.920806647264429
 30
0.0
  0
VERTEX
  5
341DD
  8
0
 10
9.3622808601451641
 20
12.9230867739457
 30
0.0
  0
VERTEX
  5
341DE
  8
0
 10
9.3618578297947437
 20
12.925562843196531
 30
0.0
  0
SEQEND
  5
341DF
  8
0
  0
LINE
  5
3370B
  8
0
 10
9.3561982003107822
 20
12.925562843196531
 30
0.0
 11
9.3618578297947437
 21
12.925562843196531
 31
0.0
  0
ARC
  5
3370C
  8
0
 10
9.3732957890014124
 20
12.94432388914325
 30
0.0
 40
0.0219727958127366
 50
238.6307862191268
 51
301.36921378087891
  0
ARC
  5
3370D
  8
0
 10
9.8666423364532321
 20
12.94432388914325
 30
0.0
 40
0.0219727958127326
 50
238.63078621912189
 51
301.3692137808797
  0
LINE
  5
3370E
  8
0
 10
9.3618578297947437
 20
12.925562843196531
 30
0.0
 11
9.374149777386787
 21
12.968107179849779
 31
0.0
  0
ARC
  5
3370F
  8
0
 10
9.3855877365934575
 20
12.98686822579649
 30
0.0
 40
0.0219727958127366
 50
238.6307862191228
 51
301.36921378087487
  0
LINE
  5
33710
  8
0
 10
9.8657883480678557
 20
12.968107179849779
 30
0.0
 11
9.8780802956599008
 21
12.925562843196531
 31
0.0
  0
ARC
  5
33711
  8
0
 10
9.8543503888611941
 20
12.98686822579649
 30
0.0
 40
0.0219727958127375
 50
238.63078621911879
 51
301.36921378087101
  0
POLYLINE
  5
33712
  8
0
 66
     1
 10
0.0
 20
0.0
 30
0.0
  0
VERTEX
  5
341E0
  8
0
 10
9.4002202924630112
 20
12.97658872987428
 30
0.0
  0
VERTEX
  5
341E1
  8
0
 10
9.4024656634371944
 20
12.987512537882701
 30
0.0
  0
VERTEX
  5
341E2
  8
0
 10
9.4022142422856128
 20
12.991139541594301
 30
0.0
  0
VERTEX
  5
341E3
  8
0
 10
9.4015663090405628
 20
12.99291220921728
 30
0.0
  0
VERTEX
  5
341E4
  8
0
 10
9.4008771574834924
 20
12.99383115497915
 30
0.0
  0
VERTEX
  5
341E5
  8
0
 10
9.3996043248937244
 20
12.99462691831569
 30
0.0
  0
VERTEX
  5
341E6
  8
0
 10
9.3985917254368285
 20
12.994832600196879
 30
0.0
  0
VERTEX
  5
341E7
  8
0
 10
9.3972433305270062
 20
12.994761801119971
 30
0.0
  0
SEQEND
  5
341E8
  8
0
  0
ARC
  5
33713
  8
0
 10
9.4154014943533433
 20
12.994304298482369
 30
0.0
 40
0.0181639263984757
 50
162.77509026116391
 51
178.55671389146249
  0
ARC
  5
33714
  8
0
 10
9.8245366311014628
 20
12.994304298482399
 30
0.0
 40
0.0181639263983116
 50
1.4432861084608251
 51
17.224909738903079
  0
POLYLINE
  5
33715
  8
0
 66
     1
 10
0.0
 20
0.0
 30
0.0
  0
VERTEX
  5
341E9
  8
0
 10
9.8426947949276862
 20
12.99476180111982
 30
0.0
  0
VERTEX
  5
341EA
  8
0
 10
9.8413464000178141
 20
12.994832600196879
 30
0.0
  0
VERTEX
  5
341EB
  8
0
 10
9.83987545054012
 20
12.99442855434692
 30
0.0
  0
VERTEX
  5
341EC
  8
0
 10
9.839060967971152
 20
12.99383115497915
 30
0.0
  0
VERTEX
  5
341ED
  8
0
 10
9.8379380264417673
 20
12.991916651622249
 30
0.0
  0
VERTEX
  5
341EE
  8
0
 10
9.8377238831690335
 20
12.991139541594301
 30
0.0
  0
VERTEX
  5
341EF
  8
0
 10
9.8374724620174447
 20
12.987512537882701
 30
0.0
  0
VERTEX
  5
341F0
  8
0
 10
9.8393676848464082
 20
12.97772428551599
 30
0.0
  0
VERTEX
  5
341F1
  8
0
 10
9.8397178329916368
 20
12.97658872987428
 30
0.0
  0
SEQEND
  5
341F2
  8
0
  0
ARC
  5
33716
  8
0
 10
9.3627483499442761
 20
12.95751560509086
 30
0.0
 40
0.020763818542102
 50
66.718638940725342
 51
90.204041701491533
  0
LINE
  5
33717
  8
0
 10
9.3709551807239002
 20
12.97658872987428
 30
0.0
 11
9.3561982003107822
 21
12.925562843196531
 31
0.0
  0
LINE
  5
33718
  8
0
 10
9.8837399251438622
 20
12.925562843196531
 30
0.0
 11
9.8689829447307442
 21
12.97658872987428
 31
0.0
  0
ARC
  5
33719
  8
0
 10
9.8771897755103772
 20
12.9575156050908
 30
0.0
 40
0.0207638185421641
 50
89.795958298528674
 51
113.2813610592229
  0
LINE
  5
3371A
  8
0
 10
9.374149777386787
 20
12.968107179849779
 30
0.0
 11
9.3709551807239002
 21
12.97658872987428
 31
0.0
  0
LINE
  5
3371B
  8
0
 10
9.8689829447307442
 20
12.97658872987428
 30
0.0
 11
9.8657883480678557
 21
12.968107179849779
 31
0.0
  0
ARC
  5
3371C
  8
0
 10
9.3842030656949156
 20
12.9589888837262
 30
0.0
 40
0.0157341401739081
 50
35.417000024949793
 51
70.83908710706848
  0
LINE
  5
3371D
  8
0
 10
9.3893673616532318
 20
12.973851360446689
 30
0.0
 11
9.3972433305269583
 21
12.99476180111982
 31
0.0
  0
ARC
  5
3371E
  8
0
 10
9.8557350597597271
 20
12.9589888837262
 30
0.0
 40
0.0157341401739081
 50
109.16091289293151
 51
144.58299997505009
  0
LINE
  5
3371F
  8
0
 10
9.8426947949276862
 20
12.99476180111982
 30
0.0
 11
9.8505707638014126
 21
12.973851360446689
 31
0.0
  0
ARC
  5
33720
  8
0
 10
9.3529020411998207
 20
13.047426492504981
 30
0.0
 40
0.0821158915993995
 50
284.99608452754978
 51
296.36394367657431
  0
ARC
  5
33721
  8
0
 10
9.8870360842548237
 20
13.047426492504981
 30
0.0
 40
0.0821158915993995
 50
243.63605632342731
 51
255.00391547245169
  0
LINE
  5
33722
  8
0
 10
9.3972433305269583
 20
12.99476180111982
 30
0.0
 11
9.3814913927795107
 21
12.99476180111982
 31
0.0
  0
ARC
  5
33723
  8
0
 10
9.3992152264229194
 20
12.99540691542617
 30
0.0
 40
0.0177355702329381
 50
166.04819627418149
 51
182.08453870140971
  0
ARC
  5
33724
  8
0
 10
9.8407228990317552
 20
12.995406915426161
 30
0.0
 40
0.0177355702329069
 50
357.91546129861121
 51
13.95180372586707
  0
LINE
  5
33725
  8
0
 10
9.8584467326751302
 20
12.99476180111982
 30
0.0
 11
9.8426947949276862
 21
12.99476180111982
 31
0.0
  0
LINE
  5
33726
  8
0
 10
9.3814913927795107
 20
12.99476180111982
 30
0.0
 11
9.3893673616532318
 21
12.973851360446689
 31
0.0
  0
LINE
  5
33727
  8
0
 10
9.8505707638014126
 20
12.973851360446689
 30
0.0
 11
9.8584467326751302
 21
12.99476180111982
 31
0.0
  0
POLYLINE
  5
33728
  8
0
 66
     1
 10
0.0
 20
0.0
 30
0.0
  0
VERTEX
  5
341F3
  8
0
 10
9.8689829447307442
 20
12.97658872987428
 30
0.0
  0
VERTEX
  5
341F4
  8
0
 10
9.8669004323847584
 20
12.987512537882701
 30
0.0
  0
VERTEX
  5
341F5
  8
0
 10
9.8651720563073901
 20
12.991139541594301
 30
0.0
  0
VERTEX
  5
341F6
  8
0
 10
9.8637756871057825
 20
12.99291220921728
 30
0.0
  0
VERTEX
  5
341F7
  8
0
 10
9.8626785327822422
 20
12.99383115497915
 30
0.0
  0
VERTEX
  5
341F8
  8
0
 10
9.8610113165335171
 20
12.99462691831569
 30
0.0
  0
VERTEX
  5
341F9
  8
0
 10
9.8598536980363072
 20
12.994832600196879
 30
0.0
  0
VERTEX
  5
341FA
  8
0
 10
9.8584467326751071
 20
12.994761801119971
 30
0.0
  0
SEQEND
  5
341FB
  8
0
  0
POLYLINE
  5
33729
  8
0
 66
     1
 10
0.0
 20
0.0
 30
0.0
  0
VERTEX
  5
341FC
  8
0
 10
9.3814913927795107
 20
12.99476180111982
 30
0.0
  0
VERTEX
  5
341FD
  8
0
 10
9.380084427418339
 20
12.994832600196879
 30
0.0
  0
VERTEX
  5
341FE
  8
0
 10
9.3783613917276742
 20
12.99442855434692
 30
0.0
  0
VERTEX
  5
341FF
  8
0
 10
9.3772595926724023
 20
12.99383115497915
 30
0.0
  0
VERTEX
  5
34200
  8
0
 10
9.3753045370891641
 20
12.991916651622249
 30
0.0
  0
VERTEX
  5
34201
  8
0
 10
9.3747660691472543
 20
12.991139541594301
 30
0.0
  0
VERTEX
  5
34202
  8
0
 10
9.3730376930698824
 20
12.987512537882701
 30
0.0
  0
VERTEX
  5
34203
  8
0
 10
9.3710510571909538
 20
12.97772428551599
 30
0.0
  0
VERTEX
  5
34204
  8
0
 10
9.3709551807239002
 20
12.97658872987428
 30
0.0
  0
SEQEND
  5
34205
  8
0
  0
ARC
  5
3372A
  8
0
 10
9.2474906698727928
 20
12.86485593606292
 30
0.0
 40
0.006982182444115
 50
95.409369168362517
 51
163.09920980997649
  0
ARC
  5
3372B
  8
0
 10
9.2448452386984794
 20
12.89068256125385
 30
0.0
 40
0.0189798559079725
 50
276.00994987564928
 51
337.96883060540961
  0
POLYLINE
  5
3372C
  8
0
 66
     1
 10
0.0
 20
0.0
 30
0.0
  0
VERTEX
  5
34206
  8
0
 10
9.2624391841650144
 20
12.883563009778641
 30
0.0
  0
VERTEX
  5
34207
  8
0
 10
9.2624989397084541
 20
12.88395827140244
 30
0.0
  0
VERTEX
  5
34208
  8
0
 10
9.2625328359379626
 20
12.88405261719787
 30
0.0
  0
SEQEND
  5
34209
  8
0
  0
POLYLINE
  5
3372D
  8
0
 66
     1
 10
0.0
 20
0.0
 30
0.0
  0
VERTEX
  5
3420A
  8
0
 10
9.9774049883997602
 20
12.884053358495111
 30
0.0
  0
VERTEX
  5
3420B
  8
0
 10
9.977439185746185
 20
12.88395827140244
 30
0.0
  0
VERTEX
  5
3420C
  8
0
 10
9.9774989412896264
 20
12.88356300977865
 30
0.0
  0
SEQEND
  5
3420D
  8
0
  0
ARC
  5
3372E
  8
0
 10
9.9944652026521528
 20
12.88984927531423
 30
0.0
 40
0.0180934009795134
 50
200.33045683336701
 51
265.69076268557308
  0
ARC
  5
3372F
  8
0
 10
9.9924474555818552
 20
12.864855936062931
 30
0.0
 40
0.0069821824441034
 50
16.900790189960968
 51
84.590630831687264
  0
ARC
  5
33730
  8
0
 10
9.9930559597038631
 20
12.864846577740551
 30
0.0
 40
0.0069911992647346
 50
16.958503785014511
 51
84.623912136994051
  0
POLYLINE
  5
33731
  8
0
 66
     1
 10
0.0
 20
0.0
 30
0.0
  0
VERTEX
  5
3420E
  8
0
 10
9.9937109848208827
 20
12.871807023793441
 30
0.0
  0
VERTEX
  5
3420F
  8
0
 10
9.9992857130452517
 20
12.872529619439529
 30
0.0
  0
VERTEX
  5
34210
  8
0
 10
10.00239360265736
 20
12.874338354306991
 30
0.0
  0
VERTEX
  5
34211
  8
0
 10
10.003519839424991
 20
12.87644355007818
 30
0.0
  0
VERTEX
  5
34212
  8
0
 10
10.00364003255199
 20
12.877339515584939
 30
0.0
  0
VERTEX
  5
34213
  8
0
 10
10.003064275113969
 20
12.88045318918625
 30
0.0
  0
VERTEX
  5
34214
  8
0
 10
10.002971646536031
 20
12.88068936769492
 30
0.0
  0
VERTEX
  5
34215
  8
0
 10
10.0014175394238
 20
12.883563009778641
 30
0.0
  0
SEQEND
  5
34216
  8
0
  0
ARC
  5
33732
  8
0
 10
10.00949145786112
 20
12.865194906072849
 30
0.0
 40
0.02006428151415
 50
91.344265077333773
 51
113.7284608713621
  0
ARC
  5
33733
  8
0
 10
9.2304466675935153
 20
12.865194906072819
 30
0.0
 40
0.0200642815141801
 50
66.271539128658603
 51
88.655734922653025
  0
POLYLINE
  5
33734
  8
0
 66
     1
 10
0.0
 20
0.0
 30
0.0
  0
VERTEX
  5
34217
  8
0
 10
9.2385205860308357
 20
12.88356300977865
 30
0.0
  0
VERTEX
  5
34218
  8
0
 10
9.2366172888367313
 20
12.87969323404166
 30
0.0
  0
VERTEX
  5
34219
  8
0
 10
9.2363164872421262
 20
12.87708006994807
 30
0.0
  0
VERTEX
  5
3421A
  8
0
 10
9.2364660597248776
 20
12.87625269367685
 30
0.0
  0
VERTEX
  5
3421B
  8
0
 10
9.2376248096728553
 20
12.8742548515169
 30
0.0
  0
VERTEX
  5
3421C
  8
0
 10
9.2380532727953977
 20
12.873865049523991
 30
0.0
  0
VERTEX
  5
3421D
  8
0
 10
9.2410638778170071
 20
12.87240721966818
 30
0.0
  0
VERTEX
  5
3421E
  8
0
 10
9.2462271406337582
 20
12.871807023793441
 30
0.0
  0
SEQEND
  5
3421F
  8
0
  0
ARC
  5
33735
  8
0
 10
9.2468821657507672
 20
12.864846577740551
 30
0.0
 40
0.0069911992647275
 50
95.37608786295344
 51
163.04149621502839
  0
LINE
  5
33736
  8
0
 10
9.2462271406337582
 20
12.871807023793441
 30
0.0
 11
9.2468324517893183
 21
12.871807023793441
 31
0.0
  0
LINE
  5
33737
  8
0
 10
9.9931056736653243
 20
12.871807023793441
 30
0.0
 11
9.9937109848208827
 21
12.871807023793441
 31
0.0
  0
ARC
  5
33738
  8
0
 10
9.2646194723627868
 20
12.8813871842812
 30
0.0
 40
0.0201154051605253
 50
173.79033101895391
 51
208.4414125567007
  0
LINE
  5
33739
  8
0
 10
9.2446220898296492
 20
12.88356300977865
 30
0.0
 11
9.2791648260202209
 21
12.96810638743575
 31
0.0
  0
LINE
  5
3373A
  8
0
 10
9.96077329943442
 20
12.96810638743575
 30
0.0
 11
9.9953160356249917
 21
12.883563009778641
 31
0.0
  0
ARC
  5
3373B
  8
0
 10
9.975318653091783
 20
12.881387184281211
 30
0.0
 40
0.0201154051605922
 50
331.55858744337257
 51
6.209668980994544
  0
LINE
  5
3373C
  8
0
 10
9.9953160356249917
 20
12.883563009778641
 30
0.0
 11
10.0014175394238
 21
12.883563009778641
 31
0.0
  0
LINE
  5
3373D
  8
0
 10
9.2385205860308357
 20
12.88356300977865
 30
0.0
 11
9.2446220898296492
 21
12.88356300977865
 31
0.0
  0
LINE
  5
3373E
  8
0
 10
9.2765562378695243
 20
12.97658886922164
 30
0.0
 11
9.2385205860308357
 21
12.88356300977865
 31
0.0
  0
LINE
  5
3373F
  8
0
 10
9.2791648260202209
 20
12.96810638743575
 30
0.0
 11
9.2765562378695243
 21
12.97658886922164
 31
0.0
  0
ARC
  5
33740
  8
0
 10
9.2684998619303212
 20
12.95829163532056
 30
0.0
 40
0.0199923475786298
 50
66.235833956307772
 51
88.790018817985015
  0
LINE
  5
33741
  8
0
 10
9.963381887585113
 20
12.97658886922164
 30
0.0
 11
9.96077329943442
 21
12.96810638743575
 31
0.0
  0
LINE
  5
33742
  8
0
 10
10.0014175394238
 20
12.883563009778641
 30
0.0
 11
9.963381887585113
 21
12.97658886922164
 31
0.0
  0
ARC
  5
33743
  8
0
 10
9.9714382635243304
 20
12.95829163532051
 30
0.0
 40
0.0199923475786743
 50
91.209981182042853
 51
113.7641660436756
  0
LINE
  5
33744
  8
0
 10
9.3004515233409801
 20
12.97658886922164
 30
0.0
 11
9.3021111986612031
 21
12.98238743221277
 31
0.0
  0
ARC
  5
33745
  8
0
 10
9.3135494340977747
 20
12.99449065349055
 30
0.0
 40
0.013272385954861
 50
156.9696640946492
 51
178.8294196931412
  0
ARC
  5
33746
  8
0
 10
9.9263886913568662
 20
12.99449065349055
 30
0.0
 40
0.0132723859548593
 50
1.170580306874232
 51
23.030335905370968
  0
POLYLINE
  5
33747
  8
0
 66
     1
 10
0.0
 20
0.0
 30
0.0
  0
VERTEX
  5
34220
  8
0
 10
9.9378402919632371
 20
12.982160954800481
 30
0.0
  0
VERTEX
  5
34221
  8
0
 10
9.9390676082701628
 20
12.977723909527979
 30
0.0
  0
VERTEX
  5
34222
  8
0
 10
9.9394866021136572
 20
12.97658886922164
 30
0.0
  0
SEQEND
  5
34223
  8
0
  0
LINE
  5
33748
  8
0
 10
9.2938490095620363
 20
12.97385040145055
 30
0.0
 11
9.3002798180236024
 21
12.99476179584958
 31
0.0
  0
LINE
  5
33749
  8
0
 10
9.9396583074310367
 20
12.99476179584958
 30
0.0
 11
9.9460891158926064
 21
12.97385040145055
 31
0.0
  0
ARC
  5
3374A
  8
0
 10
9.2674390430687836
 20
13.01972412721015
 30
0.0
 40
0.0529328352276841
 50
282.79843803627688
 51
299.92946815954662
  0
ARC
  5
3374B
  8
0
 10
9.9724990823858075
 20
13.01972412721001
 30
0.0
 40
0.0529328352275454
 50
240.07053184043059
 51
257.20156196374188
  0
LINE
  5
3374C
  8
0
 10
9.3002798180236024
 20
12.99476179584958
 30
0.0
 11
9.2874182011004667
 21
12.99476179584958
 31
0.0
  0
ARC
  5
3374D
  8
0
 10
9.3003331821781963
 20
12.995157903843941
 30
0.0
 40
0.0129210540507094
 50
159.49951074956351
 51
181.75673536636739
  0
LINE
  5
3374E
  8
0
 10
9.9525199243541742
 20
12.99476179584958
 30
0.0
 11
9.9396583074310367
 21
12.99476179584958
 31
0.0
  0
ARC
  5
3374F
  8
0
 10
9.9396049432764606
 20
12.995157903843941
 30
0.0
 40
0.0129210540506927
 50
358.24326463363161
 51
20.50048925046411
  0
LINE
  5
33750
  8
0
 10
9.2874182011004667
 20
12.99476179584958
 30
0.0
 11
9.2938490095620363
 21
12.97385040145055
 31
0.0
  0
LINE
  5
33751
  8
0
 10
9.9460891158926064
 20
12.97385040145055
 30
0.0
 11
9.9525199243541742
 21
12.99476179584958
 31
0.0
  0
POLYLINE
  5
33752
  8
0
 66
     1
 10
0.0
 20
0.0
 30
0.0
  0
VERTEX
  5
34224
  8
0
 10
9.2874182011004667
 20
12.99476179584958
 30
0.0
  0
VERTEX
  5
34225
  8
0
 10
9.2862520370639032
 20
12.99483259554534
 30
0.0
  0
VERTEX
  5
34226
  8
0
 10
9.2847698444546793
 20
12.9944285785206
 30
0.0
  0
VERTEX
  5
34227
  8
0
 10
9.2837843730349121
 20
12.99383120779731
 30
0.0
  0
VERTEX
  5
34228
  8
0
 10
9.2819393407654811
 20
12.99191669354879
 30
0.0
  0
VERTEX
  5
34229
  8
0
 10
9.2814027867983402
 20
12.99113964416458
 30
0.0
  0
VERTEX
  5
3422A
  8
0
 10
9.2795501381045717
 20
12.987512669016811
 30
0.0
  0
VERTEX
  5
3422B
  8
0
 10
9.2767677302394045
 20
12.977723909527979
 30
0.0
  0
VERTEX
  5
3422C
  8
0
 10
9.2765562378695243
 20
12.97658886922164
 30
0.0
  0
SEQEND
  5
3422D
  8
0
  0
POLYLINE
  5
33753
  8
0
 66
     1
 10
0.0
 20
0.0
 30
0.0
  0
VERTEX
  5
3422E
  8
0
 10
9.963381887585113
 20
12.97658886922164
 30
0.0
  0
VERTEX
  5
3422F
  8
0
 10
9.9603879873500674
 20
12.987512669016811
 30
0.0
  0
VERTEX
  5
34230
  8
0
 10
9.9585353386563025
 20
12.991139644164569
 30
0.0
  0
VERTEX
  5
34231
  8
0
 10
9.9571715155611642
 20
12.99291228541882
 30
0.0
  0
VERTEX
  5
34232
  8
0
 10
9.9561537524197252
 20
12.99383120779731
 30
0.0
  0
VERTEX
  5
34233
  8
0
 10
9.9546746013051024
 20
12.994626939742099
 30
0.0
  0
VERTEX
  5
34234
  8
0
 10
9.9536860883907394
 20
12.99483259554534
 30
0.0
  0
VERTEX
  5
34235
  8
0
 10
9.9525199243541316
 20
12.994761795849721
 30
0.0
  0
SEQEND
  5
34236
  8
0
  0
ARC
  5
33754
  8
0
 10
9.1979237980451671
 20
12.925657184216099
 30
0.0
 40
0.0016421263678056
 50
76.420534703497907
 51
140.81055200587971
  0
ARC
  5
33755
  8
0
 10
9.1840911176643605
 20
12.90541226574557
 30
0.0
 40
0.0083990673051797
 50
91.835447145484352
 51
155.57148485813809
  0
ARC
  5
33756
  8
0
 10
9.2362491672882232
 20
12.994591499912721
 30
0.0
 40
0.0111480752447
 50
152.82427318142189
 51
179.12469912968001
  0
ARC
  5
33757
  8
0
 10
9.1636358242898357
 20
12.92334821941602
 30
0.0
 40
0.0225877157636359
 50
335.01339315247571
 51
5.6266324852318874
  0
LINE
  5
33758
  8
0
 10
9.1861147109377477
 20
12.925562843196531
 30
0.0
 11
9.2074049886911382
 21
12.968107179849779
 31
0.0
  0
ARC
  5
33759
  8
0
 10
9.1724532539955561
 20
12.90987678477814
 30
0.0
 40
0.0174115064908641
 50
64.276865841259962
 51
86.372416231275423
  0
POLYLINE
  5
3375A
  8
0
 66
     1
 10
0.0
 20
0.0
 30
0.0
  0
VERTEX
  5
34237
  8
0
 10
9.1800102460940156
 20
12.925562843196531
 30
0.0
  0
VERTEX
  5
34238
  8
0
 10
9.177597936651896
 20
12.921687815369641
 30
0.0
  0
VERTEX
  5
34239
  8
0
 10
9.1767425056691074
 20
12.919074271568951
 30
0.0
  0
VERTEX
  5
3423A
  8
0
 10
9.176664446810447
 20
12.918243781940539
 30
0.0
  0
VERTEX
  5
3423B
  8
0
 10
9.1771083872198762
 20
12.91624886194985
 30
0.0
  0
VERTEX
  5
3423C
  8
0
 10
9.1773581648768943
 20
12.915856269276301
 30
0.0
  0
VERTEX
  5
3423D
  8
0
 10
9.1794097830591372
 20
12.914402318086809
 30
0.0
  0
VERTEX
  5
3423E
  8
0
 10
9.1833804045227172
 20
12.91380702379344
 30
0.0
  0
SEQEND
  5
3423F
  8
0
  0
ARC
  5
3375B
  8
0
 10
9.1836475198623102
 20
12.90540349970115
 30
0.0
 40
0.0084077682992829
 50
91.820596953571666
 51
155.5328005455755
  0
LINE
  5
3375C
  8
0
 10
9.1833804045227172
 20
12.91380702379344
 30
0.0
 11
9.1838221029536875
 21
12.91380702379344
 31
0.0
  0
LINE
  5
3375D
  8
0
 10
9.1800102460940121
 20
12.925562843196531
 30
0.0
 11
9.1861147109377477
 21
12.925562843196531
 31
0.0
  0
ARC
  5
3375E
  8
0
 10
10.043825023769401
 20
13.02323022500963
 30
0.0
 40
0.0358473180020218
 50
216.3903023414714
 51
249.8484804260903
  0
ARC
  5
3375F
  8
0
 10
10.011191425029899
 20
13.03027900817926
 30
0.0
 40
0.0285671254510173
 50
262.40297472722523
 51
277.59702527278
  0
ARC
  5
33760
  8
0
 10
9.9907170920745312
 20
12.989863900906521
 30
0.0
 40
0.0271015247143846
 50
26.514390716501818
 51
89.17752706399591
  0
LINE
  5
33761
  8
0
 10
10.0314754801842
 20
12.98957730565373
 30
0.0
 11
10.11857722830225
 21
12.891022894032711
 31
0.0
  0
POLYLINE
  5
33762
  8
0
 66
     1
 10
0.0
 20
0.0
 30
0.0
  0
VERTEX
  5
34240
  8
0
 10
10.11857722830225
 20
12.891022894032711
 30
0.0
  0
VERTEX
  5
34241
  8
0
 10
10.122086659473259
 20
12.87945055512094
 30
0.0
  0
VERTEX
  5
34242
  8
0
 10
10.123676252690871
 20
12.87169970774101
 30
0.0
  0
VERTEX
  5
34243
  8
0
 10
10.123826127132929
 20
12.86885600648808
 30
0.0
  0
VERTEX
  5
34244
  8
0
 10
10.12372587496573
 20
12.86787840599078
 30
0.0
  0
VERTEX
  5
34245
  8
0
 10
10.123242292367671
 20
12.8665936670078
 30
0.0
  0
VERTEX
  5
34246
  8
0
 10
10.12258404897014
 20
12.866106892200371
 30
0.0
  0
VERTEX
  5
34247
  8
0
 10
10.12147571648646
 20
12.86614448898651
 30
0.0
  0
VERTEX
  5
34248
  8
0
 10
10.12063079428165
 20
12.86649677009189
 30
0.0
  0
VERTEX
  5
34249
  8
0
 10
10.120351077556309
 20
12.866651414215591
 30
0.0
  0
SEQEND
  5
3424A
  8
0
  0
POLYLINE
  5
33763
  8
0
 66
     1
 10
0.0
 20
0.0
 30
0.0
  0
VERTEX
  5
3424B
  8
0
 10
10.11130931750553
 20
12.98957730565373
 30
0.0
  0
VERTEX
  5
3424C
  8
0
 10
10.110758370016301
 20
12.99504283498989
 30
0.0
  0
VERTEX
  5
3424D
  8
0
 10
10.109658581257239
 20
13.000231294077871
 30
0.0
  0
VERTEX
  5
3424E
  8
0
 10
10.10804766300323
 20
13.00496477056903
 30
0.0
  0
VERTEX
  5
3424F
  8
0
 10
10.105980853668051
 20
13.0090809534756
 30
0.0
  0
VERTEX
  5
34250
  8
0
 10
10.103529024178259
 20
13.012438698817091
 30
0.0
  0
VERTEX
  5
34251
  8
0
 10
10.100776247807939
 20
13.01492286944978
 30
0.0
  0
VERTEX
  5
34252
  8
0
 10
10.0978169173047
 20
13.01644828312125
 30
0.0
  0
VERTEX
  5
34253
  8
0
 10
10.094752508160839
 20
13.016962633371289
 30
0.0
  0
SEQEND
  5
34254
  8
0
  0
LINE
  5
33764
  8
0
 10
9.9911061173268241
 20
13.016962633371289
 30
0.0
 11
10.094752508160839
 21
13.016962633371289
 31
0.0
  0
LINE
  5
33765
  8
0
 10
9.2251023929045566
 20
12.99476180111982
 30
0.0
 11
9.2160080074058133
 21
12.99476180111982
 31
0.0
  0
ARC
  5
33766
  8
0
 10
9.2269040211414151
 20
12.994994422497809
 30
0.0
 40
0.0108984965950335
 50
154.51913386536941
 51
181.22303432309201
  0
LINE
  5
33767
  8
0
 10
9.2055605874478665
 20
12.97658872987428
 30
0.0
 11
9.1800102460940121
 21
12.925562843196531
 31
0.0
  0
LINE
  5
33768
  8
0
 10
9.2074049886911382
 20
12.968107179849779
 30
0.0
 11
9.2055605874478665
 21
12.97658872987428
 31
0.0
  0
ARC
  5
33769
  8
0
 10
9.198021456821694
 20
12.960963163472581
 30
0.0
 40
0.017349259810511
 50
64.243301016794774
 51
86.458513195744814
  0
POLYLINE
  5
3376A
  8
0
 66
     1
 10
0.0
 20
0.0
 30
0.0
  0
VERTEX
  5
34255
  8
0
 10
10.11857722830225
 20
12.891022894032711
 30
0.0
  0
VERTEX
  5
34256
  8
0
 10
10.11632332590456
 20
12.92162092970292
 30
0.0
  0
VERTEX
  5
34257
  8
0
 10
10.11130931750553
 20
12.98957730565373
 30
0.0
  0
SEQEND
  5
34258
  8
0
  0
POLYLINE
  5
3376B
  8
0
 66
     1
 10
0.0
 20
0.0
 30
0.0
  0
VERTEX
  5
34259
  8
0
 10
9.2160080074058133
 20
12.99476180111982
 30
0.0
  0
VERTEX
  5
3425A
  8
0
 10
9.2151618799099726
 20
12.994832600196879
 30
0.0
  0
VERTEX
  5
3425B
  8
0
 10
9.2140215427472274
 20
12.99442855434692
 30
0.0
  0
VERTEX
  5
3425C
  8
0
 10
9.2132195365153642
 20
12.99383115497915
 30
0.0
  0
VERTEX
  5
3425D
  8
0
 10
9.2116103633751134
 20
12.991916651622249
 30
0.0
  0
VERTEX
  5
3425E
  8
0
 10
9.2111122298288475
 20
12.991139541594301
 30
0.0
  0
VERTEX
  5
3425F
  8
0
 10
9.2092616311113353
 20
12.987512537882701
 30
0.0
  0
VERTEX
  5
34260
  8
0
 10
9.2058734541818961
 20
12.97772428551599
 30
0.0
  0
VERTEX
  5
34261
  8
0
 10
9.2055605874478665
 20
12.97658872987428
 30
0.0
  0
SEQEND
  5
34262
  8
0
  0
ARC
  5
3376C
  8
0
 10
10.09409373609156
 20
12.987820763862439
 30
0.0
 40
0.0291493145564437
 50
3.454744740195653
 51
88.705009925132984
  0
LINE
  5
3376D
  8
0
 10
10.094752508160839
 20
13.016962633371289
 30
0.0
 11
10.11518445331062
 21
13.016962633371289
 31
0.0
  0
LINE
  5
3376E
  8
0
 10
9.1417783710543272
 20
12.92710025777397
 30
0.0
 11
9.1417914331591827
 21
12.92713019551088
 31
0.0
  0
ARC
  5
3376F
  8
0
 10
9.1334431699023444
 20
12.9043537900295
 30
0.0
 40
0.0094534561040745
 50
90.392963403843524
 51
151.35386692987711
  0
ARC
  5
33770
  8
0
 10
9.1869986255269982
 20
12.994673527399289
 30
0.0
 40
0.0101644232536209
 50
150.47193922999679
 51
179.50240411272731
  0
LINE
  5
33771
  8
0
 10
9.1400145600076037
 20
12.925562843196531
 30
0.0
 11
9.1637607792766982
 21
12.968107179849779
 31
0.0
  0
ARC
  5
33772
  8
0
 10
9.12715806818324
 20
12.912837875590609
 30
0.0
 40
0.0145976659007152
 50
60.658255145005548
 51
80.939614965207653
  0
POLYLINE
  5
33773
  8
0
 66
     1
 10
0.0
 20
0.0
 30
0.0
  0
VERTEX
  5
34263
  8
0
 10
9.1343111828319152
 20
12.925562843196531
 30
0.0
  0
VERTEX
  5
34264
  8
0
 10
9.1315590329763197
 20
12.921687815369641
 30
0.0
  0
VERTEX
  5
34265
  8
0
 10
9.1302109890720331
 20
12.919074271568951
 30
0.0
  0
VERTEX
  5
34266
  8
0
 10
9.1299113238831673
 20
12.918243781940539
 30
0.0
  0
VERTEX
  5
34267
  8
0
 10
9.1296146699795369
 20
12.91624886194985
 30
0.0
  0
VERTEX
  5
34268
  8
0
 10
9.1296657585748484
 20
12.915856269276301
 30
0.0
  0
VERTEX
  5
34269
  8
0
 10
9.1306199800672516
 20
12.914402318086809
 30
0.0
  0
VERTEX
  5
3426A
  8
0
 10
9.133149693900199
 20
12.91380702379344
 30
0.0
  0
SEQEND
  5
3426B
  8
0
  0
LINE
  5
33774
  8
0
 10
9.1343111828319152
 20
12.925562843196531
 30
0.0
 11
9.1400145600076037
 21
12.925562843196531
 31
0.0
  0
LINE
  5
33775
  8
0
 10
9.1768345855905835
 20
12.99476180111982
 30
0.0
 11
9.1721269852494274
 21
12.99476180111982
 31
0.0
  0
ARC
  5
33776
  8
0
 10
9.1821612219228808
 20
12.994866535140069
 30
0.0
 40
0.0100347832479768
 50
151.31570531817709
 51
180.59801254663361
  0
LINE
  5
33777
  8
0
 10
9.1637607792766982
 20
12.968107179849779
 30
0.0
 11
9.1628060469395596
 21
12.97658872987428
 31
0.0
  0
POLYLINE
  5
33778
  8
0
 66
     1
 10
0.0
 20
0.0
 30
0.0
  0
VERTEX
  5
3426C
  8
0
 10
9.1721269852494274
 20
12.99476180111982
 30
0.0
  0
VERTEX
  5
3426D
  8
0
 10
9.1716586791318555
 20
12.994832600196879
 30
0.0
  0
VERTEX
  5
3426E
  8
0
 10
9.1709379077548974
 20
12.99442855434692
 30
0.0
  0
VERTEX
  5
3426F
  8
0
 10
9.1703740328234442
 20
12.99383115497915
 30
0.0
  0
VERTEX
  5
34270
  8
0
 10
9.169110329582649
 20
12.991916651622249
 30
0.0
  0
VERTEX
  5
34271
  8
0
 10
9.1686845938827357
 20
12.991139541594301
 30
0.0
  0
VERTEX
  5
34272
  8
0
 10
9.1669621253697642
 20
12.987512537882701
 30
0.0
  0
VERTEX
  5
34273
  8
0
 10
9.1631988780067353
 20
12.977724285516
 30
0.0
  0
VERTEX
  5
34274
  8
0
 10
9.1628060469395596
 20
12.97658872987428
 30
0.0
  0
SEQEND
  5
34275
  8
0
  0
LINE
  5
33779
  8
0
 10
9.1628060469395596
 20
12.97658872987428
 30
0.0
 11
9.1343111828319152
 21
12.925562843196531
 31
0.0
  0
ARC
  5
3377A
  8
0
 10
9.1556850425950334
 20
12.96394851727465
 30
0.0
 40
0.0145080556050238
 50
60.604780465594978
 51
81.033824314867047
  0
ARC
  5
3377B
  8
0
 10
9.168599402511699
 20
12.99476084237941
 30
0.0
 40
0.0098338985191196
 50
149.9645787337131
 51
157.79772808398349
  0
LINE
  5
3377C
  8
0
 10
9.1482765530278627
 20
12.97828452929336
 30
0.0
 11
9.1482853923846932
 21
12.978279525006339
 31
0.0
  0
LINE
  5
3377D
  8
0
 10
9.0945019516483381
 20
12.885257715462419
 30
0.0
 11
9.0945090452500637
 21
12.885253665563351
 31
0.0
  0
LINE
  5
3377E
  8
0
 10
10.39840486249949
 20
3.041081275351821
 30
0.0
 11
14.374887593663811
 21
3.041081275351821
 31
0.0
  0
LINE
  5
3377F
  8
0
 10
10.7442955966246
 20
2.998611233441888
 30
0.0
 11
14.028996859538699
 21
2.998611233441888
 31
0.0
  0
LINE
  5
33780
  8
0
 10
13.91845465754837
 20
6.3918455232525426
 30
0.0
 11
12.38664622808165
 21
6.3918455232525426
 31
0.0
  0
LINE
  5
33781
  8
0
 10
12.38664622808165
 20
6.4457302082802919
 30
0.0
 11
13.90239425957771
 21
6.4457302082802919
 31
0.0
  0
LINE
  5
33782
  8
0
 10
11.52738735591946
 20
9.5199151882842763
 30
0.0
 11
11.524844686311649
 21
9.5167904188787382
 31
0.0
  0
LINE
  5
33783
  8
0
 10
11.10743984935778
 20
9.5199151882842763
 30
0.0
 11
11.104897179749971
 21
9.5167904188787382
 31
0.0
  0
LINE
  5
33784
  8
0
 10
11.94733486248114
 20
9.5199151882842763
 30
0.0
 11
11.944792192873329
 21
9.5167904188787382
 31
0.0
  0
POLYLINE
  5
33785
  8
0
 66
     1
 10
0.0
 20
0.0
 30
0.0
  0
VERTEX
  5
34276
  8
0
 10
12.153056597569011
 20
9.5156922843254996
 30
0.0
  0
VERTEX
  5
34277
  8
0
 10
12.153013942393869
 20
9.515814445017833
 30
0.0
  0
VERTEX
  5
34278
  8
0
 10
12.150104575309451
 20
9.5199151882842763
 30
0.0
  0
SEQEND
  5
34279
  8
0
  0
POLYLINE
  5
33786
  8
0
 66
     1
 10
0.0
 20
0.0
 30
0.0
  0
VERTEX
  5
3427A
  8
0
 10
11.73310909100733
 20
9.5156922843254996
 30
0.0
  0
VERTEX
  5
3427B
  8
0
 10
11.733066435832191
 20
9.515814445017833
 30
0.0
  0
VERTEX
  5
3427C
  8
0
 10
11.73015706874777
 20
9.5199151882842763
 30
0.0
  0
SEQEND
  5
3427D
  8
0
  0
POLYLINE
  5
33787
  8
0
 66
     1
 10
0.0
 20
0.0
 30
0.0
  0
VERTEX
  5
3427E
  8
0
 10
11.31316158444565
 20
9.5156922843254996
 30
0.0
  0
VERTEX
  5
3427F
  8
0
 10
11.313118929270511
 20
9.515814445017833
 30
0.0
  0
VERTEX
  5
34280
  8
0
 10
11.31020956218609
 20
9.5199151882842763
 30
0.0
  0
SEQEND
  5
34281
  8
0
  0
LINE
  5
33788
  8
0
 10
12.367282369042821
 20
9.5199151882842763
 30
0.0
 11
12.36473938012896
 21
9.5167896268354202
 31
0.0
  0
LINE
  5
33789
  8
0
 10
10.123991345675259
 20
12.85426608649802
 30
0.0
 11
9.0792817610563343
 21
12.85426608649802
 31
0.0
  0
LINE
  5
3378A
  8
0
 10
9.0831868398855544
 20
12.866651414215591
 30
0.0
 11
10.120351077556309
 21
12.866651414215591
 31
0.0
  0
LINE
  5
3378B
  8
0
 10
10.00741471028439
 20
13.001962633371299
 30
0.0
 11
9.1613088086894745
 21
13.001962633371299
 31
0.0
  0
ARC
  5
3378C
  8
0
 10
8.9666258936482137
 20
13.09424083408603
 30
0.0
 40
0.2153323033997007
 50
328.66188738658502
 51
333.95193970891108
  0
ARC
  5
3378D
  8
0
 10
9.2652414462307746
 20
12.88178390682992
 30
0.0
 40
0.0035332161626417
 50
79.124583034310405
 51
140.05072734949491
  0
POLYLINE
  5
3378E
  8
0
 66
     1
 10
0.0
 20
0.0
 30
0.0
  0
VERTEX
  5
34282
  8
0
 10
9.9740300528039612
 20
12.885253665563351
 30
0.0
  0
VERTEX
  5
34283
  8
0
 10
9.9747987585958811
 20
12.885245154349001
 30
0.0
  0
VERTEX
  5
34284
  8
0
 10
9.9754859485493235
 20
12.885175088084109
 30
0.0
  0
VERTEX
  5
34285
  8
0
 10
9.9760830124105428
 20
12.885044344674871
 30
0.0
  0
VERTEX
  5
34286
  8
0
 10
9.9765824691747174
 20
12.884854562291229
 30
0.0
  0
VERTEX
  5
34287
  8
0
 10
9.9769780608203771
 20
12.88460811884117
 30
0.0
  0
VERTEX
  5
34288
  8
0
 10
9.9772648307202711
 20
12.884308102176369
 30
0.0
  0
VERTEX
  5
34289
  8
0
 10
9.9774049883997602
 20
12.884053358495111
 30
0.0
  0
SEQEND
  5
3428A
  8
0
  0
ARC
  5
3378F
  8
0
 10
9.3032702699287597
 20
12.974781463512111
 30
0.0
 40
0.0035643807067876
 50
78.930169922396402
 51
139.85544102954711
  0
POLYLINE
  5
33790
  8
0
 66
     1
 10
0.0
 20
0.0
 30
0.0
  0
VERTEX
  5
3428B
  8
0
 10
9.9359834758027308
 20
12.978279525006339
 30
0.0
  0
VERTEX
  5
3428C
  8
0
 10
9.9367592663376758
 20
12.978273311559819
 30
0.0
  0
VERTEX
  5
3428D
  8
0
 10
9.9374530300007482
 20
12.978204868470479
 30
0.0
  0
VERTEX
  5
3428E
  8
0
 10
9.9380559830162838
 20
12.97807506229965
 30
0.0
  0
VERTEX
  5
3428F
  8
0
 10
9.9385604913666512
 20
12.977885536529589
 30
0.0
  0
VERTEX
  5
34290
  8
0
 10
9.9389601674469681
 20
12.97763869075535
 30
0.0
  0
VERTEX
  5
34291
  8
0
 10
9.9392499509388212
 20
12.977337650303349
 30
0.0
  0
VERTEX
  5
34292
  8
0
 10
9.9393938435969318
 20
12.977076267191491
 30
0.0
  0
SEQEND
  5
34293
  8
0
  0
ARC
  5
33791
  8
0
 10
9.2564994698522423
 20
12.906553870283229
 30
0.0
 40
0.025877631710461
 50
242.67853062743799
 51
280.9021152650522
  0
ARC
  5
33792
  8
0
 10
9.2909238827118923
 20
12.99066975321727
 30
0.0
 40
0.0254436807413667
 50
242.47341037504859
 51
281.74387406452252
  0
ARC
  5
33793
  8
0
 10
9.9832152636034532
 20
12.907362180870591
 30
0.0
 40
0.0266988619267036
 50
260.65113259639389
 51
296.95121976776022
  0
ARC
  5
33794
  8
0
 10
9.9489544253679352
 20
12.99088581439155
 30
0.0
 40
0.0256629709237594
 50
258.6834040619093
 51
297.42208255231878
  0
POLYLINE
  5
33795
  8
0
 66
     1
 10
0.0
 20
0.0
 30
0.0
  0
VERTEX
  5
34294
  8
0
 10
9.3021111986612031
 20
12.98238743221277
 30
0.0
  0
VERTEX
  5
34295
  8
0
 10
9.3035781533268551
 20
12.987512669016811
 30
0.0
  0
VERTEX
  5
34296
  8
0
 10
9.3038142107782971
 20
12.991139644164569
 30
0.0
  0
VERTEX
  5
34297
  8
0
 10
9.3035088166080424
 20
12.99291228541882
 30
0.0
  0
VERTEX
  5
34298
  8
0
 10
9.3030680402908814
 20
12.99383120779731
 30
0.0
  0
VERTEX
  5
34299
  8
0
 10
9.3021466109241793
 20
12.994626939742099
 30
0.0
  0
VERTEX
  5
3429A
  8
0
 10
9.3013631673185468
 20
12.99483259554534
 30
0.0
  0
VERTEX
  5
3429B
  8
0
 10
9.3002798180236681
 20
12.994761795849721
 30
0.0
  0
SEQEND
  5
3429C
  8
0
  0
POLYLINE
  5
33796
  8
0
 66
     1
 10
0.0
 20
0.0
 30
0.0
  0
VERTEX
  5
3429D
  8
0
 10
9.9396583074310367
 20
12.99476179584958
 30
0.0
  0
VERTEX
  5
3429E
  8
0
 10
9.9385749581360958
 20
12.99483259554534
 30
0.0
  0
VERTEX
  5
3429F
  8
0
 10
9.9374492495158044
 20
12.9944285785206
 30
0.0
  0
VERTEX
  5
342A0
  8
0
 10
9.9368700851637595
 20
12.99383120779731
 30
0.0
  0
VERTEX
  5
342A1
  8
0
 10
9.9362018419053033
 20
12.99191669354879
 30
0.0
  0
VERTEX
  5
342A2
  8
0
 10
9.936123914676342
 20
12.99113964416458
 30
0.0
  0
VERTEX
  5
342A3
  8
0
 10
9.9363599721277822
 20
12.987512669016811
 30
0.0
  0
VERTEX
  5
342A4
  8
0
 10
9.9378402919632371
 20
12.982160954800481
 30
0.0
  0
SEQEND
  5
342A5
  8
0
  0
ARC
  5
33797
  8
0
 10
9.2882623032365519
 20
12.963381436617921
 30
0.0
 40
0.0118663605302586
 50
35.76154070562292
 51
61.913631007958791
  0
ARC
  5
33798
  8
0
 10
9.9508775933611933
 20
12.96437616302793
 30
0.0
 40
0.0106155880739538
 50
116.81298467175991
 51
147.6915485496371
  0
ARC
  5
33799
  8
0
 10
9.2234764651255432
 20
12.97661554351261
 30
0.0
 40
0.0017084316276022
 50
76.867059972777113
 51
137.7685657501616
  0
POLYLINE
  5
3379A
  8
0
 66
     1
 10
0.0
 20
0.0
 30
0.0
  0
VERTEX
  5
342A6
  8
0
 10
9.2265381531756123
 20
12.988980001864579
 30
0.0
  0
VERTEX
  5
342A7
  8
0
 10
9.2269594399790424
 20
12.991139541594301
 30
0.0
  0
VERTEX
  5
342A8
  8
0
 10
9.2270174652465862
 20
12.99291220921728
 30
0.0
  0
VERTEX
  5
342A9
  8
0
 10
9.2268551439166462
 20
12.99383115497915
 30
0.0
  0
VERTEX
  5
342AA
  8
0
 10
9.2263479711899752
 20
12.99462691831569
 30
0.0
  0
VERTEX
  5
342AB
  8
0
 10
9.2258470734029192
 20
12.994832600196879
 30
0.0
  0
VERTEX
  5
342AC
  8
0
 10
9.2251023929046312
 20
12.994761801119971
 30
0.0
  0
SEQEND
  5
342AD
  8
0
  0
ARC
  5
3379B
  8
0
 10
9.2034140943098421
 20
12.964812968319221
 30
0.0
 40
0.0428933676365135
 50
246.21464715983839
 51
258.16368988379088
  0
ARC
  5
3379C
  8
0
 10
9.2244093838172851
 20
13.00656091067243
 30
0.0
 40
0.0420456759701546
 50
246.1447920914249
 51
258.80707684257652
  0
LINE
  5
3379D
  8
0
 10
9.2207870437616748
 20
12.974917502184271
 30
0.0
 11
9.2251023929045566
 21
12.99476180111982
 31
0.0
  0
ARC
  5
3379E
  8
0
 10
9.2010191972049942
 20
13.0008497767504
 30
0.0
 40
0.0333594961697701
 50
281.0358696428288
 51
305.130658454132
  0
LINE
  5
3379F
  8
0
 10
9.2160080074058133
 20
12.99476180111982
 30
0.0
 11
9.2204637888945538
 21
12.97427171864299
 31
0.0
  0
ARC
  5
337A0
  8
0
 10
9.1421252095422432
 20
12.92682559024278
 30
0.0
 40
0.0004518750305616
 50
71.218849247988686
 51
137.6163344481609
  0
ARC
  5
337A1
  8
0
 10
9.1706192543250395
 20
12.97784464509577
 30
0.0
 40
0.0004596584081898
 50
71.01199080268988
 51
137.25591827398429
  0
POLYLINE
  5
337A2
  8
0
 66
     1
 10
0.0
 20
0.0
 30
0.0
  0
VERTEX
  5
342AE
  8
0
 10
9.1773971937114602
 20
12.993577173016471
 30
0.0
  0
VERTEX
  5
342AF
  8
0
 10
9.1774323425974327
 20
12.99383115497915
 30
0.0
  0
VERTEX
  5
342B0
  8
0
 10
9.1773739586798264
 20
12.99462691831569
 30
0.0
  0
VERTEX
  5
342B1
  8
0
 10
9.1771897422850142
 20
12.994832600196879
 30
0.0
  0
VERTEX
  5
342B2
  8
0
 10
9.1768345855906635
 20
12.994761801119971
 30
0.0
  0
SEQEND
  5
342B3
  8
0
  0
LINE
  5
337A3
  8
0
 10
9.139635203457928
 20
12.923214165881619
 30
0.0
 11
9.1400145600076037
 21
12.925562843196531
 31
0.0
  0
LINE
  5
337A4
  8
0
 10
9.1644948796810919
 20
12.967765092909559
 30
0.0
 11
9.1637607792766982
 21
12.968107179849779
 31
0.0
  0
LINE
  5
337A5
  8
0
 10
9.1763463549673521
 20
12.99042450961584
 30
0.0
 11
9.1768345855905835
 21
12.99476180111982
 31
0.0
  0
LINE
  5
337A6
  8
0
 10
9.16486552943066
 20
12.968393548434671
 30
0.0
 11
9.1637607792766982
 21
12.968107179849779
 31
0.0
  0
ARC
  5
337A7
  8
0
 10
9.13324692222014
 20
12.904317199265421
 30
0.0
 40
0.0095028308230177
 50
100.9885469281167
 51
151.26506123130869
  0
LINE
  5
337A8
  8
0
 10
9.1721269852494274
 20
12.99476180111982
 30
0.0
 11
9.1733398934900006
 21
12.98398669534685
 31
0.0
  0
ENDBLK
  5
337AA
  8
0
  0
BLOCK
  8
0
  2
LP3
 70
     0
 10
0.0
 20
0.0
 30
0.0
  3
LP3
  1

  0
ARC
  5
337EF
  8
0
 10
4.190943129936743
 20
1.78611973096758
 30
0.0
 40
0.2500000000000009
 50
0.0000000000002036
 51
52.020127555148107
  0
ARC
  5
337F0
  8
0
 10
4.190943129936743
 20
1.78611973096758
 30
0.0
 40
0.2500000000000009
 50
127.97987244485191
 51
0.0000000000002036
  0
ARC
  5
337F1
  8
0
 10
4.0309431299367411
 20
1.9910587462867739
 30
0.0
 40
0.0100000000000016
 50
307.97987244485569
 51
0.0000000000002036
  0
ARC
  5
337F2
  8
0
 10
4.3509431299367431
 20
1.9910587462867739
 30
0.0
 40
0.0099999999999998
 50
179.9999999999998
 51
232.02012755515071
  0
LINE
  5
337F3
  8
0
 10
4.340943132620076
 20
2.371119644293604
 30
0.0
 11
4.340943132620076
 21
1.991058781455791
 31
0.0
  0
LINE
  5
337F4
  8
0
 10
4.0409431215791356
 20
1.991058781455791
 30
0.0
 11
4.0409431215791356
 21
2.371119644293604
 31
0.0
  0
LINE
  5
337F5
  8
0
 10
9.63009288191083
 20
1.773719772174573
 30
0.0
 11
9.5702928793922304
 21
1.773719772174573
 31
0.0
  0
LINE
  5
337F6
  8
0
 10
9.5702928793922304
 20
11.323719689760591
 30
0.0
 11
9.63009288191083
 21
11.323719689760591
 31
0.0
  0
ARC
  5
337F7
  8
0
 10
9.5502931299367262
 20
2.1939197309675951
 30
0.0
 40
0.02
 50
0.0000000000002036
 51
38.279321737906052
  0
ARC
  5
337F8
  8
0
 10
9.5502931299367262
 20
10.903519730967609
 30
0.0
 40
0.02
 50
321.72067826208911
 51
0.0000000000002036
  0
LINE
  5
337F9
  8
0
 10
3.927493145496272
 20
1.973719755091035
 30
0.0
 11
2.8906625763848162
 21
1.973719755091035
 31
0.0
  0
LINE
  5
337FA
  8
0
 10
2.8906625763848162
 20
11.123719706844129
 30
0.0
 11
3.927493145496272
 21
11.123719706844129
 31
0.0
  0
ARC
  5
337FB
  8
0
 10
2.8906625962010271
 20
11.02371973096759
 30
0.0
 40
0.0999999999999997
 50
89.999999999997996
 51
114.9999999999999
  0
ARC
  5
337FC
  8
0
 10
2.8906625962010271
 20
2.073719730967575
 30
0.0
 40
0.0999999999999997
 50
244.9999999999992
 51
270.00000000000119
  0
LINE
  5
337FD
  8
0
 10
2.8484007712634631
 20
1.98308900685664
 30
0.0
 11
1.9031359310435609
 21
2.4238732748791638
 31
0.0
  0
LINE
  5
337FE
  8
0
 10
1.9031359310435609
 20
10.673566187056
 30
0.0
 11
2.8484007712634631
 21
11.114350455078521
 31
0.0
  0
ARC
  5
337FF
  8
0
 10
1.92849312993674
 20
2.478251604771021
 30
0.0
 40
0.0599999999999993
 50
179.9999999999998
 51
244.99999999999949
  0
ARC
  5
33800
  8
0
 10
1.92849312993674
 20
10.619187857164141
 30
0.0
 40
0.0599999999999987
 50
115.0000000000004
 51
179.9999999999998
  0
LINE
  5
33801
  8
0
 10
4.4192462963885779
 20
5.3902260939849329
 30
0.0
 11
4.4359931262611054
 21
5.361219722402347
 31
0.0
  0
LINE
  5
33802
  8
0
 10
4.4359931262611054
 20
4.9862197544339759
 30
0.0
 11
4.4192462963885779
 21
4.95721338285139
 31
0.0
  0
ARC
  5
33803
  8
0
 10
4.0928717013653131
 20
2.4417768738247241
 30
0.0
 40
0.0114285714285707
 50
139.98351748188611
 51
179.9999999999998
  0
ARC
  5
33804
  8
0
 10
4.289014558508172
 20
2.4417768738247241
 30
0.0
 40
0.0114285714285716
 50
0.0000000000002036
 51
40.016482518111012
  0
ARC
  5
33805
  8
0
 10
4.0928717013653131
 20
2.430348302396153
 30
0.0
 40
0.0114285714285707
 50
179.9999999999998
 51
269.9999999999992
  0
ARC
  5
33806
  8
0
 10
4.289014558508172
 20
2.430348302396153
 30
0.0
 40
0.0114285714285716
 50
269.9999999999992
 51
0.0000000000002036
  0
LINE
  5
33807
  8
0
 10
4.0814431137197706
 20
2.4303482400798111
 30
0.0
 11
4.0814431137197706
 21
2.441776961387581
 31
0.0
  0
LINE
  5
33808
  8
0
 10
4.3004431404794401
 20
2.441776961387581
 30
0.0
 11
4.3004431404794401
 21
2.4303482400798111
 31
0.0
  0
ARC
  5
33809
  8
0
 10
4.190943129936743
 20
2.3594370858782949
 30
0.0
 40
0.139482645089285
 50
40.016482518113939
 51
71.719157729942481
  0
ARC
  5
3380A
  8
0
 10
4.190943129936743
 20
2.3594370858782949
 30
0.0
 40
0.1394826450892862
 50
108.27895572374
 51
139.983517481886
  0
LINE
  5
3380B
  8
0
 10
4.1650469879206806
 20
2.494112596801854
 30
0.0
 11
4.1650469879206806
 21
2.4924737624004778
 31
0.0
  0
LINE
  5
3380C
  8
0
 10
4.2168392662785301
 20
2.4925353616888781
 30
0.0
 11
4.2168392662785301
 21
2.494115823431247
 31
0.0
  0
LINE
  5
3380D
  8
0
 10
8.5659930411496603
 20
11.70970523082268
 30
0.0
 11
9.5659932490619237
 21
11.335820429971809
 31
0.0
  0
LINE
  5
3380E
  8
0
 10
9.5659932490619237
 20
1.761619031963354
 30
0.0
 11
8.5659930411496603
 21
1.387734231112479
 31
0.0
  0
LINE
  5
3380F
  8
0
 10
8.5659930411496603
 20
1.387734231112479
 30
0.0
 11
4.5506414422506412
 21
1.91636553765185
 31
0.0
  0
LINE
  5
33810
  8
0
 10
6.1771038511347669
 20
11.39520185065923
 30
0.0
 11
8.5659930411496603
 21
11.70970523082268
 31
0.0
  0
ARC
  5
33811
  8
0
 10
4.9789606504608317
 20
2.2613911154434181
 30
0.0
 40
0.5500000000000017
 50
189.1722178969024
 51
218.85261725272969
  0
LINE
  5
33812
  8
0
 10
4.273858757584498
 20
2.371119644293604
 30
0.0
 11
4.273858757584498
 21
1.9911197940843011
 31
0.0
  0
LINE
  5
33813
  8
0
 10
4.273858757584498
 20
1.9911197940843011
 30
0.0
 11
4.108027496614711
 21
1.9911197940843011
 31
0.0
  0
LINE
  5
33814
  8
0
 10
4.108027496614711
 20
1.9911197940843011
 30
0.0
 11
4.108027496614711
 21
2.371119644293604
 31
0.0
  0
LINE
  5
33815
  8
0
 10
4.1178931359793358
 20
6.6703586449511318
 30
0.0
 11
4.1178931359793358
 21
9.7807631141266196
 31
0.0
  0
ARC
  5
33816
  8
0
 10
5.1178931299367383
 20
6.6703586443948106
 30
0.0
 40
1.0
 50
180.0
 51
269.9999999999992
  0
LINE
  5
33817
  8
0
 10
6.1178931484751917
 20
9.7807631141266196
 30
0.0
 11
6.1178931484751917
 21
6.6703586449511318
 31
0.0
  0
CIRCLE
  5
33818
  8
0
 10
5.1178931299367401
 20
6.5487197309675791
 30
0.0
 40
0.0945
  0
ARC
  5
33819
  8
0
 10
5.1178931299367401
 20
6.6703586443948106
 30
0.0
 40
0.9999999999999992
 50
269.9999999999992
 51
0.0000000000000509
  0
LINE
  5
3381A
  8
0
 10
4.1178931359793358
 20
9.8414090802059082
 30
0.0
 11
4.1178931359793358
 21
9.7807631141266196
 31
0.0
  0
LINE
  5
3381B
  8
0
 10
6.1178931484751917
 20
9.7807631141266196
 30
0.0
 11
6.1178931484751917
 21
9.8414090802059082
 31
0.0
  0
LINE
  5
3381C
  8
0
 10
6.1178931484751917
 20
12.94871977095432
 30
0.0
 11
6.1178931484751917
 21
9.8414090802059082
 31
0.0
  0
LINE
  5
3381D
  8
0
 10
4.1178931359793358
 20
9.8414090802059082
 30
0.0
 11
4.1178931359793358
 21
12.94871977095432
 31
0.0
  0
LINE
  5
3381E
  8
0
 10
6.1178931484751917
 20
12.94871977095432
 30
0.0
 11
4.1178931359793358
 21
12.94871977095432
 31
0.0
  0
CIRCLE
  5
3381F
  8
0
 10
5.117893143028116
 20
6.548719724746106
 30
0.0
 40
0.1152000016672778
  0
LINE
  5
33820
  8
0
 10
9.5702928793922304
 20
1.773719772174573
 30
0.0
 11
9.5702928793922304
 21
11.323719689760591
 31
0.0
  0
LINE
  5
33821
  8
0
 10
9.63009288191083
 20
1.773719772174573
 30
0.0
 11
9.63009288191083
 21
11.323719689760591
 31
0.0
  0
LINE
  5
33822
  8
0
 10
3.927493145496272
 20
1.973719755091035
 30
0.0
 11
3.927493145496272
 21
11.123719706844129
 31
0.0
  0
LINE
  5
33823
  8
0
 10
1.8684930779074229
 20
10.61918780190641
 30
0.0
 11
1.8684930779074229
 21
2.4782516600287501
 31
0.0
  0
LINE
  5
33824
  8
0
 10
4.2009431299120541
 20
2.371119644293604
 30
0.0
 11
4.2009431299120541
 21
2.418919812101989
 31
0.0
  0
LINE
  5
33825
  8
0
 10
4.2009431299120541
 20
2.371119644293604
 30
0.0
 11
4.4359931262611054
 21
2.371119644293604
 31
0.0
  0
LINE
  5
33826
  8
0
 10
4.2009431299120541
 20
2.418919812101989
 30
0.0
 11
4.4359931262611054
 21
2.418919812101989
 31
0.0
  0
LINE
  5
33827
  8
0
 10
3.9509431146002281
 20
2.371119644293604
 30
0.0
 11
3.9509431146002281
 21
2.418919812101989
 31
0.0
  0
LINE
  5
33828
  8
0
 10
3.9509431146002281
 20
2.371119644293604
 30
0.0
 11
4.2009431299120541
 21
2.371119644293604
 31
0.0
  0
LINE
  5
33829
  8
0
 10
4.2009431299120541
 20
2.418919812101989
 30
0.0
 11
3.9509431146002281
 21
2.418919812101989
 31
0.0
  0
LINE
  5
3382A
  8
0
 10
4.4192462963885779
 20
4.95721338285139
 30
0.0
 11
4.4359931262611054
 21
4.95721338285139
 31
0.0
  0
LINE
  5
3382B
  8
0
 10
4.4192462963885779
 20
5.3902260939849329
 30
0.0
 11
4.4359931262611054
 21
5.3902260939849329
 31
0.0
  0
LINE
  5
3382C
  8
0
 10
4.1178931359793358
 20
8.0319729562997502
 30
0.0
 11
3.927493145496272
 21
8.0319729562997502
 31
0.0
  0
LINE
  5
3382D
  8
0
 10
4.1178931359793358
 20
8.1402260790837726
 30
0.0
 11
3.927493145496272
 21
8.1402260790837726
 31
0.0
  0
LINE
  5
3382E
  8
0
 10
4.1178931359793358
 20
7.815466564066738
 30
0.0
 11
3.927493145496272
 21
7.815466564066738
 31
0.0
  0
LINE
  5
3382F
  8
0
 10
4.1178931359793358
 20
7.707213367950227
 30
0.0
 11
3.927493145496272
 21
7.707213367950227
 31
0.0
  0
POLYLINE
  5
33830
  8
0
 66
     1
 10
0.0
 20
0.0
 30
0.0
  0
VERTEX
  5
342B4
  8
0
 10
4.4359931262611054
 20
5.3360994592604376
 30
0.0
  0
VERTEX
  5
342B5
  8
0
 10
4.431572827324775
 20
5.3090362518969174
 30
0.0
  0
VERTEX
  5
342B6
  8
0
 10
4.4192462963885779
 20
5.2819728978684237
 30
0.0
  0
SEQEND
  5
342B7
  8
0
  0
POLYLINE
  5
33831
  8
0
 66
     1
 10
0.0
 20
0.0
 30
0.0
  0
VERTEX
  5
342B8
  8
0
 10
4.4192462963885779
 20
5.2819728978684237
 30
0.0
  0
VERTEX
  5
342B9
  8
0
 10
4.4349891861920394
 20
5.1993148660743964
 30
0.0
  0
VERTEX
  5
342BA
  8
0
 10
4.4359931262611054
 20
5.1737197750844048
 30
0.0
  0
SEQEND
  5
342BB
  8
0
  0
LINE
  5
33832
  8
0
 10
4.4192462963885779
 20
5.0654665056354107
 30
0.0
 11
3.927493145496272
 21
5.0654665056354107
 31
0.0
  0
POLYLINE
  5
33833
  8
0
 66
     1
 10
0.0
 20
0.0
 30
0.0
  0
VERTEX
  5
342BC
  8
0
 10
4.4359931262611054
 20
5.1737197750844048
 30
0.0
  0
VERTEX
  5
342BD
  8
0
 10
4.4252283572832987
 20
5.0880485114328202
 30
0.0
  0
VERTEX
  5
342BE
  8
0
 10
4.4192462963885779
 20
5.0654665056354107
 30
0.0
  0
SEQEND
  5
342BF
  8
0
  0
LINE
  5
33834
  8
0
 10
4.4192462963885779
 20
5.2819728978684237
 30
0.0
 11
3.927493145496272
 21
5.2819728978684237
 31
0.0
  0
POLYLINE
  5
33835
  8
0
 66
     1
 10
0.0
 20
0.0
 30
0.0
  0
VERTEX
  5
342C0
  8
0
 10
4.4192462963885779
 20
5.3902260939849329
 30
0.0
  0
VERTEX
  5
342C1
  8
0
 10
4.4359056406050801
 20
5.3398693357105032
 30
0.0
  0
VERTEX
  5
342C2
  8
0
 10
4.4359931262611054
 20
5.3360994592604376
 30
0.0
  0
SEQEND
  5
342C3
  8
0
  0
LINE
  5
33836
  8
0
 10
4.4192462963885779
 20
5.3902260939849329
 30
0.0
 11
3.927493145496272
 21
5.3902260939849329
 31
0.0
  0
POLYLINE
  5
33837
  8
0
 66
     1
 10
0.0
 20
0.0
 30
0.0
  0
VERTEX
  5
342C4
  8
0
 10
4.4192462963885779
 20
5.0654665056354107
 30
0.0
  0
VERTEX
  5
342C5
  8
0
 10
4.4345354047674936
 20
5.0267768725813529
 30
0.0
  0
VERTEX
  5
342C6
  8
0
 10
4.4359931262611054
 20
5.0113399442434012
 30
0.0
  0
SEQEND
  5
342C7
  8
0
  0
LINE
  5
33838
  8
0
 10
4.4192462963885779
 20
4.95721338285139
 30
0.0
 11
3.927493145496272
 21
4.95721338285139
 31
0.0
  0
POLYLINE
  5
33839
  8
0
 66
     1
 10
0.0
 20
0.0
 30
0.0
  0
VERTEX
  5
342C8
  8
0
 10
4.4359931262611054
 20
5.0113399442434012
 30
0.0
  0
VERTEX
  5
342C9
  8
0
 10
4.4267406564797582
 20
4.9717593214821321
 30
0.0
  0
VERTEX
  5
342CA
  8
0
 10
4.4192462963885779
 20
4.95721338285139
 30
0.0
  0
SEQEND
  5
342CB
  8
0
  0
POLYLINE
  5
3383A
  8
0
 66
     1
 10
0.0
 20
0.0
 30
0.0
  0
VERTEX
  5
342CC
  8
0
 10
4.2346311207455081
 20
2.491893849099684
 30
0.0
  0
VERTEX
  5
342CD
  8
0
 10
4.234682600150812
 20
2.491880355922226
 30
0.0
  0
VERTEX
  5
342CE
  8
0
 10
4.233880709414322
 20
2.492090966822563
 30
0.0
  0
VERTEX
  5
342CF
  8
0
 10
4.2322284185017303
 20
2.49252392182103
 30
0.0
  0
VERTEX
  5
342D0
  8
0
 10
4.229860952517563
 20
2.4931419680146432
 30
0.0
  0
VERTEX
  5
342D1
  8
0
 10
4.2286765228668646
 20
2.4934499644566408
 30
0.0
  0
SEQEND
  5
342D2
  8
0
  0
ARC
  5
3383B
  8
0
 10
4.220551943483696
 20
2.472580683015364
 30
0.0
 40
0.0223949926999013
 50
68.728635935865498
 51
98.609664758113638
  0
POLYLINE
  5
3383C
  8
0
 66
     1
 10
0.0
 20
0.0
 30
0.0
  0
VERTEX
  5
342D3
  8
0
 10
4.2170406372856082
 20
2.494115823431247
 30
0.0
  0
VERTEX
  5
342D4
  8
0
 10
4.216952088308533
 20
2.4937767340151051
 30
0.0
  0
VERTEX
  5
342D5
  8
0
 10
4.217165449177104
 20
2.4934499644566408
 30
0.0
  0
SEQEND
  5
342D6
  8
0
  0
ARC
  5
3383D
  8
0
 10
4.2102745109373014
 20
2.509864458354504
 30
0.0
 40
0.0181822048715716
 50
244.5256553770287
 51
292.4080148797143
  0
ARC
  5
3383E
  8
0
 10
4.1909431454327271
 20
2.4548183685657858
 30
0.0
 40
0.040310110624575
 50
73.407498871358982
 51
106.5925011286422
  0
POLYLINE
  5
3383F
  8
0
 66
     1
 10
0.0
 20
0.0
 30
0.0
  0
VERTEX
  5
342D7
  8
0
 10
4.1794320717429656
 20
2.4934499644566408
 30
0.0
  0
VERTEX
  5
342D8
  8
0
 10
4.1768383750389031
 20
2.4927559458073358
 30
0.0
  0
VERTEX
  5
342D9
  8
0
 10
4.1738205232347196
 20
2.4922191520084231
 30
0.0
  0
VERTEX
  5
342DA
  8
0
 10
4.1708096013504781
 20
2.4919187821449902
 30
0.0
  0
VERTEX
  5
342DB
  8
0
 10
4.1681734451369152
 20
2.4918800625922799
 30
0.0
  0
VERTEX
  5
342DC
  8
0
 10
4.1661501285104414
 20
2.49209067349262
 30
0.0
  0
VERTEX
  5
342DD
  8
0
 10
4.1649040995713413
 20
2.4925236284910861
 30
0.0
  0
VERTEX
  5
342DE
  8
0
 10
4.1645646801590077
 20
2.4931413813547532
 30
0.0
  0
VERTEX
  5
342DF
  8
0
 10
4.1647208050221058
 20
2.4934499644566408
 30
0.0
  0
SEQEND
  5
342E0
  8
0
  0
LINE
  5
33840
  8
0
 10
4.1647208050221058
 20
2.4934499644566408
 30
0.0
 11
4.16482794378443
 21
2.494112596801854
 31
0.0
  0
ARC
  5
33841
  8
0
 10
4.161138107481503
 20
2.4719975800414811
 30
0.0
 40
0.0228705912791584
 50
80.533199057046446
 51
110.28331349226239
  0
LINE
  5
33842
  8
0
 10
4.1472550234549734
 20
2.491893849099684
 30
0.0
 11
4.1532097313323471
 21
2.4934499644566408
 31
0.0
  0
LINE
  5
33843
  8
0
 10
8.5659930411496603
 20
1.387734231112479
 30
0.0
 11
8.5659930411496603
 21
11.70970523082268
 31
0.0
  0
LINE
  5
33844
  8
0
 10
9.5659932490619237
 20
1.761619031963354
 30
0.0
 11
9.5659932490619237
 21
11.335820429971809
 31
0.0
  0
LINE
  5
33845
  8
0
 10
4.5506414422506412
 20
1.91636553765185
 30
0.0
 11
4.5506414422506412
 21
5.8468141727738203
 31
0.0
  0
POLYLINE
  5
33846
  8
0
 66
     1
 10
0.0
 20
0.0
 30
0.0
  0
VERTEX
  5
342E1
  8
0
 10
6.1160379832395533
 20
11.38350971906107
 30
0.0
  0
VERTEX
  5
342E2
  8
0
 10
6.1532347135397503
 20
11.390382732996761
 30
0.0
  0
VERTEX
  5
342E3
  8
0
 10
6.179295319152077
 20
11.39541950147825
 30
0.0
  0
VERTEX
  5
342E4
  8
0
 10
6.177130690824713
 20
11.394997399687741
 30
0.0
  0
SEQEND
  5
342E5
  8
0
  0
LINE
  5
33847
  8
0
 10
4.4359931262611054
 20
2.1737197380075011
 30
0.0
 11
4.4359931262611054
 21
5.9389132488374319
 31
0.0
  0
LINE
  5
33848
  8
0
 10
4.037096979343433
 20
1.983176419180178
 30
0.0
 11
4.3447892748557777
 21
1.983176419180178
 31
0.0
  0
LINE
  5
33849
  8
0
 10
4.340943132620076
 20
1.991058781455791
 30
0.0
 11
4.0409431215791356
 21
1.991058781455791
 31
0.0
  0
LINE
  5
3384A
  8
0
 10
2.869018634807218
 20
1.9760901302555809
 30
0.0
 11
2.869018634807218
 21
11.12134933167958
 31
0.0
  0
LINE
  5
3384B
  8
0
 10
4.0814431137197706
 20
2.441776961387581
 30
0.0
 11
4.3004431404794401
 21
2.441776961387581
 31
0.0
  0
LINE
  5
3384C
  8
0
 10
4.0841190161408489
 20
2.44912546316373
 30
0.0
 11
4.29776723805836
 21
2.44912546316373
 31
0.0
  0
LINE
  5
3384D
  8
0
 10
4.0814431137197706
 20
2.4303482400798111
 30
0.0
 11
4.3004431404794401
 21
2.4303482400798111
 31
0.0
  0
LINE
  5
3384E
  8
0
 10
4.1647208050221058
 20
2.492857144638279
 30
0.0
 11
4.1647208050221058
 21
2.4934499644566408
 31
0.0
  0
LINE
  5
3384F
  8
0
 10
4.217165449177104
 20
2.4928298649534151
 30
0.0
 11
4.217165449177104
 21
2.4934499644566408
 31
0.0
  0
ENDBLK
  5
33851
  8
0
  0
ENDSEC
  0
SECTION
  2
ENTITIES
  0
TEXT
  5
5D62
  8
0
 10
0.8385273229659163
 20
14.387456873730811
 30
0.0
 40
0.125
  1
SSLCX16
 41
0.7500000000000002
 51
15.0
  7
P125
 72
     2
 11
1.4054916086802021
 21
14.449956873730811
 31
0.0
 73
     2
  0
LINE
  5
5D63
  8
0
 10
-0.2026331782791868
 20
15.02676391004027
 30
0.0
 11
-0.2026331782791877
 21
15.043036763124871
 31
0.0
  0
LINE
  5
5D64
  8
0
 10
-0.0915806782791865
 20
15.02676391004027
 30
0.0
 11
-0.0915806782791873
 21
15.043036763124871
 31
0.0
  0
LINE
  5
5D65
  8
0
 10
-0.1100841825672154
 20
15.01750953504026
 30
0.0
 11
-0.1841296739911551
 21
15.01750953504026
 31
0.0
  0
LINE
  5
5D66
  8
0
 10
-0.1101077136770103
 20
14.782433554251959
 30
0.0
 11
-0.1841296739911391
 21
14.782433554251959
 31
0.0
  0
LINE
  5
5D67
  8
0
 10
-0.1841296739911551
 20
15.017509535040251
 30
0.0
 11
-0.1841296739911391
 21
14.782433554251959
 31
0.0
  0
LINE
  5
5D68
  8
0
 10
-0.1100841825672154
 20
15.01750953504026
 30
0.0
 11
-0.1101077136770103
 21
14.782433554251959
 31
0.0
  0
LINE
  5
5D69
  8
0
 10
-0.0915806782791873
 20
15.043036763124871
 30
0.0
 11
-0.2026331782791877
 21
15.043036763124871
 31
0.0
  0
LINE
  5
5D6A
  8
0
 10
-0.0915806782791865
 20
15.02676391004027
 30
0.0
 11
-0.2026331782791868
 21
15.02676391004027
 31
0.0
  0
LINE
  5
5D6B
  8
0
 10
-0.2413228106353935
 20
14.042083554251951
 30
0.0
 11
0.1443995216187821
 21
14.04208355425197
 31
0.0
  0
LINE
  5
5D6C
  8
0
 10
0.1443995216187253
 20
14.78243355425198
 30
0.0
 11
-0.2413228106354468
 21
14.782433554251959
 31
0.0
  0
LINE
  5
5D6D
  8
0
 10
0.1443995216187821
 20
14.04208355425197
 30
0.0
 11
0.1443995216187253
 21
14.782433577879729
 31
0.0
  0
LINE
  5
5D6E
  8
0
 10
-0.2413228106354468
 20
14.78243357787969
 30
0.0
 11
-0.2413228106353935
 21
14.042083554251951
 31
0.0
  0
VIEWPORT
  5
1FE31
 67
     1
  8
0
 10
5.3750003604438357
 20
4.124999881729364
 30
0.0
 40
11.637999745766949
 41
9.2053265898804302
 68
     1
 69
     1
1001
ACAD
1000
MVIEW
1002
{
1070
    16
1010
0.0
1020
0.0
1030
0.0
1010
0.0
1020
0.0
1030
1.0
1040
0.0
1040
9.2053265898804302
1040
5.3750003604438357
1040
4.124999881729364
1040
50.0
1040
0.0
1040
0.0
1070
     0
1070
   100
1070
     1
1070
     1
1070
     0
1070
     0
1070
     0
1070
     0
1040
0.0
1040
0.0
1040
0.0
1040
0.5
1040
0.5
1040
0.5
1040
0.5
1070
     0
1002
{
1002
}
1002
}
  0
VIEWPORT
  5
1FE35
 67
     1
  8
0
 10
5.3750001210866012
 20
4.1249998207167371
 30
0.0
 40
8.6000001937385626
 41
6.5999997131467811
 68
     2
 69
     2
1001
ACAD
1000
MVIEW
1002
{
1070
    16
1010
0.0
1020
0.0
1030
0.0
1010
0.0
1020
0.0
1030
1.0
1040
0.0
1040
67.553026373456689
1040
4.2749751275075978
1040
33.547831964243848
1040
50.0
1040
0.0
1040
0.0
1070
     0
1070
   100
1070
     1
1070
     1
1070
     0
1070
     0
1070
     0
1070
     0
1040
0.0
1040
0.0
1040
0.0
1040
0.5
1040
0.5
1040
0.5
1040
0.5
1070
     0
1002
{
1002
}
1002
}
  0
ENDSEC
  0
EOF
