  0
SECTION
  2
HEADER
  9
$ACADVER
  1
AC1009
  9
$INSBASE
 10
0.0
 20
0.0
 30
0.0
  9
$EXTMIN
 10
0.3351861327633969
 20
0.2666184225299517
 30
-0.0000000349181948
  9
$EXTMAX
 10
2.3807892814993181
 20
1.6269162230652929
 30
0.0000000814935746
  9
$LIMMIN
 10
0.0
 20
0.0
  9
$LIMMAX
 10
22.0
 20
17.0
  9
$ORTHOMODE
 70
     0
  9
$REGENMODE
 70
     1
  9
$FILLMODE
 70
     1
  9
$QTEXTMODE
 70
     0
  9
$MIRRTEXT
 70
     1
  9
$DRAGMODE
 70
     2
  9
$LTSCALE
 40
1.0
  9
$OSMODE
 70
     1
  9
$ATTMODE
 70
     1
  9
$TEXTSIZE
 40
0.12
  9
$TRACEWID
 40
0.05
  9
$TEXTSTYLE
  7
STANDARD
  9
$CLAYER
  8
0
  9
$CELTYPE
  6
BYLAYER
  9
$CECOLOR
 62
   256
  9
$DIMSCALE
 40
1.0
  9
$DIMASZ
 40
0.156
  9
$DIMEXO
 40
0.05
  9
$DIMDLI
 40
0.38
  9
$DIMRND
 40
0.0
  9
$DIMDLE
 40
0.0
  9
$DIMEXE
 40
0.125
  9
$DIMTP
 40
0.0
  9
$DIMTM
 40
0.0
  9
$DIMTXT
 40
0.12
  9
$DIMCEN
 40
0.09
  9
$DIMTSZ
 40
0.0
  9
$DIMTOL
 70
     0
  9
$DIMLIM
 70
     0
  9
$DIMTIH
 70
     1
  9
$DIMTOH
 70
     1
  9
$DIMSE1
 70
     0
  9
$DIMSE2
 70
     0
  9
$DIMTAD
 70
     0
  9
$DIMZIN
 70
     0
  9
$DIMBLK
  1

  9
$DIMASO
 70
     1
  9
$DIMSHO
 70
     1
  9
$DIMPOST
  1

  9
$DIMAPOST
  1

  9
$DIMALT
 70
     0
  9
$DIMALTD
 70
     2
  9
$DIMALTF
 40
25.399999999999999
  9
$DIMLFAC
 40
1.0
  9
$DIMTOFL
 70
     0
  9
$DIMTVP
 40
0.0
  9
$DIMTIX
 70
     0
  9
$DIMSOXD
 70
     0
  9
$DIMSAH
 70
     0
  9
$DIMBLK1
  1

  9
$DIMBLK2
  1

  9
$DIMSTYLE
  2
STANDARD
  9
$DIMCLRD
 70
     0
  9
$DIMCLRE
 70
     0
  9
$DIMCLRT
 70
     0
  9
$DIMTFAC
 40
1.0
  9
$DIMGAP
 40
0.06
  9
$LUNITS
 70
     2
  9
$LUPREC
 70
     3
  9
$SKETCHINC
 40
0.1
  9
$FILLETRAD
 40
0.5
  9
$AUNITS
 70
     0
  9
$AUPREC
 70
     2
  9
$MENU
  1
.
  9
$ELEVATION
 40
0.0
  9
$PELEVATION
 40
0.0
  9
$THICKNESS
 40
0.0
  9
$LIMCHECK
 70
     0
  9
$BLIPMODE
 70
     0
  9
$CHAMFERA
 40
0.5
  9
$CHAMFERB
 40
0.5
  9
$SKPOLY
 70
     0
  9
$TDCREATE
 40
2457101.7549909959
  9
$TDUPDATE
 40
2457101.5923984838
  9
$TDINDWG
 40
0.0039331713
  9
$TDUSRTIMER
 40
0.0039331713
  9
$USRTIMER
 70
     1
  9
$ANGBASE
 50
0.0
  9
$ANGDIR
 70
     0
  9
$PDMODE
 70
     0
  9
$PDSIZE
 40
-1.0
  9
$PLINEWID
 40
0.0
  9
$COORDS
 70
     1
  9
$SPLFRAME
 70
     0
  9
$SPLINETYPE
 70
     6
  9
$SPLINESEGS
 70
     8
  9
$ATTDIA
 70
     0
  9
$ATTREQ
 70
     1
  9
$HANDLING
 70
     1
  9
$HANDSEED
  5
ADFF
  9
$SURFTAB1
 70
     6
  9
$SURFTAB2
 70
     6
  9
$SURFTYPE
 70
     6
  9
$SURFU
 70
     6
  9
$SURFV
 70
     6
  9
$UCSNAME
  2

  9
$UCSORG
 10
0.0
 20
0.0
 30
0.0
  9
$UCSXDIR
 10
1.0
 20
0.0
 30
0.0
  9
$UCSYDIR
 10
0.0
 20
1.0
 30
0.0
  9
$PUCSNAME
  2

  9
$PUCSORG
 10
0.0
 20
0.0
 30
0.0
  9
$PUCSXDIR
 10
1.0
 20
0.0
 30
0.0
  9
$PUCSYDIR
 10
0.0
 20
1.0
 30
0.0
  9
$USERI1
 70
     0
  9
$USERI2
 70
     0
  9
$USERI3
 70
     0
  9
$USERI4
 70
     0
  9
$USERI5
 70
     0
  9
$USERR1
 40
0.0
  9
$USERR2
 40
0.0
  9
$USERR3
 40
0.0
  9
$USERR4
 40
0.0
  9
$USERR5
 40
0.0
  9
$WORLDVIEW
 70
     0
  9
$SHADEDGE
 70
     3
  9
$SHADEDIF
 70
    70
  9
$TILEMODE
 70
     1
  9
$MAXACTVP
 70
    64
  9
$PLIMCHECK
 70
     0
  9
$PEXTMIN
 10
1.0000000000000000E+020
 20
1.0000000000000000E+020
 30
1.0000000000000000E+020
  9
$PEXTMAX
 10
-1.0000000000000000E+020
 20
-1.0000000000000000E+020
 30
-1.0000000000000000E+020
  9
$PLIMMIN
 10
0.0
 20
0.0
  9
$PLIMMAX
 10
12.0
 20
9.0
  9
$UNITMODE
 70
     0
  9
$VISRETAIN
 70
     1
  9
$PLINEGEN
 70
     0
  9
$PSLTSCALE
 70
     1
  0
ENDSEC
  0
SECTION
  2
TABLES
  0
TABLE
  2
VPORT
 70
     1
  0
VPORT
  2
*ACTIVE
 70
     0
 10
0.0
 20
0.0
 11
1.0
 21
1.0
 12
1.3579876947838441
 22
0.9467673404989561
 13
0.0
 23
0.0
 14
0.5
 24
0.5
 15
0.5
 25
0.5
 16
0.0
 26
0.0
 36
1.0
 17
0.0
 27
0.0
 37
0.0
 40
1.7677505908357549
 41
2.0653514180024661
 42
50.0
 43
0.0
 44
0.0
 50
0.0
 51
0.0
 71
     0
 72
  2000
 73
     1
 74
     3
 75
     0
 76
     0
 77
     0
 78
     0
  0
ENDTAB
  0
TABLE
  2
LTYPE
 70
     8
  0
LTYPE
  2
CONTINUOUS
 70
     0
  3
Solid line
 72
    65
 73
     0
 40
0.0
  0
ENDTAB
  0
TABLE
  2
LAYER
 70
     3
  0
LAYER
  2
0
 70
     0
 62
     5
  6
CONTINUOUS
  0
ENDTAB
  0
TABLE
  2
STYLE
 70
     4
  0
STYLE
  2
STANDARD
 70
     0
 40
0.0
 41
1.0
 50
0.0
 71
     0
 42
0.12
  3
txt
  4

  0
STYLE
  2
P125
 70
     0
 40
0.125
 41
0.75
 50
15.0
 71
     0
 42
0.125
  3
print
  4

  0
ENDTAB
  0
TABLE
  2
VIEW
 70
     3
  0
ENDTAB
  0
TABLE
  2
UCS
 70
     0
  0
ENDTAB
  0
TABLE
  2
APPID
 70
    19
  0
APPID
  2
ACAD
 70
     0
  0
APPID
  2
ACADANNOTATIVE
 70
     0
  0
APPID
  2
ACAD_NAV_VCDISPLAY
 70
     0
  0
APPID
  2
ACAD_EXEMPT_FROM_CAD_STANDARDS
 70
     0
  0
APPID
  2
ACAD_MLEADERVER
 70
     0
  0
APPID
  2
ACAD_PSEXT
 70
     0
  0
APPID
  2
ACAD_DSTYLE_DIMJAG
 70
     0
  0
APPID
  2
ACAD_DSTYLE_DIMTALN
 70
     0
  0
APPID
  2
ACAECLAYERSTANDARD
 70
     0
  0
APPID
  2
ACAD_EXEMPT_FROM_CAD_STAND
 70
     0
  0
APPID
  2
ACAD_DSTYLE_DIMBREAK
 70
     0
  0
APPID
  2
ACAUTHENVIRON
 70
     0
  0
APPID
  2
ACDBDYNAMICBLOCKTRUENAME
 70
     0
  0
APPID
  2
ACDBDYNAMICBLOCKGUID
 70
     0
  0
APPID
  2
ACDBBLOCKREPETAG
 70
     0
  0
APPID
  2
ACAD_DSTYLE_DIMRADIAL_EXTE
 70
     0
  0
APPID
  2
GRADIENTCOLOR1ACI
 70
     0
  0
APPID
  2
GRADIENTCOLOR2ACI
 70
     0
  0
APPID
  2
ACCMTRANSPARENCY
 70
     0
  0
ENDTAB
  0
TABLE
  2
DIMSTYLE
 70
     3
  0
DIMSTYLE
  2
STANDARD
 70
     0
  3

  4

  5

  6

  7

 40
1.0
 41
0.18
 42
0.0625
 43
0.38
 44
0.18
 45
0.0
 46
0.0
 47
0.0
 48
0.0
140
0.18
141
0.09
142
0.0
143
25.399999999999999
144
1.0
145
0.0
146
1.0
147
0.09
 71
     0
 72
     0
 73
     1
 74
     1
 75
     0
 76
     0
 77
     0
 78
     0
170
     0
171
     2
172
     0
173
     0
174
     0
175
     0
176
     0
177
     0
178
     0
  0
ENDTAB
  0
ENDSEC
  0
SECTION
  2
BLOCKS
  0
BLOCK
  8
0
  2
$MODEL_SPACE
 70
     0
 10
0.0
 20
0.0
 30
0.0
  3
$MODEL_SPACE
  1

  0
ENDBLK
  5
466
  8
0
  0
BLOCK
 67
     1
  8
0
  2
$PAPER_SPACE
 70
     0
 10
0.0
 20
0.0
 30
0.0
  3
$PAPER_SPACE
  1

  0
ENDBLK
  5
464
 67
     1
  8
0
  0
ENDSEC
  0
SECTION
  2
ENTITIES
  0
LINE
  5
127
  8
0
 10
1.096920919453656
 20
0.8789826016823942
 30
0.0
 11
1.4576870051184381
 21
0.8789826016823942
 31
0.0
  0
LINE
  5
128
  8
0
 10
1.4576870051184381
 20
0.3532948768565687
 30
0.0
 11
1.096920919453656
 21
0.3532948768565687
 31
0.0
  0
ARC
  5
129
  8
0
 10
0.3689464965943652
 20
0.485683145792472
 30
0.0
 40
0.0322112576486418
 50
180.00000000000159
 51
270.00000000000171
  0
ARC
  5
12A
  8
0
 10
0.3689464965943619
 20
0.7465943327464659
 30
0.0
 40
0.0322112576486418
 50
90.000000000000185
 51
180.0
  0
LINE
  5
12B
  8
0
 10
0.5300027848375882
 20
0.4534718881438326
 30
0.0
 11
0.3689464965943666
 21
0.4534718881438304
 31
0.0
  0
LINE
  5
12C
  8
0
 10
0.3689464965943619
 20
0.7788055903951076
 30
0.0
 11
0.5300027848375826
 21
0.7788055903951099
 31
0.0
  0
LINE
  5
12D
  8
0
 10
0.8907688705023517
 20
0.3584486780803467
 30
0.0
 11
0.5300027848375735
 21
0.3584486780803411
 31
0.0
  0
LINE
  5
12E
  8
0
 10
0.5300027848375671
 20
0.8738288004586017
 30
0.0
 11
0.8907688705023517
 21
0.8738288004586072
 31
0.0
  0
ARC
  5
12F
  8
0
 10
0.9938448949780044
 20
0.5664508584300055
 30
0.0
 40
0.3982551764489448
 50
100.8819741483254
 51
105.0
  0
ARC
  5
130
  8
0
 10
0.9938448949780044
 20
0.665826620108958
 30
0.0
 40
0.398255176448945
 50
255.0
 51
269.99999999999977
  0
LINE
  5
131
  8
0
 10
1.0750715171799741
 20
0.9540123471954732
 30
0.0
 11
1.0913195504854261
 21
0.9518732530299271
 31
0.0
  0
LINE
  5
132
  8
0
 10
1.0913195504854269
 20
0.2804042255090368
 30
0.0
 11
0.9938448949780049
 21
0.267571443660013
 31
0.0
  0
ARC
  5
133
  8
0
 10
1.090478667923928
 20
0.2867913626838632
 30
0.0
 40
0.0064422515297284
 50
277.49999999999352
 51
359.9999999999992
  0
ARC
  5
134
  8
0
 10
1.090478667923928
 20
0.9454861158551002
 30
0.0
 40
0.0064422515297284
 50
359.9999999999992
 51
82.50000000000486
  0
ARC
  5
135
  8
0
 10
1.077594164864472
 20
0.9731737587199532
 30
0.0
 40
0.0193267545891851
 50
180.0
 51
262.49999999999932
  0
ARC
  5
136
  8
0
 10
0.9320143040979833
 20
1.528727224205999
 30
0.0
 40
0.0125439073146448
 50
68.129095966939417
 51
89.600822359726166
  0
ARC
  5
137
  8
0
 10
0.9395034936857536
 20
1.5475354629920131
 30
0.0
 40
0.007730701835674
 50
248.5741685324551
 51
253.15570361079
  0
ARC
  5
138
  8
0
 10
0.9185041941792523
 20
1.4976282556178699
 30
0.0
 40
0.046459065260661
 50
356.86695684033339
 51
66.184314522993986
  0
ARC
  5
139
  8
0
 10
-4.8514365935021946
 20
1.306403360808059
 30
0.0
 40
5.8193449694433683
 50
357.86591760854401
 51
1.8580610150952019
  0
ARC
  5
13A
  8
0
 10
0.9561730497072549
 20
1.089958874085672
 30
0.0
 40
0.0077112860693374
 50
302.571844831509
 51
358.05331664101629
  0
ARC
  5
13B
  8
0
 10
-4.4359266511341087
 20
1.78744288808828
 30
0.0
 40
5.5431980461159167
 50
352.28218500889329
 51
357.46058424208519
  0
ARC
  5
13C
  8
0
 10
1.0645626939003521
 20
1.041937007600108
 30
0.0
 40
0.0075709403829317
 50
171.76609852034389
 51
190.0104936543469
  0
LINE
  5
13D
  8
0
 10
1.101827927374692
 20
1.622063757349427
 30
0.0
 11
1.101827927374692
 21
1.541843375861577
 31
0.0
  0
LINE
  5
14B
  8
0
 10
0.9655165191567606
 20
1.4734497085824669
 30
0.0
 11
0.9655165191567606
 21
1.47228546606612
 31
0.0
  0
LINE
  5
156
  8
0
 10
1.4576870051184381
 20
0.8789826016823942
 30
0.0
 11
1.4576870051184381
 21
0.3532948768565687
 31
0.0
  0
LINE
  5
157
  8
0
 10
1.017537334911498
 20
0.9925177189233188
 30
0.0
 11
1.01597675503564
 21
0.9948840440774263
 31
0.0
  0
LINE
  5
158
  8
0
 10
1.0181607062031239
 20
0.9929366805840452
 30
0.0
 11
1.0165590659427881
 21
0.9952754094610995
 31
0.0
  0
ARC
  5
159
  8
0
 10
0.9938448949779981
 20
1.028442837172092
 30
0.0
 40
0.043034240218585
 50
304.40465613516437
 51
303.404656135165
  0
LINE
  5
15A
  8
0
 10
0.3367352389457221
 20
0.6432482269313037
 30
0.0
 11
0.3367352389457203
 21
0.7465943327464659
 31
0.0
  0
LINE
  5
15B
  8
0
 10
0.3367352389457244
 20
0.4856831457924712
 30
0.0
 11
0.3367352389457221
 21
0.6432482269313037
 31
0.0
  0
LINE
  5
15C
  8
0
 10
0.5300027848375671
 20
0.8738288004586017
 30
0.0
 11
0.5300027848375735
 21
0.3584486780803411
 31
0.0
  0
LINE
  5
15D
  8
0
 10
0.9979770255042001
 20
1.015121089644659
 30
0.0
 11
0.9843739884595446
 21
1.0182034334009289
 31
0.0
  0
ARC
  5
15E
  8
0
 10
0.9938448949779983
 20
1.0284428371720871
 30
0.0
 40
0.013947883705785
 50
227.2328089553269
 51
287.23280895532332
  0
ARC
  5
15F
  8
0
 10
0.9938448949779983
 20
1.0284428371720871
 30
0.0
 40
0.0139478837057844
 50
347.23280895532201
 51
47.232808955323563
  0
LINE
  5
160
  8
0
 10
1.0033158014964521
 20
1.038682240943245
 30
0.0
 11
1.007447932022653
 21
1.0253604934158169
 31
0.0
  0
LINE
  5
161
  8
0
 10
0.9843739884595446
 20
1.0182034334009289
 30
0.0
 11
0.9802418579333423
 21
1.0315251809283561
 31
0.0
  0
ARC
  5
162
  8
0
 10
0.9938448949779983
 20
1.0284428371720871
 30
0.0
 40
0.0139478837057851
 50
167.23280895532741
 51
227.2328089553269
  0
ARC
  5
163
  8
0
 10
0.9938448949779983
 20
1.0284428371720871
 30
0.0
 40
0.0139478837057845
 50
47.232808955323563
 51
107.2328089553279
  0
LINE
  5
164
  8
0
 10
0.989712764451796
 20
1.0417645846995141
 30
0.0
 11
1.0033158014964521
 21
1.038682240943245
 31
0.0
  0
ARC
  5
165
  8
0
 10
0.9938448949779983
 20
1.0284428371720871
 30
0.0
 40
0.0139478837057851
 50
107.2328089553279
 51
167.23280895532741
  0
LINE
  5
166
  8
0
 10
0.9802418579333423
 20
1.0315251809283561
 30
0.0
 11
0.989712764451796
 21
1.0417645846995141
 31
0.0
  0
LINE
  5
167
  8
0
 10
1.007447932022653
 20
1.0253604934158169
 30
0.0
 11
0.9979770255042001
 21
1.015121089644659
 31
0.0
  0
ARC
  5
168
  8
0
 10
0.9938448949779983
 20
1.0284428371720871
 30
0.0
 40
0.0139478837057847
 50
287.23280895532332
 51
347.23280895532201
  0
CIRCLE
  5
169
  8
0
 10
0.9938448949779983
 20
1.0284428371720871
 30
0.0
 40
0.0361796845909539
  0
CIRCLE
  5
16A
  8
0
 10
0.9938448949779983
 20
1.0284428371720871
 30
0.0
 40
0.040199649545504
  0
LINE
  5
16B
  8
0
 10
0.8907688705023527
 20
0.6161387392694815
 30
0.0
 11
0.8907688705023527
 21
0.9511358188153511
 31
0.0
  0
LINE
  5
16C
  8
0
 10
0.8907688705023531
 20
0.2811416597236124
 30
0.0
 11
0.8907688705023527
 21
0.6161387392694815
 31
0.0
  0
LINE
  5
16D
  8
0
 10
0.9938448949780049
 20
0.267571443660013
 30
0.0
 11
0.9938448949780044
 21
0.9077212674512846
 31
0.0
  0
LINE
  5
16E
  8
0
 10
0.993847017923478
 20
0.9077765585382193
 30
0.0
 11
0.9938448949780052
 21
0.9077212674512846
 31
0.0
  0
LINE
  5
16F
  8
0
 10
0.9243970993938301
 20
0.9576437064457843
 30
0.0
 11
0.9186543066396877
 21
0.9575434656253911
 31
0.0
  0
LINE
  5
170
  8
0
 10
1.0969209194536571
 20
0.2867913626838631
 30
0.0
 11
1.096920919453656
 21
0.9454861158551002
 31
0.0
  0
ARC
  5
172
  8
0
 10
6.8594497119659534
 20
0.4556653379426912
 30
0.0
 40
5.8830008941140504
 50
175.4481848668801
 51
175.59244822900581
  0
CIRCLE
  5
173
  8
0
 10
0.9938436590120217
 20
1.028444042006587
 30
0.0
 40
0.0489610779245401
  0
LINE
  5
174
  8
0
 10
0.9316175236578567
 20
1.011769063279744
 30
0.0
 11
0.9498227057614646
 21
0.9438263987080373
 31
0.0
  0
LINE
  5
175
  8
0
 10
1.0582674102752869
 20
0.9341886621291481
 30
0.0
 11
1.0582674102752869
 21
1.02844283717209
 31
0.0
  0
ARC
  5
176
  8
0
 10
0.9938448971260022
 20
1.028442820856428
 30
0.0
 40
0.0644225131492872
 50
0.0000145107426352
 51
194.999985489257
  0
ARC
  5
177
  8
0
 10
0.9232607598554643
 20
0.9617009527949841
 30
0.0
 40
0.0210305978449314
 50
349.82334015423572
 51
15.03218595294652
  0
LINE
  5
178
  8
0
 10
0.9243970993938251
 20
0.9576437064458016
 30
0.0
 11
0.9439604972687347
 21
0.9579851868259069
 31
0.0
  0
LINE
  5
179
  8
0
 10
0.9743407170439727
 20
1.6242890548832669
 30
0.0
 11
0.8986035258148241
 21
1.625611052473652
 31
0.0
  0
LINE
  5
17B
  8
0
 10
0.8984686064643419
 20
1.541864137613207
 30
0.0
 11
0.898603525784256
 21
1.541861782587719
 31
0.0
  0
LINE
  5
17C
  8
0
 10
0.8015827835308135
 20
1.543555285943137
 30
0.0
 11
0.8984686064643424
 21
1.541864137613207
 31
0.0
  0
LINE
  5
17D
  8
0
 10
0.8986035258148236
 20
1.625611052473652
 30
0.0
 11
0.7964328721930757
 21
1.6238276570809269
 31
0.0
  0
LINE
  5
17E
  8
0
 10
0.898603525784256
 20
1.541861782587719
 30
0.0
 11
0.9321016963432214
 21
1.541270827090093
 31
0.0
  0
POLYLINE
  5
182
  8
0
 66
     1
 10
0.0
 20
0.0
 30
0.0
  0
VERTEX
  5
ADA7
  8
0
 10
1.1003478849180559
 20
1.5354471670257921
 30
0.0
  0
VERTEX
  5
ADA8
  8
0
 10
1.100394574883282
 20
1.53581266227241
 30
0.0
  0
VERTEX
  5
ADA9
  8
0
 10
1.1011122090903249
 20
1.5418602397686469
 30
0.0
  0
SEQEND
  5
ADAA
  8
0
  0
POLYLINE
  5
183
  8
0
 66
     1
 10
0.0
 20
0.0
 30
0.0
  0
VERTEX
  5
ADAB
  8
0
 10
1.1011122090902461
 20
1.541860239768676
 30
0.0
  0
VERTEX
  5
ADAC
  8
0
 10
1.100676677831693
 20
1.547796127951137
 30
0.0
  0
VERTEX
  5
ADAD
  8
0
 10
1.100647324078537
 20
1.5481549371100509
 30
0.0
  0
SEQEND
  5
ADAE
  8
0
  0
LINE
  5
184
  8
0
 10
1.100647324078537
 20
1.622084364856615
 30
0.0
 11
0.9743407170439727
 21
1.6242890548832669
 31
0.0
  0
LINE
  5
185
  8
0
 10
0.7882799683682275
 20
1.623685347615311
 30
0.0
 11
0.7882799683682275
 21
1.5513844269814081
 31
0.0
  0
LINE
  5
186
  8
0
 10
0.7964328721930757
 20
1.6238276570809269
 30
0.0
 11
0.7882799683682275
 21
1.623685347615311
 31
0.0
  0
ARC
  5
187
  8
0
 10
0.7960106702039016
 20
1.5513844269814081
 30
0.0
 40
0.0077307018356742
 50
180.0
 51
268.99999999999579
  0
LINE
  5
188
  8
0
 10
0.7958757508534196
 20
1.543654902569068
 30
0.0
 11
0.8015827835308135
 21
1.543555285943137
 31
0.0
  0
LINE
  5
189
  8
0
 10
0.9938448949779983
 20
1.0928653524693701
 30
0.0
 11
0.994042537051872
 21
1.0928650492952301
 31
0.0
  0
POLYLINE
  5
18A
  8
0
 66
     1
 10
0.0
 20
0.0
 30
0.0
  0
VERTEX
  5
ADAF
  8
0
 10
1.058263312885823
 20
1.0291694123446871
 30
0.0
  0
VERTEX
  5
ADB0
  8
0
 10
1.0582674102752809
 20
1.028442837172086
 30
0.0
  0
VERTEX
  5
ADB1
  8
0
 10
1.058252710999362
 20
1.02706671487128
 30
0.0
  0
SEQEND
  5
ADB2
  8
0
  0
POLYLINE
  5
18B
  8
0
 66
     1
 10
0.0
 20
0.0
 30
0.0
  0
VERTEX
  5
ADB3
  8
0
 10
0.9319691622164771
 20
1.010508117423693
 30
0.0
  0
VERTEX
  5
ADB4
  8
0
 10
0.9318411077846135
 20
1.010955960638354
 30
0.0
  0
VERTEX
  5
ADB5
  8
0
 10
0.9314829493970508
 20
1.0122796623420141
 30
0.0
  0
SEQEND
  5
ADB6
  8
0
  0
LINE
  5
18C
  8
0
 10
0.9917798496459219
 20
1.092832246743888
 30
0.0
 11
0.9938448949779996
 21
1.0928653524693701
 31
0.0
  0
ARC
  5
18D
  8
0
 10
1.0984251301068431
 20
1.417196169169787
 30
0.0
 40
0.1246930266363815
 50
88.446691509753649
 51
88.765205981785101
  0
LINE
  5
18E
  8
0
 10
1.101827927374692
 20
1.622063757349427
 30
0.0
 11
1.100647324078537
 21
1.622084364856615
 31
0.0
  0
ARC
  5
568
  8
0
 10
0.933218386401692
 20
0.8499768697553038
 30
0.0
 40
0.0953070695491748
 50
49.588021603592281
 51
79.966777667303461
  0
ARC
  5
569
  8
0
 10
1.0472941885393801
 20
0.816132821151126
 30
0.0
 40
0.1185647214996662
 50
84.689648646798886
 51
116.16941420755801
  0
TEXT
  5
AD14
  8
0
 10
1.7823204467230109
 20
0.5640532977900872
 30
0.0
 40
0.125
  1
SSLGR16
 41
0.7500000000000002
 51
15.0
  7
P125
 72
     2
 11
2.3537490181515821
 21
0.6265532977900872
 31
0.0
 73
     2
  0
ENDSEC
  0
EOF
