  0
SECTION
  2
HEADER
  9
$ACADVER
  1
AC1009
  9
$INSBASE
 10
0.0
 20
0.0
 30
0.0
  9
$EXTMIN
 10
16.061592243705409
 20
47.291717170643629
 30
0.0
  9
$EXTMAX
 10
22.268962845006548
 20
56.118403292158369
 30
0.0
  9
$LIMMIN
 10
0.0
 20
0.0
  9
$LIMMAX
 10
22.0
 20
17.0
  9
$ORTHOMODE
 70
     1
  9
$REGENMODE
 70
     1
  9
$FILLMODE
 70
     1
  9
$QTEXTMODE
 70
     0
  9
$MIRRTEXT
 70
     0
  9
$DRAGMODE
 70
     2
  9
$LTSCALE
 40
0.5
  9
$OSMODE
 70
    39
  9
$ATTMODE
 70
     1
  9
$TEXTSIZE
 40
0.125
  9
$TRACEWID
 40
0.05
  9
$TEXTSTYLE
  7
P125
  9
$CLAYER
  8
0
  9
$CELTYPE
  6
BYLAYER
  9
$CECOLOR
 62
   256
  9
$DIMSCALE
 40
1.0
  9
$DIMASZ
 40
0.18
  9
$DIMEXO
 40
0.0625
  9
$DIMDLI
 40
0.38
  9
$DIMRND
 40
0.0
  9
$DIMDLE
 40
0.0
  9
$DIMEXE
 40
0.0625
  9
$DIMTP
 40
0.0
  9
$DIMTM
 40
0.0
  9
$DIMTXT
 40
0.125
  9
$DIMCEN
 40
0.0
  9
$DIMTSZ
 40
0.0
  9
$DIMTOL
 70
     0
  9
$DIMLIM
 70
     0
  9
$DIMTIH
 70
     1
  9
$DIMTOH
 70
     1
  9
$DIMSE1
 70
     0
  9
$DIMSE2
 70
     0
  9
$DIMTAD
 70
     0
  9
$DIMZIN
 70
     0
  9
$DIMBLK
  1

  9
$DIMASO
 70
     1
  9
$DIMSHO
 70
     0
  9
$DIMPOST
  1
"\X
  9
$DIMAPOST
  1
mm
  9
$DIMALT
 70
     1
  9
$DIMALTD
 70
     0
  9
$DIMALTF
 40
25.399999999999999
  9
$DIMLFAC
 40
1.0
  9
$DIMTOFL
 70
     0
  9
$DIMTVP
 40
0.0
  9
$DIMTIX
 70
     0
  9
$DIMSOXD
 70
     0
  9
$DIMSAH
 70
     0
  9
$DIMBLK1
  1

  9
$DIMBLK2
  1

  9
$DIMSTYLE
  2
STANDARD
  9
$DIMCLRD
 70
     1
  9
$DIMCLRE
 70
     1
  9
$DIMCLRT
 70
     3
  9
$DIMTFAC
 40
1.0
  9
$DIMGAP
 40
0.09
  9
$LUNITS
 70
     2
  9
$LUPREC
 70
     3
  9
$SKETCHINC
 40
0.1
  9
$FILLETRAD
 40
0.0
  9
$AUNITS
 70
     0
  9
$AUPREC
 70
     0
  9
$MENU
  1
acad
  9
$ELEVATION
 40
0.0
  9
$PELEVATION
 40
0.0
  9
$THICKNESS
 40
0.0
  9
$LIMCHECK
 70
     0
  9
$BLIPMODE
 70
     0
  9
$CHAMFERA
 40
0.015
  9
$CHAMFERB
 40
0.015
  9
$SKPOLY
 70
     0
  9
$TDCREATE
 40
2450254.6408990738
  9
$TDUPDATE
 40
2457583.4685784369
  9
$TDINDWG
 40
0.2438545833
  9
$TDUSRTIMER
 40
0.2438541782
  9
$USRTIMER
 70
     1
  9
$ANGBASE
 50
0.0
  9
$ANGDIR
 70
     0
  9
$PDMODE
 70
     0
  9
$PDSIZE
 40
0.0
  9
$PLINEWID
 40
0.0
  9
$COORDS
 70
     1
  9
$SPLFRAME
 70
     0
  9
$SPLINETYPE
 70
     6
  9
$SPLINESEGS
 70
     8
  9
$ATTDIA
 70
     0
  9
$ATTREQ
 70
     1
  9
$HANDLING
 70
     1
  9
$HANDSEED
  5
12AD1
  9
$SURFTAB1
 70
     6
  9
$SURFTAB2
 70
     6
  9
$SURFTYPE
 70
     6
  9
$SURFU
 70
     6
  9
$SURFV
 70
     6
  9
$UCSNAME
  2

  9
$UCSORG
 10
15.992242845006571
 20
47.334903235977983
 30
0.0
  9
$UCSXDIR
 10
1.0
 20
0.0
 30
0.0
  9
$UCSYDIR
 10
0.0
 20
1.0
 30
0.0
  9
$PUCSNAME
  2

  9
$PUCSORG
 10
0.0
 20
0.0
 30
0.0
  9
$PUCSXDIR
 10
1.0
 20
0.0
 30
0.0
  9
$PUCSYDIR
 10
0.0
 20
1.0
 30
0.0
  9
$USERI1
 70
     0
  9
$USERI2
 70
     0
  9
$USERI3
 70
     0
  9
$USERI4
 70
     0
  9
$USERI5
 70
     0
  9
$USERR1
 40
0.0
  9
$USERR2
 40
0.0
  9
$USERR3
 40
0.0
  9
$USERR4
 40
0.0
  9
$USERR5
 40
0.0
  9
$WORLDVIEW
 70
     0
  9
$SHADEDGE
 70
     3
  9
$SHADEDIF
 70
    70
  9
$TILEMODE
 70
     1
  9
$MAXACTVP
 70
    16
  9
$PLIMCHECK
 70
     0
  9
$PEXTMIN
 10
1.0000000000000000E+020
 20
1.0000000000000000E+020
 30
1.0000000000000000E+020
  9
$PEXTMAX
 10
-1.0000000000000000E+020
 20
-1.0000000000000000E+020
 30
-1.0000000000000000E+020
  9
$PLIMMIN
 10
0.0
 20
0.0
  9
$PLIMMAX
 10
12.0
 20
9.0
  9
$UNITMODE
 70
     0
  9
$VISRETAIN
 70
     0
  9
$PLINEGEN
 70
     0
  9
$PSLTSCALE
 70
     0
  0
ENDSEC
  0
SECTION
  2
TABLES
  0
TABLE
  2
VPORT
 70
     1
  0
VPORT
  2
*ACTIVE
 70
     0
 10
0.0
 20
0.0
 11
1.0
 21
1.0
 12
19.16527747110457
 22
51.705060136171063
 13
0.0
 23
0.0
 14
0.00001
 24
0.00001
 15
0.001
 25
0.001
 16
0.0
 26
0.0
 36
1.0
 17
0.0
 27
0.0
 37
0.0
 40
12.358540461251209
 41
2.0328467153284668
 42
50.0
 43
0.0
 44
0.0
 50
0.0
 51
0.0
 71
     0
 72
  2000
 73
     1
 74
     0
 75
     1
 76
     0
 77
     0
 78
     0
  0
ENDTAB
  0
TABLE
  2
LTYPE
 70
     3
  0
LTYPE
  2
CONTINUOUS
 70
     0
  3
Solid line
 72
    65
 73
     0
 40
0.0
  0
ENDTAB
  0
TABLE
  2
LAYER
 70
     3
  0
LAYER
  2
0
 70
     0
 62
     7
  6
CONTINUOUS
  0
ENDTAB
  0
TABLE
  2
STYLE
 70
     3
  0
STYLE
  2
STANDARD
 70
     0
 40
0.0
 41
1.0
 50
0.0
 71
     0
 42
0.2
  3
txt
  4

  0
STYLE
  2
P125
 70
     0
 40
0.125
 41
0.75
 50
15.0
 71
     0
 42
0.125
  3
print
  4

  0
ENDTAB
  0
TABLE
  2
VIEW
 70
     3
  0
VIEW
  2
ZA
 70
     0
 40
16.69316111939062
 10
11.58579084436014
 20
8.5281503560192071
 41
22.763401526441761
 11
0.0
 21
0.0
 31
1.0
 12
0.0
 22
0.0
 32
0.0
 42
50.0
 43
0.0
 44
0.0
 50
0.0
 71
     0
  0
ENDTAB
  0
TABLE
  2
UCS
 70
     0
  0
ENDTAB
  0
TABLE
  2
APPID
 70
    29
  0
APPID
  2
ACAD
 70
     0
  0
APPID
  2
ACADANNOTATIVE
 70
     0
  0
APPID
  2
ACAD_EXEMPT_FROM_CAD_STANDARDS
 70
     0
  0
APPID
  2
ACAD_NAV_VCDISPLAY
 70
     0
  0
APPID
  2
GRADIENTCOLOR1ACI
 70
     0
  0
APPID
  2
GRADIENTCOLOR2ACI
 70
     0
  0
APPID
  2
ACAD_PSEXT
 70
     0
  0
APPID
  2
ACAD_DSTYLE_DIMJAG
 70
     0
  0
APPID
  2
ACAD_DSTYLE_DIMTALN
 70
     0
  0
APPID
  2
ACAD_MLEADERVER
 70
     0
  0
APPID
  2
ACAECLAYERSTANDARD
 70
     0
  0
APPID
  2
ACAD_EXEMPT_FROM_CAD_STAND
 70
     0
  0
APPID
  2
ACAD_DSTYLE_DIMBREAK
 70
     0
  0
APPID
  2
ACAUTHENVIRON
 70
     0
  0
APPID
  2
ACDBDYNAMICBLOCKTRUENAME
 70
     0
  0
APPID
  2
ACDBDYNAMICBLOCKGUID
 70
     0
  0
APPID
  2
ACDBBLOCKREPETAG
 70
     0
  0
APPID
  2
ACAD_DSTYLE_DIMRADIAL_EXTE
 70
     0
  0
APPID
  2
ACCMTRANSPARENCY
 70
     0
  0
APPID
  2
ACAD_DIMASSOC_CALC_DIMLFAC
 70
     0
  0
APPID
  2
ACAD_DIMASSOC_DIMLFAC
 70
     0
  0
APPID
  2
ACAD_DIMASSOC_OVERRIDDEN_0
 70
     0
  0
APPID
  2
DCO15
 70
     0
  0
APPID
  2
ACAD_DSTYLE_DIMTEXT_FILL
 70
     0
  0
APPID
  2
AVE_RENDER
 70
     0
  0
APPID
  2
ACAD_DSTYLE_DIMRADIAL_EXTENSION
 70
     0
  0
APPID
  2
CONTENTBLOCKICON
 70
     0
  0
APPID
  2
ACDBBLOCKREPBTAG
 70
     0
  0
APPID
  2
ACAD_DIMASSOC_OVERRIDDEN_D
 70
     0
  0
ENDTAB
  0
TABLE
  2
DIMSTYLE
 70
     2
  0
DIMSTYLE
  2
STANDARD
 70
     0
  3

  4
mm
  5

  6

  7

 40
1.0
 41
0.18
 42
0.0625
 43
0.38
 44
0.0625
 45
0.0
 46
0.0
 47
0.0
 48
0.0
140
0.125
141
0.0
142
0.0
143
25.399999999999999
144
1.0
145
0.0
146
1.0
147
0.09
 71
     0
 72
     0
 73
     1
 74
     1
 75
     0
 76
     0
 77
     0
 78
     0
170
     1
171
     0
172
     0
173
     0
174
     0
175
     0
176
     1
177
     1
178
     3
  0
ENDTAB
  0
ENDSEC
  0
SECTION
  2
BLOCKS
  0
BLOCK
  8
0
  2
$MODEL_SPACE
 70
     0
 10
0.0
 20
0.0
 30
0.0
  3
$MODEL_SPACE
  1

  0
ENDBLK
  5
1294F
  8
0
  0
BLOCK
 67
     1
  8
0
  2
$PAPER_SPACE
 70
     0
 10
0.0
 20
0.0
 30
0.0
  3
$PAPER_SPACE
  1

  0
ENDBLK
  5
1294B
 67
     1
  8
0
  0
ENDSEC
  0
SECTION
  2
ENTITIES
  0
ARC
  5
C900
  8
0
 10
21.829279367561739
 20
50.063319206403342
 30
0.0
 40
2.5
 50
217.34685079796409
 51
239.35437897646651
  0
ARC
  5
C901
  8
0
 10
21.82927936756176
 20
48.673487265552851
 30
0.0
 40
2.5
 50
120.6456210235349
 51
142.6531492020369
  0
ARC
  5
C902
  8
0
 10
19.444346274036668
 20
48.243403235978093
 30
0.0
 40
0.5000000000000018
 50
37.346850797963313
 51
90.000000000000625
  0
ARC
  5
C903
  8
0
 10
19.444346274036651
 20
50.493403235978057
 30
0.0
 40
0.5
 50
270.00000000000102
 51
322.65314920203798
  0
LINE
  5
C904
  8
0
 10
18.654962764867861
 20
48.743402968791472
 30
0.0
 11
19.44434620584299
 21
48.743402968791472
 31
0.0
  0
LINE
  5
C905
  8
0
 10
19.44434620584299
 20
49.993403302014272
 30
0.0
 11
18.654962764867861
 21
49.993403302014272
 31
0.0
  0
LINE
  5
C906
  8
0
 10
18.654962764867861
 20
50.428403396856048
 30
0.0
 11
16.245963020505151
 21
50.428403396856048
 31
0.0
  0
LINE
  5
C907
  8
0
 10
16.245963020505151
 20
48.308403460609561
 30
0.0
 11
18.654962764867861
 21
48.308403460609561
 31
0.0
  0
ARC
  5
C908
  8
0
 10
16.245962845006598
 20
50.337403235974733
 30
0.0
 40
0.0910000000000011
 50
90.000000000052907
 51
180.0
  0
ARC
  5
C909
  8
0
 10
16.245962845006609
 20
48.399403235981367
 30
0.0
 40
0.0909999999999993
 50
180.0
 51
269.9999999999485
  0
ARC
  5
C90A
  8
0
 10
16.114911408016901
 20
49.254743412968708
 30
0.0
 40
0.0174600000000007
 50
217.1404246431126
 51
270.0000000000008
  0
ARC
  5
C90B
  8
0
 10
16.11491140801688
 20
49.48982341296869
 30
0.0
 40
0.0174600000000007
 50
90.0
 51
142.8595753568874
  0
LINE
  5
C90C
  8
0
 10
16.13750310011006
 20
49.50728342437926
 30
0.0
 11
16.114911414424469
 21
49.50728342437926
 31
0.0
  0
LINE
  5
C90D
  8
0
 10
16.114911414424469
 20
49.237283183445079
 30
0.0
 11
16.13750310011006
 21
49.237283183445079
 31
0.0
  0
ARC
  5
C90E
  8
0
 10
16.137502845006608
 20
49.254743412968708
 30
0.0
 40
0.0174599999999998
 50
270.0000000000008
 51
0.0
  0
ARC
  5
C90F
  8
0
 10
16.137502845006608
 20
49.48982341296869
 30
0.0
 40
0.0174600000000009
 50
0.0
 51
90.0
  0
ARC
  5
C910
  8
0
 10
16.270099442944741
 20
49.372283412968699
 30
0.0
 40
0.2121365979381449
 50
190.77426550904539
 51
217.14042464311069
  0
ARC
  5
C911
  8
0
 10
16.270099442944741
 20
49.372283412968699
 30
0.0
 40
0.2121365979381456
 50
142.85957535689039
 51
169.22573449095611
  0
ARC
  5
C912
  8
0
 10
16.114911408016901
 20
49.246983058987396
 30
0.0
 40
0.0174599999999998
 50
217.1404246431083
 51
270.0000000000008
  0
LINE
  5
C913
  8
0
 10
16.114911414424469
 20
49.229522846426477
 30
0.0
 11
16.13750310011006
 21
49.229522846426477
 31
0.0
  0
ARC
  5
C914
  8
0
 10
16.137502845006608
 20
49.246983058987396
 30
0.0
 40
0.0174599999999998
 50
270.0000000000008
 51
0.0
  0
ARC
  5
C915
  8
0
 10
16.270099442944741
 20
49.364523058987409
 30
0.0
 40
0.2121365979381449
 50
190.77426550904539
 51
217.14042464311041
  0
LINE
  5
C916
  8
0
 10
16.063158038950551
 20
49.411184427856377
 30
0.0
 11
16.061702535764649
 21
49.404179708775501
 31
0.0
  0
ARC
  5
C917
  8
0
 10
21.315962845006592
 20
47.43987741000533
 30
0.0
 40
0.1481602393617024
 50
225.1144510108615
 51
314.8855489891418
  0
LINE
  5
C919
  8
0
 10
21.26896285104915
 20
51.401903297568801
 30
0.0
 11
20.554962822571721
 21
51.401903297568801
 31
0.0
  0
LINE
  5
C91A
  8
0
 10
21.42051847693229
 20
47.334903559896823
 30
0.0
 11
22.081962835870609
 21
47.334903559896823
 31
0.0
  0
LINE
  5
C91B
  8
0
 10
20.554962822571721
 20
47.334903559896823
 30
0.0
 11
21.21140722593664
 21
47.334903559896823
 31
0.0
  0
ARC
  5
C91C
  8
0
 10
22.081962845006579
 20
47.432903235977967
 30
0.0
 40
0.0980000000000017
 50
269.99999999999972
 51
0.0
  0
LINE
  5
C935
  8
0
 10
18.654962764867861
 20
50.428403396856048
 30
0.0
 11
18.654962764867861
 21
48.308403460609561
 31
0.0
  0
LINE
  5
C936
  8
0
 10
16.154962685082118
 20
50.337403061433029
 30
0.0
 11
16.154962685082118
 21
48.3994032093727
 31
0.0
  0
ARC
  5
C937
  8
0
 10
16.191310865466249
 20
49.354593230742388
 30
0.0
 40
0.1329425002189528
 50
155.2894578064024
 51
163.11490201976989
  0
ARC
  5
C938
  8
0
 10
16.250014489677241
 20
49.359437935848348
 30
0.0
 40
0.1889568031344465
 50
169.70524180560679
 51
175.68921981211781
  0
ARC
  5
C939
  8
0
 10
16.098940880245021
 20
49.33976202152337
 30
0.0
 40
0.0379147894041249
 50
189.9138435762118
 51
203.22902407666621
  0
ARC
  5
C93A
  8
0
 10
16.179071458189991
 20
49.361159036260617
 30
0.0
 40
0.1205815448823388
 50
197.54550362884001
 51
212.46311610397919
  0
LINE
  5
C93B
  8
0
 10
16.077332328541289
 20
49.296436100105531
 30
0.0
 11
16.077332328541289
 21
49.321409038282688
 31
0.0
  0
ARC
  5
C93C
  8
0
 10
16.195895266081909
 20
49.39168975513256
 30
0.0
 40
0.1378279700176854
 50
197.01407796097689
 51
210.6582490549728
  0
ARC
  5
C93D
  8
0
 10
16.249985885509972
 20
49.385126018734049
 30
0.0
 40
0.188928080454269
 50
184.3106298686522
 51
190.29534173289889
  0
ARC
  5
C93E
  8
0
 10
16.240128306125229
 20
49.357075878641012
 30
0.0
 40
0.1790724351513584
 50
169.4209824675994
 51
175.56427035396879
  0
ARC
  5
C93F
  8
0
 10
16.183432109268299
 20
49.35079985983355
 30
0.0
 40
0.1255911371967933
 50
147.65084469043191
 51
161.83568939642311
  0
LINE
  5
C940
  8
0
 10
16.077332328541289
 20
49.418000829112742
 30
0.0
 11
16.077332328541289
 21
49.444772466511168
 31
0.0
  0
ARC
  5
C941
  8
0
 10
16.166425538192328
 20
49.383540643611632
 30
0.0
 40
0.1081061336905833
 50
145.50010641540101
 51
161.1791554835182
  0
ARC
  5
C942
  8
0
 10
16.089047615929669
 20
49.405601085264649
 30
0.0
 40
0.0280471727326719
 50
152.81060809754879
 51
168.20908889564541
  0
LINE
  5
C943
  8
0
 10
16.076982679247141
 20
49.417439982258358
 30
0.0
 11
16.06409962807323
 21
49.418416770974432
 31
0.0
  0
LINE
  5
C944
  8
0
 10
16.074960462607962
 20
49.325594269934527
 30
0.0
 11
16.06409962807323
 21
49.324808145682582
 31
0.0
  0
LINE
  5
C945
  8
0
 10
16.072826780589772
 20
49.410269238428747
 30
0.0
 11
16.061592243705419
 21
49.411332266148548
 31
0.0
  0
LINE
  5
C946
  8
0
 10
16.070681952033659
 20
49.334094971733712
 30
0.0
 11
16.061592243705419
 21
49.333234341675777
 31
0.0
  0
LINE
  5
C947
  8
0
 10
16.06522484174133
 20
49.393259621591952
 30
0.0
 11
16.06409962807323
 21
49.39320682220189
 31
0.0
  0
LINE
  5
C948
  8
0
 10
16.061823387701889
 20
49.373640541566587
 30
0.0
 11
16.061592243705419
 21
49.373641128226453
 31
0.0
  0
POLYLINE
  5
C949
  8
0
 66
     1
 10
0.0
 20
0.0
 30
0.0
 70
   128
  0
VERTEX
  5
12A8B
  8
0
 10
16.061930159801779
 20
49.369815519086892
 30
0.0
  0
VERTEX
  5
12A8C
  8
0
 10
16.061792881387639
 20
49.368334202865853
 30
0.0
  0
VERTEX
  5
12A8D
  8
0
 10
16.061592243705419
 20
49.365880791207879
 30
0.0
  0
SEQEND
  5
12A8E
  8
0
  0
ARC
  5
C94A
  8
0
 10
16.098940880244921
 20
49.33200168450476
 30
0.0
 40
0.0379147894040392
 50
189.9138435761995
 51
203.22902407668391
  0
ARC
  5
C94B
  8
0
 10
16.176487115863679
 20
49.352391469423999
 30
0.0
 40
0.1178139285813365
 50
197.4573391388146
 51
205.10195367615239
  0
ARC
  5
C94C
  8
0
 10
16.189409165760029
 20
49.381556271683813
 30
0.0
 40
0.1309318758685294
 50
196.85155117157251
 51
201.39475546035379
  0
ARC
  5
C94D
  8
0
 10
16.249985885509961
 20
49.37736568171546
 30
0.0
 40
0.188928080454265
 50
184.3106298686539
 51
190.2953417329006
  0
ARC
  5
C94E
  8
0
 10
16.243541679045549
 20
49.349015647429169
 30
0.0
 40
0.1824987814578258
 50
173.90166780440319
 51
175.55328110156819
  0
ARC
  5
C94F
  8
0
 10
16.089047615929729
 20
49.397840748246047
 30
0.0
 40
0.0280471727327282
 50
152.8106080975663
 51
168.2090888956329
  0
LINE
  5
C950
  8
0
 10
16.070541740320081
 20
49.410167746267838
 30
0.0
 11
16.06409962807323
 21
49.410656433955829
 31
0.0
  0
LINE
  5
C951
  8
0
 10
16.065257694695159
 20
49.317131701028167
 30
0.0
 11
16.06409962807323
 21
49.317047808663993
 31
0.0
  0
LINE
  5
C952
  8
0
 10
16.067499908792911
 20
49.403012842255258
 30
0.0
 11
16.061592243705419
 21
49.40357192912996
 31
0.0
  0
LINE
  5
C953
  8
0
 10
16.063158038950551
 20
49.325622429609233
 30
0.0
 11
16.061592243705419
 21
49.325474004657181
 31
0.0
  0
LINE
  5
C954
  8
0
 10
16.061823387701889
 20
49.365880204547992
 30
0.0
 11
16.061592243705419
 21
49.365880791207879
 31
0.0
  0
LINE
  5
C978
  8
0
 10
20.554962822571721
 20
51.401903297568801
 30
0.0
 11
20.554962822571721
 21
47.334903559896823
 31
0.0
  0
LINE
  5
C979
  8
0
 10
22.179962830432981
 20
49.083659251455167
 30
0.0
 11
22.179962830432981
 21
47.432902747801847
 31
0.0
  0
LINE
  5
C97A
  8
0
 10
22.268962838963951
 20
56.118403292158369
 30
0.0
 11
21.26896285104915
 21
56.118403292158369
 31
0.0
  0
LINE
  5
C97B
  8
0
 10
22.268962838963951
 20
56.118403292158369
 30
0.0
 11
22.268962845006548
 21
49.368403235977972
 31
0.0
  0
LINE
  5
C97C
  8
0
 10
21.26896285104915
 20
56.118403292158369
 30
0.0
 11
21.268962845006559
 21
49.368403235977972
 31
0.0
  0
ARC
  5
C97E
  8
0
 10
21.768962845006559
 20
49.368403235977972
 30
0.0
 40
0.5
 50
180.0
 51
0.0
  0
ENDSEC
  0
EOF
