  0
SECTION
  2
HEADER
  9
$ACADVER
  1
AC1009
  9
$INSBASE
 10
0.0
 20
0.0
 30
0.0
  9
$EXTMIN
 10
0.1306184727402725
 20
0.1616092442737839
 30
0.0
  9
$EXTMAX
 10
1.6825836687602991
 20
1.3817856434952309
 30
0.0
  9
$LIMMIN
 10
0.0
 20
0.0
  9
$LIMMAX
 10
34.0
 20
22.0
  9
$ORTHOMODE
 70
     0
  9
$REGENMODE
 70
     1
  9
$FILLMODE
 70
     1
  9
$QTEXTMODE
 70
     0
  9
$MIRRTEXT
 70
     1
  9
$DRAGMODE
 70
     2
  9
$LTSCALE
 40
1.0
  9
$OSMODE
 70
     1
  9
$ATTMODE
 70
     1
  9
$TEXTSIZE
 40
0.12
  9
$TRACEWID
 40
0.05
  9
$TEXTSTYLE
  7
STANDARD
  9
$CLAYER
  8
0
  9
$CELTYPE
  6
BYLAYER
  9
$CECOLOR
 62
   256
  9
$DIMSCALE
 40
1.0
  9
$DIMASZ
 40
0.156
  9
$DIMEXO
 40
0.05
  9
$DIMDLI
 40
0.38
  9
$DIMRND
 40
0.0
  9
$DIMDLE
 40
0.0
  9
$DIMEXE
 40
0.125
  9
$DIMTP
 40
0.0
  9
$DIMTM
 40
0.0
  9
$DIMTXT
 40
0.14
  9
$DIMCEN
 40
0.09
  9
$DIMTSZ
 40
0.0
  9
$DIMTOL
 70
     0
  9
$DIMLIM
 70
     0
  9
$DIMTIH
 70
     1
  9
$DIMTOH
 70
     1
  9
$DIMSE1
 70
     0
  9
$DIMSE2
 70
     0
  9
$DIMTAD
 70
     0
  9
$DIMZIN
 70
     0
  9
$DIMBLK
  1

  9
$DIMASO
 70
     1
  9
$DIMSHO
 70
     1
  9
$DIMPOST
  1

  9
$DIMAPOST
  1

  9
$DIMALT
 70
     0
  9
$DIMALTD
 70
     2
  9
$DIMALTF
 40
25.399999999999999
  9
$DIMLFAC
 40
1.0
  9
$DIMTOFL
 70
     0
  9
$DIMTVP
 40
0.0
  9
$DIMTIX
 70
     0
  9
$DIMSOXD
 70
     0
  9
$DIMSAH
 70
     0
  9
$DIMBLK1
  1

  9
$DIMBLK2
  1

  9
$DIMSTYLE
  2
STANDARD
  9
$DIMCLRD
 70
     0
  9
$DIMCLRE
 70
     0
  9
$DIMCLRT
 70
     0
  9
$DIMTFAC
 40
1.0
  9
$DIMGAP
 40
0.06
  9
$LUNITS
 70
     2
  9
$LUPREC
 70
     3
  9
$SKETCHINC
 40
0.1
  9
$FILLETRAD
 40
0.0
  9
$AUNITS
 70
     0
  9
$AUPREC
 70
     2
  9
$MENU
  1
.
  9
$ELEVATION
 40
0.0
  9
$PELEVATION
 40
0.0
  9
$THICKNESS
 40
0.0
  9
$LIMCHECK
 70
     0
  9
$BLIPMODE
 70
     0
  9
$CHAMFERA
 40
0.5
  9
$CHAMFERB
 40
0.5
  9
$SKPOLY
 70
     0
  9
$TDCREATE
 40
2457100.5246238778
  9
$TDUPDATE
 40
2457101.5558970491
  9
$TDINDWG
 40
0.0131165972
  9
$TDUSRTIMER
 40
0.0131165972
  9
$USRTIMER
 70
     1
  9
$ANGBASE
 50
0.0
  9
$ANGDIR
 70
     0
  9
$PDMODE
 70
     0
  9
$PDSIZE
 40
-1.0
  9
$PLINEWID
 40
0.0
  9
$COORDS
 70
     1
  9
$SPLFRAME
 70
     0
  9
$SPLINETYPE
 70
     6
  9
$SPLINESEGS
 70
     8
  9
$ATTDIA
 70
     0
  9
$ATTREQ
 70
     1
  9
$HANDLING
 70
     1
  9
$HANDSEED
  5
AF65
  9
$SURFTAB1
 70
     6
  9
$SURFTAB2
 70
     6
  9
$SURFTYPE
 70
     6
  9
$SURFU
 70
     6
  9
$SURFV
 70
     6
  9
$UCSNAME
  2

  9
$UCSORG
 10
0.0
 20
0.0
 30
0.0
  9
$UCSXDIR
 10
1.0
 20
0.0
 30
0.0
  9
$UCSYDIR
 10
0.0
 20
1.0
 30
0.0
  9
$PUCSNAME
  2

  9
$PUCSORG
 10
0.0
 20
0.0
 30
0.0
  9
$PUCSXDIR
 10
1.0
 20
0.0
 30
0.0
  9
$PUCSYDIR
 10
0.0
 20
1.0
 30
0.0
  9
$USERI1
 70
     0
  9
$USERI2
 70
     0
  9
$USERI3
 70
     0
  9
$USERI4
 70
     0
  9
$USERI5
 70
     0
  9
$USERR1
 40
0.0
  9
$USERR2
 40
0.0
  9
$USERR3
 40
0.0
  9
$USERR4
 40
0.0
  9
$USERR5
 40
0.0
  9
$WORLDVIEW
 70
     0
  9
$SHADEDGE
 70
     3
  9
$SHADEDIF
 70
    70
  9
$TILEMODE
 70
     1
  9
$MAXACTVP
 70
    64
  9
$PLIMCHECK
 70
     0
  9
$PEXTMIN
 10
1.0000000000000000E+020
 20
1.0000000000000000E+020
 30
1.0000000000000000E+020
  9
$PEXTMAX
 10
-1.0000000000000000E+020
 20
-1.0000000000000000E+020
 30
-1.0000000000000000E+020
  9
$PLIMMIN
 10
0.0
 20
0.0
  9
$PLIMMAX
 10
12.0
 20
9.0
  9
$UNITMODE
 70
     0
  9
$VISRETAIN
 70
     1
  9
$PLINEGEN
 70
     0
  9
$PSLTSCALE
 70
     1
  0
ENDSEC
  0
SECTION
  2
TABLES
  0
TABLE
  2
VPORT
 70
     1
  0
VPORT
  2
*ACTIVE
 70
     0
 10
0.0
 20
0.0
 11
1.0
 21
1.0
 12
0.9038661446432882
 22
0.6735199456224033
 13
0.0
 23
0.0
 14
0.5
 24
0.5
 15
0.5
 25
0.5
 16
0.0
 26
0.0
 36
1.0
 17
0.0
 27
0.0
 37
0.0
 40
1.9687896107879519
 41
2.0653514180024661
 42
50.0
 43
0.0
 44
0.0
 50
0.0
 51
0.0
 71
     0
 72
  2000
 73
     1
 74
     3
 75
     0
 76
     0
 77
     0
 78
     0
  0
ENDTAB
  0
TABLE
  2
LTYPE
 70
     1
  0
LTYPE
  2
CONTINUOUS
 70
     0
  3
Solid line
 72
    65
 73
     0
 40
0.0
  0
ENDTAB
  0
TABLE
  2
LAYER
 70
     1
  0
LAYER
  2
0
 70
     0
 62
     5
  6
CONTINUOUS
  0
ENDTAB
  0
TABLE
  2
STYLE
 70
     2
  0
STYLE
  2
STANDARD
 70
     0
 40
0.0
 41
1.0
 50
0.0
 71
     0
 42
0.12
  3
txt
  4

  0
STYLE
  2
P125
 70
     0
 40
0.125
 41
0.75
 50
15.0
 71
     0
 42
0.125
  3
print
  4

  0
ENDTAB
  0
TABLE
  2
VIEW
 70
     0
  0
ENDTAB
  0
TABLE
  2
UCS
 70
     0
  0
ENDTAB
  0
TABLE
  2
APPID
 70
    19
  0
APPID
  2
ACAD
 70
     0
  0
APPID
  2
ACADANNOTATIVE
 70
     0
  0
APPID
  2
ACAD_EXEMPT_FROM_CAD_STANDARDS
 70
     0
  0
APPID
  2
ACAD_NAV_VCDISPLAY
 70
     0
  0
APPID
  2
ACAD_MLEADERVER
 70
     0
  0
APPID
  2
ACAD_PSEXT
 70
     0
  0
APPID
  2
ACAD_DSTYLE_DIMJAG
 70
     0
  0
APPID
  2
ACAD_DSTYLE_DIMTALN
 70
     0
  0
APPID
  2
ACAECLAYERSTANDARD
 70
     0
  0
APPID
  2
ACAD_EXEMPT_FROM_CAD_STAND
 70
     0
  0
APPID
  2
ACAD_DSTYLE_DIMBREAK
 70
     0
  0
APPID
  2
ACAUTHENVIRON
 70
     0
  0
APPID
  2
ACDBDYNAMICBLOCKTRUENAME
 70
     0
  0
APPID
  2
ACDBDYNAMICBLOCKGUID
 70
     0
  0
APPID
  2
ACDBBLOCKREPETAG
 70
     0
  0
APPID
  2
ACAD_DSTYLE_DIMRADIAL_EXTE
 70
     0
  0
APPID
  2
GRADIENTCOLOR1ACI
 70
     0
  0
APPID
  2
GRADIENTCOLOR2ACI
 70
     0
  0
APPID
  2
ACCMTRANSPARENCY
 70
     0
  0
ENDTAB
  0
TABLE
  2
DIMSTYLE
 70
     1
  0
DIMSTYLE
  2
STANDARD
 70
     0
  3

  4

  5

  6

  7

 40
1.0
 41
0.18
 42
0.0625
 43
0.38
 44
0.18
 45
0.0
 46
0.0
 47
0.0
 48
0.0
140
0.18
141
0.09
142
0.0
143
25.399999999999999
144
1.0
145
0.0
146
1.0
147
0.09
 71
     0
 72
     0
 73
     1
 74
     1
 75
     0
 76
     0
 77
     0
 78
     0
170
     0
171
     2
172
     0
173
     0
174
     0
175
     0
176
     0
177
     0
178
     0
  0
ENDTAB
  0
ENDSEC
  0
SECTION
  2
BLOCKS
  0
BLOCK
  8
0
  2
$MODEL_SPACE
 70
     0
 10
0.0
 20
0.0
 30
0.0
  3
$MODEL_SPACE
  1

  0
ENDBLK
  5
564
  8
0
  0
BLOCK
 67
     1
  8
0
  2
$PAPER_SPACE
 70
     0
 10
0.0
 20
0.0
 30
0.0
  3
$PAPER_SPACE
  1

  0
ENDBLK
  5
562
 67
     1
  8
0
  0
ENDSEC
  0
SECTION
  2
ENTITIES
  0
LINE
  5
282
  8
0
 10
1.024899719648368
 20
1.054757205157246
 30
0.0
 11
1.015218862817465
 21
1.054757205157246
 31
0.0
  0
LINE
  5
283
  8
0
 10
1.015218862817465
 20
0.2210380121711474
 30
0.0
 11
1.024899719648368
 21
0.2210380121711474
 31
0.0
  0
LINE
  5
284
  8
0
 10
0.4680986248320343
 20
0.4999658060924394
 30
0.0
 11
0.4680298831102907
 21
0.5000834179657088
 31
0.0
  0
LINE
  5
285
  8
0
 10
0.4139211386803138
 20
1.0652799004011171
 30
0.0
 11
0.2953602265118625
 21
1.0652799004011171
 31
0.0
  0
LINE
  5
286
  8
0
 10
0.2953602265118625
 20
0.2105153169272754
 30
0.0
 11
0.4139211386803138
 21
0.2105153169272754
 31
0.0
  0
ARC
  5
287
  8
0
 10
0.2953602236798091
 20
0.2267040415260443
 30
0.0
 40
0.0161887231156752
 50
250.00000000000219
 51
270.0000000000008
  0
ARC
  5
288
  8
0
 10
0.2953602236798091
 20
1.0490911758023489
 30
0.0
 40
0.0161887231156749
 50
90.0
 51
109.9999999999991
  0
LINE
  5
289
  8
0
 10
0.2898233510846666
 20
1.064303580581023
 30
0.0
 11
0.1370095923952715
 21
1.008683932059578
 31
0.0
  0
LINE
  5
28A
  8
0
 10
0.1370095923952715
 20
0.2671112852688154
 30
0.0
 11
0.2898233510846666
 21
0.21149163674737
 31
0.0
  0
ARC
  5
28B
  8
0
 10
0.1403317177239501
 20
0.9995564858934432
 30
0.0
 40
0.0097132338694055
 50
109.99999999999891
 51
179.9999999999998
  0
ARC
  5
28C
  8
0
 10
0.1403317177239501
 20
0.2762387314349508
 30
0.0
 40
0.0097132338694055
 50
179.9999999999998
 51
250.00000000000119
  0
LINE
  5
292
  8
0
 10
0.853331645488744
 20
0.1616092442737839
 30
0.0
 11
1.015218862817465
 21
0.2221363719687536
 31
0.0
  0
LINE
  5
293
  8
0
 10
1.015218862817465
 20
1.0536588453596389
 30
0.0
 11
0.853331645488744
 21
1.1141859730546091
 31
0.0
  0
LINE
  5
294
  8
0
 10
0.853331645488744
 20
1.1141859730546091
 30
0.0
 11
0.7218909627767156
 21
1.0968814727640039
 31
0.0
  0
LINE
  5
295
  8
0
 10
0.4873864895154873
 20
0.2097868284856381
 30
0.0
 11
0.853331645488744
 21
0.1616092442737839
 31
0.0
  0
ARC
  5
296
  8
0
 10
0.5558292799501237
 20
0.2667372057793
 30
0.0
 40
0.089037977136214
 50
189.60714512143161
 51
219.76341348861419
  0
LINE
  5
297
  8
0
 10
1.024899719648368
 20
0.7868338557295758
 30
0.0
 11
1.037688844482388
 21
0.7868338557295758
 31
0.0
  0
LINE
  5
298
  8
0
 10
1.024899719648368
 20
0.4889613615988175
 30
0.0
 11
1.024899719648368
 21
0.7868338557295758
 31
0.0
  0
LINE
  5
299
  8
0
 10
1.037688844482388
 20
0.4889613615988175
 30
0.0
 11
1.024899719648368
 21
0.4889613615988175
 31
0.0
  0
LINE
  5
29A
  8
0
 10
1.078484434645955
 20
0.7868338557295758
 30
0.0
 11
1.0912735119936039
 21
0.7868338557295758
 31
0.0
  0
LINE
  5
29B
  8
0
 10
1.0912735119936039
 20
0.4889613615988175
 30
0.0
 11
1.0912735119936039
 21
0.7868338557295758
 31
0.0
  0
LINE
  5
29C
  8
0
 10
1.0912735119936039
 20
0.4889613615988175
 30
0.0
 11
1.078484434645955
 21
0.4889613615988175
 31
0.0
  0
LINE
  5
29D
  8
0
 10
1.078484434645955
 20
0.4889613615988175
 30
0.0
 11
1.037688844482388
 21
0.4889613615988175
 31
0.0
  0
LINE
  5
29E
  8
0
 10
1.037688844482388
 20
0.7868338557295758
 30
0.0
 11
1.078484434645955
 21
0.7868338557295758
 31
0.0
  0
LINE
  5
2A0
  8
0
 10
1.0326703421697889
 20
1.0263763810095221
 30
0.0
 11
1.0326703421697889
 21
0.7868338557295758
 31
0.0
  0
LINE
  5
2A2
  8
0
 10
1.0326703421697889
 20
0.4889613615988175
 30
0.0
 11
1.0326703421697889
 21
0.2494188363188702
 31
0.0
  0
ARC
  5
2A3
  8
0
 10
1.078484411000447
 20
0.1880129932795797
 30
0.0
 40
0.0050185041658597
 50
270.0000000000008
 51
0.0
  0
ARC
  5
2A4
  8
0
 10
1.078484411000447
 20
0.1880129932795797
 30
0.0
 40
0.0127890912613841
 50
270.0000000000008
 51
0.0
  0
LINE
  5
2A5
  8
0
 10
1.037688844482388
 20
0.1829944947300304
 30
0.0
 11
1.078484434645955
 21
0.1829944947300304
 31
0.0
  0
LINE
  5
2A6
  8
0
 10
1.037688844482388
 20
0.1752239196949812
 30
0.0
 11
1.078484434645955
 21
0.1752239196949812
 31
0.0
  0
ARC
  5
2A7
  8
0
 10
1.037688828748945
 20
0.1880129932795809
 30
0.0
 40
0.00501850416586
 50
179.99999999999011
 51
270.0000000000008
  0
ARC
  5
2A8
  8
0
 10
1.037688828748945
 20
0.1880129932795809
 30
0.0
 40
0.0127890912613841
 50
179.99999999999611
 51
270.0000000000008
  0
LINE
  5
2A9
  8
0
 10
1.0835029369585549
 20
0.1880129970426295
 30
0.0
 11
1.0835029369585549
 21
0.2108390790154762
 31
0.0
  0
LINE
  5
2AB
  8
0
 10
1.0912735119936039
 20
0.1880129970426295
 30
0.0
 11
1.0912735119936039
 21
0.2108390790154762
 31
0.0
  0
LINE
  5
2AC
  8
0
 10
1.024899719648368
 20
0.2485520913034874
 30
0.0
 11
1.024899719648368
 21
0.1880129970426295
 31
0.0
  0
LINE
  5
2AD
  8
0
 10
1.0326703421697889
 20
0.2494188363188702
 30
0.0
 11
1.0326703421697889
 21
0.1880129970426295
 31
0.0
  0
LINE
  5
2AE
  8
0
 10
1.0835029369585549
 20
0.236741043285346
 30
0.0
 11
1.0912735119936039
 21
0.236741043285346
 31
0.0
  0
LINE
  5
2AF
  8
0
 10
1.0835029369585549
 20
0.2108390790154762
 30
0.0
 11
1.0835029369585549
 21
0.236741043285346
 31
0.0
  0
LINE
  5
2B0
  8
0
 10
1.0912735119936039
 20
0.236741043285346
 30
0.0
 11
1.0912735119936039
 21
0.2108390790154762
 31
0.0
  0
LINE
  5
2B1
  8
0
 10
1.0912735119936039
 20
1.039054174043047
 30
0.0
 11
1.0835029369585549
 21
1.039054174043047
 31
0.0
  0
LINE
  5
2B2
  8
0
 10
1.0835029369585549
 20
1.039054174043047
 30
0.0
 11
1.0835029369585549
 21
1.0649561383129169
 31
0.0
  0
LINE
  5
2B4
  8
0
 10
1.0912735119936039
 20
1.0649561383129169
 30
0.0
 11
1.0912735119936039
 21
1.039054174043047
 31
0.0
  0
ARC
  5
2B5
  8
0
 10
1.078484411000447
 20
1.087782224048812
 30
0.0
 40
0.0050185041658597
 50
0.0
 51
90.0
  0
ARC
  5
2B6
  8
0
 10
1.078484411000447
 20
1.087782224048812
 30
0.0
 40
0.0127890912613841
 50
0.0
 51
90.0
  0
LINE
  5
2B7
  8
0
 10
1.0835029369585549
 20
1.0649561383129169
 30
0.0
 11
1.0835029369585549
 21
1.0877822202857641
 31
0.0
  0
LINE
  5
2B8
  8
0
 10
1.0912735119936039
 20
1.0649561383129169
 30
0.0
 11
1.0912735119936039
 21
1.0877822202857641
 31
0.0
  0
LINE
  5
2B9
  8
0
 10
1.078484434645955
 20
1.0928007225983629
 30
0.0
 11
1.037688844482388
 21
1.0928007225983629
 31
0.0
  0
LINE
  5
2BA
  8
0
 10
1.078484434645955
 20
1.1005712976334121
 30
0.0
 11
1.037688844482388
 21
1.1005712976334121
 31
0.0
  0
ARC
  5
2BB
  8
0
 10
1.037688828748945
 20
1.087782224048812
 30
0.0
 40
0.012789091261383
 50
90.0
 51
180.0
  0
ARC
  5
2BC
  8
0
 10
1.037688828748945
 20
1.087782224048812
 30
0.0
 40
0.0050185041658591
 50
90.0
 51
180.0
  0
LINE
  5
2BD
  8
0
 10
1.024899719648368
 20
1.0877822202857641
 30
0.0
 11
1.024899719648368
 21
1.0272431260249051
 31
0.0
  0
LINE
  5
2BE
  8
0
 10
1.0326703421697889
 20
1.0877822202857641
 30
0.0
 11
1.0326703421697889
 21
1.0263763810095221
 31
0.0
  0
LINE
  5
2BF
  8
0
 10
1.015218862817465
 20
1.054757205157246
 30
0.0
 11
1.015218862817465
 21
0.2210380121711474
 31
0.0
  0
LINE
  5
2C0
  8
0
 10
1.024899719648368
 20
1.0272431260249051
 30
0.0
 11
1.024899719648368
 21
0.7868338557295758
 31
0.0
  0
LINE
  5
2C1
  8
0
 10
1.024899719648368
 20
0.4889613615988175
 30
0.0
 11
1.024899719648368
 21
0.2485520913034874
 31
0.0
  0
ARC
  5
2C2
  8
0
 10
0.5796598412019108
 20
0.6384773994772974
 30
0.0
 40
0.0446145900631382
 50
321.44576731908541
 51
37.401532251736207
  0
ARC
  5
2C3
  8
0
 10
0.7938396180175441
 20
0.5441465964989242
 30
0.0
 40
0.1912342511467717
 50
159.6429508688671
 51
189.54647619275951
  0
LINE
  5
2C4
  8
0
 10
0.6052536941659552
 20
0.5124308569251849
 30
0.0
 11
0.6056734143415321
 21
0.5059655635562274
 31
0.0
  0
LINE
  5
2C5
  8
0
 10
0.6056734143415321
 20
0.5059655635562274
 30
0.0
 11
0.6019671356091152
 21
0.4058441796942211
 31
0.0
  0
LINE
  5
2C6
  8
0
 10
0.5573525429683384
 20
0.4058441796942211
 30
0.0
 11
0.5536462642359215
 21
0.5059655635562274
 31
0.0
  0
LINE
  5
2C7
  8
0
 10
0.5536462642359215
 20
0.5059655635562274
 30
0.0
 11
0.5540659844114981
 21
0.5124308569251849
 31
0.0
  0
ARC
  5
2C8
  8
0
 10
0.3654745980627394
 20
0.5441460796324029
 30
0.0
 40
0.1912395522801577
 50
350.45394793920229
 51
20.356624999171551
  0
ARC
  5
2C9
  8
0
 10
0.5796598446190238
 20
0.6384773995501634
 30
0.0
 40
0.0446145957730894
 50
142.5984734728269
 51
218.5542269563532
  0
ARC
  5
2CA
  8
0
 10
0.5796598392887269
 20
0.6372242617221912
 30
0.0
 40
0.0291850540209791
 50
103.7232224173876
 51
76.276777582613079
  0
LINE
  5
2CB
  8
0
 10
0.5579795930984151
 20
0.4005922818604271
 30
0.0
 11
0.5573525429683384
 21
0.4058441796942211
 31
0.0
  0
LINE
  5
2CC
  8
0
 10
0.6019671356091152
 20
0.4058441796942211
 30
0.0
 11
0.6013400854790386
 21
0.4005922818604271
 31
0.0
  0
ARC
  5
2CD
  8
0
 10
0.5796598392887268
 20
0.4058441768830585
 30
0.0
 40
0.0223072964789835
 50
193.6172042744584
 51
346.38279572554239
  0
POLYLINE
  5
2CE
  8
0
 66
     1
 10
0.0
 20
0.0
 30
0.0
  0
VERTEX
  5
AF1D
  8
0
 10
0.5865834651899594
 20
0.6655761714036791
 30
0.0
  0
VERTEX
  5
AF1E
  8
0
 10
0.577439169310829
 20
0.6663216243519181
 30
0.0
  0
VERTEX
  5
AF1F
  8
0
 10
0.5727362133874944
 20
0.6655761714036791
 30
0.0
  0
SEQEND
  5
AF20
  8
0
  0
ARC
  5
2CF
  8
0
 10
0.5796598392887321
 20
0.6499497271975431
 30
0.0
 40
0.0028680808669505
 50
13.341755903527201
 51
166.65824177278
  0
ARC
  5
2D0
  8
0
 10
0.571985485545403
 20
0.651769774328444
 30
0.0
 40
0.0050191415171631
 50
253.3417593113812
 51
346.65824177278552
  0
ARC
  5
2D1
  8
0
 10
0.5697245157251839
 20
0.6442135654636427
 30
0.0
 40
0.0028680808669509
 50
73.34175632993562
 51
226.65824177278029
  0
ARC
  5
2D2
  8
0
 10
0.5643111318020747
 20
0.6384774037297415
 30
0.0
 40
0.0050191415171619
 50
313.34175931136753
 51
46.658241772792458
  0
ARC
  5
2D3
  8
0
 10
0.5697245157251839
 20
0.632741241995841
 30
0.0
 40
0.0028680808669507
 50
133.3417563299495
 51
286.65824177277977
  0
ARC
  5
2D4
  8
0
 10
0.5719854855454029
 20
0.6251850331310384
 30
0.0
 40
0.005019141517163
 50
13.34175822722101
 51
106.65824177277911
  0
ARC
  5
2D5
  8
0
 10
0.5873341930320614
 20
0.6251850331310384
 30
0.0
 40
0.0050191415171629
 50
73.34175955503413
 51
166.65824177277909
  0
ARC
  5
2D6
  8
0
 10
0.5895951628522808
 20
0.632741241995841
 30
0.0
 40
0.0028680808669508
 50
253.3417559035436
 51
46.658241772775852
  0
ARC
  5
2D7
  8
0
 10
0.59500854677539
 20
0.6384774037297415
 30
0.0
 40
0.005019141517162
 50
133.3417582272107
 51
226.6582417727908
  0
ARC
  5
2D8
  8
0
 10
0.5895951628522808
 20
0.6442135654636427
 30
0.0
 40
0.0028680808669507
 50
313.34175822721619
 51
106.65824177278731
  0
ARC
  5
2D9
  8
0
 10
0.5873341930320617
 20
0.651769774328444
 30
0.0
 40
0.0050191415171629
 50
193.34175955503861
 51
286.6582417727783
  0
CIRCLE
  5
2DA
  8
0
 10
0.5796598392887321
 20
0.6384774037297415
 30
0.0
 40
0.0274061060619697
  0
ARC
  5
2DB
  8
0
 10
0.5796598392887319
 20
0.6270050802619398
 30
0.0
 40
0.0028680808669505
 50
193.34175822722139
 51
346.65824177278188
  0
LINE
  5
2DC
  8
0
 10
0.5632613212778793
 20
0.6799689763332421
 30
0.0
 11
0.5960583572995741
 21
0.6799689763332421
 31
0.0
  0
ARC
  5
2DD
  8
0
 10
0.5796600827603741
 20
0.6384770968208936
 30
0.0
 40
0.0446149688291609
 50
111.5653300086357
 51
142.59835039075239
  0
ARC
  5
2DE
  8
0
 10
0.5796597621019688
 20
0.6384773168338369
 30
0.0
 40
0.0446147030974042
 50
37.401554862955791
 51
68.434764737656835
  0
LINE
  5
2DF
  8
0
 10
0.4139211386803138
 20
0.6378976086641968
 30
0.0
 11
0.4139211386803138
 21
0.2105153169272754
 31
0.0
  0
LINE
  5
2E0
  8
0
 10
0.4139211386803138
 20
1.0652799004011171
 30
0.0
 11
0.4139211386803138
 21
0.6378976086641968
 31
0.0
  0
LINE
  5
2E1
  8
0
 10
0.1306184727402725
 20
0.6378976086641968
 30
0.0
 11
0.1306184727402725
 21
0.9995564814146367
 31
0.0
  0
LINE
  5
2E2
  8
0
 10
0.1306184727402725
 20
0.2762387359137564
 30
0.0
 11
0.1306184727402725
 21
0.6378976086641968
 31
0.0
  0
LINE
  5
2E6
  8
0
 10
0.4374271631825371
 20
0.6378968323550963
 30
0.0
 11
0.4374271631825371
 21
1.085983626438201
 31
0.0
  0
LINE
  5
2EC
  8
0
 10
0.4374271631825371
 20
1.085983626438201
 30
0.0
 11
0.4374271631825371
 21
1.0939815187387549
 31
0.0
  0
LINE
  5
2EF
  8
0
 10
0.4374271631825371
 20
1.3708588867071381
 30
0.0
 11
0.4374271631825371
 21
1.3817856434952309
 31
0.0
  0
LINE
  5
2F0
  8
0
 10
0.437427163182537
 20
1.3817856434952309
 30
0.0
 11
0.7218909627767156
 21
1.3817856434952309
 31
0.0
  0
LINE
  5
2F2
  8
0
 10
0.4139211386803138
 20
0.7485465076368911
 30
0.0
 11
0.4374271631825371
 21
0.7485465076368911
 31
0.0
  0
LINE
  5
2F3
  8
0
 10
0.4139211386803138
 20
0.7660713059484684
 30
0.0
 11
0.4374271631825371
 21
0.7660713059484684
 31
0.0
  0
LINE
  5
2F4
  8
0
 10
0.4139211386803138
 20
0.8011209263148087
 30
0.0
 11
0.4374271631825371
 21
0.8011209263148087
 31
0.0
  0
LINE
  5
2F5
  8
0
 10
0.4139211386803138
 20
0.8186457246263861
 30
0.0
 11
0.4374271631825371
 21
0.8186457246263861
 31
0.0
  0
LINE
  5
2F6
  8
0
 10
0.4680400397545644
 20
0.509723911379925
 30
0.0
 11
0.4139211386803138
 21
0.509723911379925
 31
0.0
  0
LINE
  5
2F7
  8
0
 10
0.4680400397545644
 20
0.4746742910135844
 30
0.0
 11
0.4139211386803138
 21
0.4746742910135844
 31
0.0
  0
LINE
  5
2F8
  8
0
 10
0.4680400397545644
 20
0.4571494927020074
 30
0.0
 11
0.4139211386803138
 21
0.4571494927020074
 31
0.0
  0
LINE
  5
2F9
  8
0
 10
0.4680400397545644
 20
0.5272487096915024
 30
0.0
 11
0.4139211386803138
 21
0.5272487096915024
 31
0.0
  0
LINE
  5
2FA
  8
0
 10
0.853331645488744
 20
1.1141859730546091
 30
0.0
 11
0.853331645488744
 21
0.1616092442737839
 31
0.0
  0
LINE
  5
2FB
  8
0
 10
0.4873864895154873
 20
0.5296578120981005
 30
0.0
 11
0.4873864895154873
 21
0.2097868284856381
 31
0.0
  0
LINE
  5
2FC
  8
0
 10
0.468040039754565
 20
0.5497429500005879
 30
0.0
 11
0.4680400397545637
 21
0.2518775144883799
 31
0.0
  0
ARC
  5
570
  8
0
 10
0.5796590629796263
 20
0.6378968323550963
 30
0.0
 40
0.1422318997970893
 50
180.0
 51
259.58251160601992
  0
ARC
  5
574
  8
0
 10
0.5796590629796263
 20
0.6378968323550963
 30
0.0
 40
0.1422318997970893
 50
280.41812868152641
 51
0.0
  0
LINE
  5
578
  8
0
 10
0.437427163182537
 20
0.6378968323550963
 30
0.0
 11
0.437427163182537
 21
1.3817856434952309
 31
0.0
  0
LINE
  5
579
  8
0
 10
0.7218909627767156
 20
0.6378968323550963
 30
0.0
 11
0.7218909627767156
 21
1.3817856434952309
 31
0.0
  0
LINE
  5
57A
  8
0
 10
0.292549081412018
 20
0.2107612614903593
 30
0.0
 11
0.2925490814120181
 21
1.0650339558380331
 31
0.0
  0
TEXT
  5
AE6F
  8
0
 10
1.408339112428393
 20
0.5753976086641967
 30
0.0
 40
0.125
  1
UV8
 41
0.7500000000000002
 51
15.0
  7
P125
 72
     2
 11
1.658339112428393
 21
0.6378976086641967
 31
0.0
 73
     2
  0
ENDSEC
  0
EOF
