  0
SECTION
  2
HEADER
  9
$ACADVER
  1
AC1009
  9
$INSBASE
 10
0.0
 20
0.0
 30
0.0
  9
$EXTMIN
 10
0.2350483520727002
 20
0.1733945282448424
 30
0.0
  9
$EXTMAX
 10
2.1749111594342101
 20
2.1247284194078691
 30
0.0
  9
$LIMMIN
 10
0.0
 20
0.0
  9
$LIMMAX
 10
44.0
 20
34.0
  9
$ORTHOMODE
 70
     1
  9
$REGENMODE
 70
     1
  9
$FILLMODE
 70
     1
  9
$QTEXTMODE
 70
     0
  9
$MIRRTEXT
 70
     1
  9
$DRAGMODE
 70
     2
  9
$LTSCALE
 40
1.0
  9
$OSMODE
 70
     1
  9
$ATTMODE
 70
     1
  9
$TEXTSIZE
 40
0.12
  9
$TRACEWID
 40
0.05
  9
$TEXTSTYLE
  7
STANDARD
  9
$CLAYER
  8
0
  9
$CELTYPE
  6
BYLAYER
  9
$CECOLOR
 62
   256
  9
$DIMSCALE
 40
1.0
  9
$DIMASZ
 40
0.156
  9
$DIMEXO
 40
0.05
  9
$DIMDLI
 40
0.38
  9
$DIMRND
 40
0.0
  9
$DIMDLE
 40
0.0
  9
$DIMEXE
 40
0.125
  9
$DIMTP
 40
0.0
  9
$DIMTM
 40
0.0
  9
$DIMTXT
 40
0.12
  9
$DIMCEN
 40
0.09
  9
$DIMTSZ
 40
0.0
  9
$DIMTOL
 70
     0
  9
$DIMLIM
 70
     0
  9
$DIMTIH
 70
     1
  9
$DIMTOH
 70
     1
  9
$DIMSE1
 70
     0
  9
$DIMSE2
 70
     0
  9
$DIMTAD
 70
     0
  9
$DIMZIN
 70
     0
  9
$DIMBLK
  1

  9
$DIMASO
 70
     1
  9
$DIMSHO
 70
     1
  9
$DIMPOST
  1

  9
$DIMAPOST
  1

  9
$DIMALT
 70
     0
  9
$DIMALTD
 70
     2
  9
$DIMALTF
 40
25.399999999999999
  9
$DIMLFAC
 40
1.0
  9
$DIMTOFL
 70
     0
  9
$DIMTVP
 40
0.0
  9
$DIMTIX
 70
     0
  9
$DIMSOXD
 70
     0
  9
$DIMSAH
 70
     0
  9
$DIMBLK1
  1

  9
$DIMBLK2
  1

  9
$DIMSTYLE
  2
STANDARD
  9
$DIMCLRD
 70
     0
  9
$DIMCLRE
 70
     0
  9
$DIMCLRT
 70
     0
  9
$DIMTFAC
 40
1.0
  9
$DIMGAP
 40
0.06
  9
$LUNITS
 70
     2
  9
$LUPREC
 70
     3
  9
$SKETCHINC
 40
0.1
  9
$FILLETRAD
 40
0.5
  9
$AUNITS
 70
     0
  9
$AUPREC
 70
     2
  9
$MENU
  1
.
  9
$ELEVATION
 40
0.0
  9
$PELEVATION
 40
0.0
  9
$THICKNESS
 40
0.0
  9
$LIMCHECK
 70
     0
  9
$BLIPMODE
 70
     0
  9
$CHAMFERA
 40
0.5
  9
$CHAMFERB
 40
0.5
  9
$SKPOLY
 70
     0
  9
$TDCREATE
 40
2457101.7173986109
  9
$TDUPDATE
 40
2457101.5560650001
  9
$TDINDWG
 40
0.0033864005
  9
$TDUSRTIMER
 40
0.0033864005
  9
$USRTIMER
 70
     1
  9
$ANGBASE
 50
0.0
  9
$ANGDIR
 70
     0
  9
$PDMODE
 70
     0
  9
$PDSIZE
 40
-1.0
  9
$PLINEWID
 40
0.0
  9
$COORDS
 70
     1
  9
$SPLFRAME
 70
     0
  9
$SPLINETYPE
 70
     6
  9
$SPLINESEGS
 70
     8
  9
$ATTDIA
 70
     0
  9
$ATTREQ
 70
     1
  9
$HANDLING
 70
     1
  9
$HANDSEED
  5
A59
  9
$SURFTAB1
 70
     6
  9
$SURFTAB2
 70
     6
  9
$SURFTYPE
 70
     6
  9
$SURFU
 70
     6
  9
$SURFV
 70
     6
  9
$UCSNAME
  2

  9
$UCSORG
 10
0.0
 20
0.0
 30
0.0
  9
$UCSXDIR
 10
1.0
 20
0.0
 30
0.0
  9
$UCSYDIR
 10
0.0
 20
1.0
 30
0.0
  9
$PUCSNAME
  2

  9
$PUCSORG
 10
0.0
 20
0.0
 30
0.0
  9
$PUCSXDIR
 10
1.0
 20
0.0
 30
0.0
  9
$PUCSYDIR
 10
0.0
 20
1.0
 30
0.0
  9
$USERI1
 70
     0
  9
$USERI2
 70
     0
  9
$USERI3
 70
     0
  9
$USERI4
 70
     0
  9
$USERI5
 70
     0
  9
$USERR1
 40
0.0
  9
$USERR2
 40
0.0
  9
$USERR3
 40
0.0
  9
$USERR4
 40
0.0
  9
$USERR5
 40
0.0
  9
$WORLDVIEW
 70
     0
  9
$SHADEDGE
 70
     3
  9
$SHADEDIF
 70
    70
  9
$TILEMODE
 70
     1
  9
$MAXACTVP
 70
    64
  9
$PLIMCHECK
 70
     0
  9
$PEXTMIN
 10
1.0000000000000000E+020
 20
1.0000000000000000E+020
 30
1.0000000000000000E+020
  9
$PEXTMAX
 10
-1.0000000000000000E+020
 20
-1.0000000000000000E+020
 30
-1.0000000000000000E+020
  9
$PLIMMIN
 10
0.0
 20
0.0
  9
$PLIMMAX
 10
12.0
 20
9.0
  9
$UNITMODE
 70
     0
  9
$VISRETAIN
 70
     1
  9
$PLINEGEN
 70
     0
  9
$PSLTSCALE
 70
     1
  0
ENDSEC
  0
SECTION
  2
TABLES
  0
TABLE
  2
VPORT
 70
     1
  0
VPORT
  2
*ACTIVE
 70
     0
 10
0.0
 20
0.0
 11
1.0
 21
1.0
 12
1.205474828958073
 22
1.1493988247975151
 13
0.0
 23
0.0
 14
0.5
 24
0.5
 15
0.5
 25
0.5
 16
0.0
 26
0.0
 36
1.0
 17
0.0
 27
0.0
 37
0.0
 40
2.3612528439950329
 41
2.0653514180024661
 42
50.0
 43
0.0
 44
0.0
 50
0.0
 51
0.0
 71
     0
 72
  2000
 73
     1
 74
     3
 75
     0
 76
     0
 77
     0
 78
     0
  0
ENDTAB
  0
TABLE
  2
LTYPE
 70
     1
  0
LTYPE
  2
CONTINUOUS
 70
     0
  3
Solid line
 72
    65
 73
     0
 40
0.0
  0
ENDTAB
  0
TABLE
  2
LAYER
 70
     1
  0
LAYER
  2
0
 70
     0
 62
     5
  6
CONTINUOUS
  0
ENDTAB
  0
TABLE
  2
STYLE
 70
     2
  0
STYLE
  2
STANDARD
 70
     0
 40
0.0
 41
1.0
 50
0.0
 71
     0
 42
0.12
  3
txt
  4

  0
STYLE
  2
P125
 70
     0
 40
0.125
 41
0.75
 50
15.0
 71
     0
 42
0.125
  3
print
  4

  0
ENDTAB
  0
TABLE
  2
VIEW
 70
     0
  0
ENDTAB
  0
TABLE
  2
UCS
 70
     0
  0
ENDTAB
  0
TABLE
  2
APPID
 70
    19
  0
APPID
  2
ACAD
 70
     0
  0
APPID
  2
ACADANNOTATIVE
 70
     0
  0
APPID
  2
ACAD_NAV_VCDISPLAY
 70
     0
  0
APPID
  2
ACAD_EXEMPT_FROM_CAD_STANDARDS
 70
     0
  0
APPID
  2
ACAD_MLEADERVER
 70
     0
  0
APPID
  2
ACAD_PSEXT
 70
     0
  0
APPID
  2
ACAD_DSTYLE_DIMJAG
 70
     0
  0
APPID
  2
ACAD_DSTYLE_DIMTALN
 70
     0
  0
APPID
  2
ACAECLAYERSTANDARD
 70
     0
  0
APPID
  2
ACAD_EXEMPT_FROM_CAD_STAND
 70
     0
  0
APPID
  2
ACAD_DSTYLE_DIMBREAK
 70
     0
  0
APPID
  2
ACAUTHENVIRON
 70
     0
  0
APPID
  2
ACDBDYNAMICBLOCKTRUENAME
 70
     0
  0
APPID
  2
ACDBDYNAMICBLOCKGUID
 70
     0
  0
APPID
  2
ACDBBLOCKREPETAG
 70
     0
  0
APPID
  2
ACAD_DSTYLE_DIMRADIAL_EXTE
 70
     0
  0
APPID
  2
GRADIENTCOLOR1ACI
 70
     0
  0
APPID
  2
GRADIENTCOLOR2ACI
 70
     0
  0
APPID
  2
ACCMTRANSPARENCY
 70
     0
  0
ENDTAB
  0
TABLE
  2
DIMSTYLE
 70
     1
  0
DIMSTYLE
  2
STANDARD
 70
     0
  3

  4

  5

  6

  7

 40
1.0
 41
0.18
 42
0.0625
 43
0.38
 44
0.18
 45
0.0
 46
0.0
 47
0.0
 48
0.0
140
0.18
141
0.09
142
0.0
143
25.399999999999999
144
1.0
145
0.0
146
1.0
147
0.09
 71
     0
 72
     0
 73
     1
 74
     1
 75
     0
 76
     0
 77
     0
 78
     0
170
     0
171
     2
172
     0
173
     0
174
     0
175
     0
176
     0
177
     0
178
     0
  0
ENDTAB
  0
ENDSEC
  0
SECTION
  2
BLOCKS
  0
BLOCK
  8
0
  2
$MODEL_SPACE
 70
     0
 10
0.0
 20
0.0
 30
0.0
  3
$MODEL_SPACE
  1

  0
ENDBLK
  5
819
  8
0
  0
BLOCK
 67
     1
  8
0
  2
$PAPER_SPACE
 70
     0
 10
0.0
 20
0.0
 30
0.0
  3
$PAPER_SPACE
  1

  0
ENDBLK
  5
817
 67
     1
  8
0
  0
ENDSEC
  0
SECTION
  2
ENTITIES
  0
LINE
  5
130
  8
0
 10
1.5313279781141671
 20
1.861661668778146
 30
0.0
 11
1.5216471216909939
 21
1.861661668778146
 31
0.0
  0
LINE
  5
131
  8
0
 10
1.521647121690989
 20
0.3156386112311572
 30
0.0
 11
1.5313279781141631
 21
0.3156386112311572
 31
0.0
  0
LINE
  5
132
  8
0
 10
0.7951216545239174
 20
0.6750531366555795
 30
0.0
 11
0.8079548387232636
 21
0.6750531366555795
 31
0.0
  0
LINE
  5
133
  8
0
 10
0.6911656258568487
 20
0.8561854865070721
 30
0.0
 11
0.6918736184765547
 21
0.8549694922945224
 31
0.0
  0
LINE
  5
134
  8
0
 10
0.5683741610244539
 20
1.829284222546796
 30
0.0
 11
0.4005245367392042
 21
1.829284222546796
 31
0.0
  0
LINE
  5
135
  8
0
 10
0.4005245367392042
 20
0.3480160574625088
 30
0.0
 11
0.5683741610244539
 21
0.3480160574625088
 31
0.0
  0
ARC
  5
136
  8
0
 10
0.400524536739203
 20
0.3642047805781843
 30
0.0
 40
0.0161887231156755
 50
245.0000000000033
 51
270.00000000000489
  0
ARC
  5
137
  8
0
 10
0.400524536739203
 20
1.813095499431121
 30
0.0
 40
0.0161887231156751
 50
89.999999999995936
 51
114.9999999999977
  0
LINE
  5
138
  8
0
 10
0.3936828867162555
 20
1.8277674652530369
 30
0.0
 11
0.240656595928339
 21
1.7564101339595779
 31
0.0
  0
LINE
  5
139
  8
0
 10
0.240656595928339
 20
0.4208901460497268
 30
0.0
 11
0.3936828867162555
 21
0.3495328147562674
 31
0.0
  0
ARC
  5
13A
  8
0
 10
0.2447615859421069
 20
1.7476069544664281
 30
0.0
 40
0.0097132338694049
 50
114.99999999999569
 51
179.9999999999998
  0
ARC
  5
13B
  8
0
 10
0.2447615859421069
 20
0.4296933255428765
 30
0.0
 40
0.0097132338694049
 50
179.9999999999998
 51
245.000000000005
  0
LINE
  5
13C
  8
0
 10
0.688454528803516
 20
0.831005583481602
 30
0.0
 11
0.6911656258568505
 21
0.8357013413222292
 31
0.0
  0
LINE
  5
13D
  8
0
 10
0.6911656258568505
 20
0.8964090530060113
 30
0.0
 11
0.688454528803516
 21
0.9011048108466372
 31
0.0
  0
LINE
  5
141
  8
0
 10
0.6608117700149547
 20
0.9688803577034136
 30
0.0
 11
0.6591928977033863
 21
0.9688803577034136
 31
0.0
  0
LINE
  5
142
  8
0
 10
0.6591928977033863
 20
0.9672614853918464
 30
0.0
 11
0.6575740253918191
 21
0.9672614853918464
 31
0.0
  0
LINE
  5
143
  8
0
 10
0.6536239769516024
 20
0.7735366445580338
 30
0.0
 11
0.6505928566350664
 21
0.7735366445580338
 31
0.0
  0
LINE
  5
144
  8
0
 10
0.6505928566350664
 20
0.7380833409347049
 30
0.0
 11
0.6536239769516024
 21
0.7380833409347049
 31
0.0
  0
ARC
  5
145
  8
0
 10
0.6536239769516024
 20
0.7404145170633624
 30
0.0
 40
0.0023311761286576
 50
270.0000000000008
 51
0.0
  0
ARC
  5
146
  8
0
 10
0.6536239769516024
 20
0.7712054684293764
 30
0.0
 40
0.0023311761286576
 50
0.0
 51
90.0
  0
ARC
  5
147
  8
0
 10
0.6505928566350664
 20
0.7404145170633624
 30
0.0
 40
0.002331176128658
 50
217.70974527945799
 51
270.0000000000008
  0
ARC
  5
148
  8
0
 10
0.6505928566350664
 20
0.7712054684293764
 30
0.0
 40
0.002331176128658
 50
90.0
 51
142.2902547205428
  0
ARC
  5
149
  8
0
 10
0.6705052738780704
 20
0.7558099927463693
 30
0.0
 40
0.0275010992903512
 50
201.58682961496859
 51
217.70974527946129
  0
ARC
  5
14A
  8
0
 10
0.6705052738780704
 20
0.7558099927463693
 30
0.0
 40
0.0275010992903512
 50
142.29025472053951
 51
158.41317038503109
  0
POLYLINE
  5
14B
  8
0
 66
     1
 10
0.0
 20
0.0
 30
0.0
  0
VERTEX
  5
9D2
  8
0
 10
0.6912015021119783
 20
0.7468162190090474
 30
0.0
  0
VERTEX
  5
9D3
  8
0
 10
0.6919764526424541
 20
0.7481480017758427
 30
0.0
  0
VERTEX
  5
9D4
  8
0
 10
0.6922927947167307
 20
0.7486896611884535
 30
0.0
  0
SEQEND
  5
9D5
  8
0
  0
POLYLINE
  5
14C
  8
0
 66
     1
 10
0.0
 20
0.0
 30
0.0
  0
VERTEX
  5
9D6
  8
0
 10
0.6925671825123072
 20
0.7648224943083223
 30
0.0
  0
VERTEX
  5
9D7
  8
0
 10
0.691791932577605
 20
0.7634929285057197
 30
0.0
  0
VERTEX
  5
9D8
  8
0
 10
0.6911656258568446
 20
0.7624220478606092
 30
0.0
  0
SEQEND
  5
9D9
  8
0
  0
LINE
  5
14D
  8
0
 10
0.6606540950879846
 20
0.7494662853012196
 30
0.0
 11
0.6608117700149535
 21
0.7491967591304054
 31
0.0
  0
ARC
  5
14E
  8
0
 10
0.6705052738780704
 20
0.9470255814972522
 30
0.0
 40
0.0275010992903508
 50
190.32312408754319
 51
199.48528476084959
  0
POLYLINE
  5
14F
  8
0
 66
     1
 10
0.0
 20
0.0
 30
0.0
  0
VERTEX
  5
9DA
  8
0
 10
0.6912015021119783
 20
0.9380318077599303
 30
0.0
  0
VERTEX
  5
9DB
  8
0
 10
0.6919764526424541
 20
0.9393635905267261
 30
0.0
  0
VERTEX
  5
9DC
  8
0
 10
0.6922803062963289
 20
0.9398838665350741
 30
0.0
  0
SEQEND
  5
9DD
  8
0
  0
LINE
  5
150
  8
0
 10
0.6559845875021201
 20
0.9401057600693206
 30
0.0
 11
0.6563316640305859
 21
0.9406999073052355
 31
0.0
  0
POLYLINE
  5
151
  8
0
 66
     1
 10
0.0
 20
0.0
 30
0.0
  0
VERTEX
  5
9DE
  8
0
 10
0.6925671825123072
 20
0.9560380830592057
 30
0.0
  0
VERTEX
  5
9DF
  8
0
 10
0.691791932577605
 20
0.9547085172566031
 30
0.0
  0
VERTEX
  5
9E0
  8
0
 10
0.6911656258568441
 20
0.9536376366114904
 30
0.0
  0
SEQEND
  5
9E1
  8
0
  0
POLYLINE
  5
152
  8
0
 66
     1
 10
0.0
 20
0.0
 30
0.0
  0
VERTEX
  5
9E2
  8
0
 10
0.656603737558201
 20
0.9406871069824864
 30
0.0
  0
VERTEX
  5
9E3
  8
0
 10
0.6573815401243647
 20
0.9393577520349051
 30
0.0
  0
VERTEX
  5
9E4
  8
0
 10
0.6575740253918191
 20
0.939027569812832
 30
0.0
  0
SEQEND
  5
9E5
  8
0
  0
LINE
  5
153
  8
0
 10
0.6446977005594226
 20
0.9422109387325625
 30
0.0
 11
0.6434506434393157
 21
0.9420928461058299
 31
0.0
  0
LINE
  5
154
  8
0
 10
0.6396692976258912
 20
1.1163870313932771
 30
0.0
 11
0.5940332871628015
 21
1.1163870313932771
 31
0.0
  0
LINE
  5
155
  8
0
 10
0.5940332871628015
 20
1.096151127498683
 30
0.0
 11
0.640128959818884
 21
1.096151127498683
 31
0.0
  0
LINE
  5
156
  8
0
 10
0.6396692976258912
 20
1.1736951112227669
 30
0.0
 11
0.5940332871628015
 21
1.1736951112227669
 31
0.0
  0
LINE
  5
157
  8
0
 10
0.5940332871628015
 20
1.153459207328174
 30
0.0
 11
0.6396692976258912
 21
1.153459207328174
 31
0.0
  0
LINE
  5
158
  8
0
 10
0.6396692976258912
 20
1.231003191052257
 30
0.0
 11
0.5940332871628015
 21
1.231003191052257
 31
0.0
  0
LINE
  5
159
  8
0
 10
0.5940332871628015
 20
1.210767287157664
 30
0.0
 11
0.6396692976258912
 21
1.210767287157664
 31
0.0
  0
LINE
  5
15A
  8
0
 10
0.5940332871628015
 20
1.2680753669871541
 30
0.0
 11
0.6396692976258912
 21
1.2680753669871541
 31
0.0
  0
LINE
  5
15B
  8
0
 10
0.6396692976258918
 20
1.4029274305407291
 30
0.0
 11
0.5940332871628015
 21
1.4029274305407291
 31
0.0
  0
LINE
  5
15C
  8
0
 10
0.5940332871628015
 20
1.382691526646135
 30
0.0
 11
0.6396692976258918
 21
1.382691526646135
 31
0.0
  0
LINE
  5
15D
  8
0
 10
0.6396692976258918
 20
1.46023551037022
 30
0.0
 11
0.5940332871628015
 21
1.46023551037022
 31
0.0
  0
LINE
  5
15E
  8
0
 10
0.5940332871628015
 20
1.4399996064756251
 30
0.0
 11
0.6396692976258918
 21
1.4399996064756251
 31
0.0
  0
LINE
  5
15F
  8
0
 10
0.6396692976258924
 20
1.5175435901997101
 30
0.0
 11
0.5940332871628015
 21
1.5175435901997101
 31
0.0
  0
LINE
  5
160
  8
0
 10
0.5940332871628015
 20
1.4973076863051149
 30
0.0
 11
0.6396692976258924
 21
1.4973076863051149
 31
0.0
  0
LINE
  5
161
  8
0
 10
0.6396692976258924
 20
1.5748516700291999
 30
0.0
 11
0.5940332871628015
 21
1.5748516700291999
 31
0.0
  0
LINE
  5
162
  8
0
 10
0.5940332871628015
 20
1.5546157661346069
 30
0.0
 11
0.6396692976258924
 21
1.5546157661346069
 31
0.0
  0
LINE
  5
163
  8
0
 10
0.6396692976258912
 20
1.145067840062781
 30
0.0
 11
0.5940332871628015
 21
1.145067840062781
 31
0.0
  0
LINE
  5
164
  8
0
 10
0.5940332871628015
 20
1.124831936168186
 30
0.0
 11
0.6396692976258908
 21
1.124831936168186
 31
0.0
  0
LINE
  5
165
  8
0
 10
0.6396692976258912
 20
1.202375919892271
 30
0.0
 11
0.5940332871628015
 21
1.202375919892271
 31
0.0
  0
LINE
  5
166
  8
0
 10
0.5940332871628015
 20
1.182140015997676
 30
0.0
 11
0.6396692976258912
 21
1.182140015997676
 31
0.0
  0
LINE
  5
167
  8
0
 10
0.6396692976258912
 20
1.259683999721761
 30
0.0
 11
0.5940332871628015
 21
1.259683999721761
 31
0.0
  0
LINE
  5
168
  8
0
 10
0.5940332871628015
 20
1.239448095827167
 30
0.0
 11
0.6396692976258912
 21
1.239448095827167
 31
0.0
  0
LINE
  5
169
  8
0
 10
0.6396692976258918
 20
1.374300159380742
 30
0.0
 11
0.5940332871628015
 21
1.374300159380742
 31
0.0
  0
LINE
  5
16A
  8
0
 10
0.5940332871628015
 20
1.3540642554861479
 30
0.0
 11
0.6396692976258918
 21
1.3540642554861479
 31
0.0
  0
LINE
  5
16B
  8
0
 10
0.6396692976258918
 20
1.4316082392102329
 30
0.0
 11
0.5940332871628015
 21
1.4316082392102321
 31
0.0
  0
LINE
  5
16C
  8
0
 10
0.5940332871628015
 20
1.4113723353156391
 30
0.0
 11
0.6396692976258918
 21
1.4113723353156391
 31
0.0
  0
LINE
  5
16D
  8
0
 10
0.6396692976258918
 20
1.4889163190397221
 30
0.0
 11
0.5940332871628015
 21
1.4889163190397221
 31
0.0
  0
LINE
  5
16E
  8
0
 10
0.5940332871628015
 20
1.4686804151451289
 30
0.0
 11
0.6396692976258918
 21
1.4686804151451289
 31
0.0
  0
LINE
  5
16F
  8
0
 10
0.6396692976258924
 20
1.5462243988692139
 30
0.0
 11
0.5940332871628015
 21
1.5462243988692139
 31
0.0
  0
LINE
  5
170
  8
0
 10
0.5940332871628015
 20
1.525988494974619
 30
0.0
 11
0.6396692976258924
 21
1.525988494974619
 31
0.0
  0
LINE
  5
171
  8
0
 10
0.6608117700149547
 20
0.6513117850346858
 30
0.0
 11
0.5940332871627941
 21
0.6513117850346858
 31
0.0
  0
LINE
  5
172
  8
0
 10
0.5940332871627941
 20
0.6310758811400912
 30
0.0
 11
0.6608117700149547
 21
0.6310758811400912
 31
0.0
  0
LINE
  5
173
  8
0
 10
0.6608117700149547
 20
0.7086198648641761
 30
0.0
 11
0.5940332871627941
 21
0.7086198648641761
 31
0.0
  0
LINE
  5
174
  8
0
 10
0.5940332871627941
 20
0.688383960969582
 30
0.0
 11
0.6608117700149547
 21
0.688383960969582
 31
0.0
  0
LINE
  5
175
  8
0
 10
0.6608117700149547
 20
0.7659279446936664
 30
0.0
 11
0.5940332871627941
 21
0.7659279446936664
 31
0.0
  0
LINE
  5
176
  8
0
 10
0.5940332871627941
 20
0.7456920407990717
 30
0.0
 11
0.6608117700149547
 21
0.7456920407990717
 31
0.0
  0
LINE
  5
177
  8
0
 10
0.6608117700149547
 20
0.8232360245231566
 30
0.0
 11
0.5940332871627941
 21
0.8232360245231566
 31
0.0
  0
LINE
  5
178
  8
0
 10
0.5940332871627941
 20
0.8030001206285632
 30
0.0
 11
0.6608117700149547
 21
0.8030001206285632
 31
0.0
  0
LINE
  5
179
  8
0
 10
0.6608117700149547
 20
0.9378521841821378
 30
0.0
 11
0.5940332871627941
 21
0.9378521841821378
 31
0.0
  0
LINE
  5
17A
  8
0
 10
0.5940332871627941
 20
0.9176162802875436
 30
0.0
 11
0.6608117700149547
 21
0.9176162802875436
 31
0.0
  0
LINE
  5
17B
  8
0
 10
0.6608117700149547
 20
0.9951602640116281
 30
0.0
 11
0.5940332871627941
 21
0.9951602640116281
 31
0.0
  0
LINE
  5
17C
  8
0
 10
0.5940332871627941
 20
0.974924360117034
 30
0.0
 11
0.6608117700149547
 21
0.974924360117034
 31
0.0
  0
LINE
  5
17D
  8
0
 10
0.6496170068414172
 20
1.052468343841118
 30
0.0
 11
0.5940332871627941
 21
1.052468343841118
 31
0.0
  0
LINE
  5
17E
  8
0
 10
0.5940332871627941
 20
1.0322324399465239
 30
0.0
 11
0.6586760836292469
 21
1.0322324399465239
 31
0.0
  0
LINE
  5
17F
  8
0
 10
0.6608117700149547
 20
0.6226845138746981
 30
0.0
 11
0.5940332871627941
 21
0.6226845138746981
 31
0.0
  0
LINE
  5
180
  8
0
 10
0.5940332871627941
 20
0.6024486099801046
 30
0.0
 11
0.6608117700149547
 21
0.6024486099801046
 31
0.0
  0
LINE
  5
181
  8
0
 10
0.6608117700149547
 20
0.6799925937041897
 30
0.0
 11
0.5940332871627941
 21
0.6799925937041897
 31
0.0
  0
LINE
  5
182
  8
0
 10
0.5940332871627941
 20
0.659756689809595
 30
0.0
 11
0.6608117700149547
 21
0.659756689809595
 31
0.0
  0
LINE
  5
183
  8
0
 10
0.6608117700149547
 20
0.7373006735336799
 30
0.0
 11
0.5940332871627941
 21
0.7373006735336799
 31
0.0
  0
LINE
  5
184
  8
0
 10
0.5940332871627941
 20
0.7170647696390854
 30
0.0
 11
0.6608117700149547
 21
0.7170647696390854
 31
0.0
  0
LINE
  5
185
  8
0
 10
0.6608117700149547
 20
0.7946087533631702
 30
0.0
 11
0.5940332871627941
 21
0.7946087533631702
 31
0.0
  0
LINE
  5
186
  8
0
 10
0.5940332871627941
 20
0.7743728494685757
 30
0.0
 11
0.6608117700149547
 21
0.7743728494685757
 31
0.0
  0
LINE
  5
187
  8
0
 10
0.6608117700149547
 20
0.9092249130221507
 30
0.0
 11
0.5940332871627941
 21
0.9092249130221507
 31
0.0
  0
LINE
  5
188
  8
0
 10
0.6608117700149547
 20
0.966532992851641
 30
0.0
 11
0.5940332871627941
 21
0.966532992851641
 31
0.0
  0
LINE
  5
189
  8
0
 10
0.5940332871627941
 20
0.9462970889570475
 30
0.0
 11
0.6608117700149547
 21
0.9462970889570475
 31
0.0
  0
LINE
  5
18A
  8
0
 10
0.6608117700149547
 20
1.0238410726811309
 30
0.0
 11
0.5940332871627941
 21
1.0238410726811309
 31
0.0
  0
LINE
  5
18B
  8
0
 10
0.5940332871627941
 20
1.003605168786537
 30
0.0
 11
0.6608117700149547
 21
1.003605168786537
 31
0.0
  0
LINE
  5
18C
  8
0
 10
0.6419694721878433
 20
1.0811491525106209
 30
0.0
 11
0.5940332871627941
 21
1.0811491525106209
 31
0.0
  0
LINE
  5
18D
  8
0
 10
0.5940332871627941
 20
1.0609132486160271
 30
0.0
 11
0.6467728213460824
 21
1.0609132486160271
 31
0.0
  0
LINE
  5
18E
  8
0
 10
1.359759890534239
 20
0.2531525229513434
 30
0.0
 11
1.521647121690991
 21
0.3136796784850669
 31
0.0
  0
LINE
  5
18F
  8
0
 10
1.521647121690991
 20
1.863620601524238
 30
0.0
 11
1.359759890534239
 21
1.9241477570579619
 31
0.0
  0
LINE
  5
190
  8
0
 10
1.359759890534239
 20
1.9241477570579619
 30
0.0
 11
0.9634437599393974
 21
1.8719717486309779
 31
0.0
  0
LINE
  5
191
  8
0
 10
0.709725723552033
 20
0.3387311445516937
 30
0.0
 11
1.359759890534239
 21
0.2531525229513434
 31
0.0
  0
ARC
  5
192
  8
0
 10
0.7790651343625454
 20
0.3945863813783326
 30
0.0
 40
0.0890379771362139
 50
189.17221789690419
 51
218.85261725273131
  0
CIRCLE
  5
193
  8
0
 10
1.491804499249602
 20
0.2329427172936247
 30
0.0
 40
0.0097132338694049
  0
LINE
  5
194
  8
0
 10
1.559101021241464
 20
0.4018883632635638
 30
0.0
 11
1.5668716083369889
 21
0.401888363263565
 31
0.0
  0
LINE
  5
195
  8
0
 10
1.559101021241466
 20
0.4410487529456312
 30
0.0
 11
1.559101021241464
 21
0.4018883632635638
 31
0.0
  0
LINE
  5
196
  8
0
 10
1.559101021241466
 20
0.4410487529456312
 30
0.0
 11
1.5668716083369889
 21
0.4410487529456312
 31
0.0
  0
LINE
  5
197
  8
0
 10
1.5668716083369889
 20
0.4410487529456312
 30
0.0
 11
1.5668716083369889
 21
0.401888363263565
 31
0.0
  0
LINE
  5
198
  8
0
 10
1.5668716083369889
 20
0.401888363263565
 30
0.0
 11
1.5668716083369889
 21
0.2110069974718858
 31
0.0
  0
LINE
  5
199
  8
0
 10
1.559101021241464
 20
0.4018883632635638
 30
0.0
 11
1.559101021241464
 21
0.2110069974718852
 31
0.0
  0
LINE
  5
19A
  8
0
 10
1.469787835812284
 20
0.2534772352547543
 30
0.0
 11
1.469787835812284
 21
0.2548784371153653
 31
0.0
  0
LINE
  5
19B
  8
0
 10
1.469787835812284
 20
0.2548784371153653
 30
0.0
 11
1.471189037672894
 21
0.2548784371153653
 31
0.0
  0
ARC
  5
19C
  8
0
 10
1.554082517075605
 20
0.2110069974718858
 30
0.0
 40
0.0127890912613836
 50
270.0000000000008
 51
0.0
  0
ARC
  5
19D
  8
0
 10
1.554082517075605
 20
0.2110069974718858
 30
0.0
 40
0.0050185041658597
 50
270.0000000000008
 51
359.99999999999409
  0
LINE
  5
19E
  8
0
 10
1.539098565209688
 20
0.1982179062105023
 30
0.0
 11
1.554082517075605
 21
0.1982179062105023
 31
0.0
  0
LINE
  5
19F
  8
0
 10
1.539098565209688
 20
0.2059884933060261
 30
0.0
 11
1.554082517075605
 21
0.2059884933060261
 31
0.0
  0
ARC
  5
1A0
  8
0
 10
1.554082517075605
 20
0.3576986521460538
 30
0.0
 40
0.0127890912613836
 50
270.0000000000008
 51
293.10423247312491
  0
ARC
  5
1A1
  8
0
 10
1.554082517075605
 20
0.3576986521460538
 30
0.0
 40
0.0050185041658591
 50
270.0000000000008
 51
0.0000000000002036
  0
LINE
  5
1A2
  8
0
 10
1.539098565209688
 20
0.3526801479801947
 30
0.0
 11
1.554082517075605
 21
0.3526801479801947
 31
0.0
  0
LINE
  5
1A3
  8
0
 10
1.539098565209688
 20
0.3449095608846703
 30
0.0
 11
1.554082517075605
 21
0.3449095608846703
 31
0.0
  0
LINE
  5
1A4
  8
0
 10
1.531327978114168
 20
1.2644154224843569
 30
0.0
 11
1.539098565209692
 21
1.2644154224843569
 31
0.0
  0
LINE
  5
1A5
  8
0
 10
1.531327978114168
 20
1.8372573360437681
 30
0.0
 11
1.539098565209692
 21
1.8372573360437681
 31
0.0
  0
LINE
  5
1A6
  8
0
 10
1.539098565209692
 20
1.8372573360437681
 30
0.0
 11
1.539098565209692
 21
1.2644154224843569
 31
0.0
  0
LINE
  5
1A7
  8
0
 10
1.5313279781141671
 20
0.912884857524946
 30
0.0
 11
1.5390985652096909
 21
0.912884857524946
 31
0.0
  0
LINE
  5
1A8
  8
0
 10
1.5390985652096909
 20
0.9354488668772018
 30
0.0
 11
1.5390985652096909
 21
0.912884857524946
 31
0.0
  0
LINE
  5
1A9
  8
0
 10
1.539098565209692
 20
1.2644154224843569
 30
0.0
 11
1.539098565209692
 21
1.241851413132101
 31
0.0
  0
LINE
  5
1AA
  8
0
 10
1.5313279781141631
 20
0.3367461516980026
 30
0.0
 11
1.5390985652096889
 21
0.3367461516980026
 31
0.0
  0
LINE
  5
1AB
  8
0
 10
1.5390985652096909
 20
0.912884857524946
 30
0.0
 11
1.5390985652096889
 21
0.3367461516980026
 31
0.0
  0
LINE
  5
1AC
  8
0
 10
1.5313279781141671
 20
1.241851413132101
 30
0.0
 11
1.544117069375551
 21
1.241851413132101
 31
0.0
  0
LINE
  5
1AD
  8
0
 10
1.5441170693755499
 20
0.9354488668772018
 30
0.0
 11
1.531327978114166
 21
0.9354488668772018
 31
0.0
  0
LINE
  5
1AE
  8
0
 10
1.584912651627052
 20
0.935448866877201
 30
0.0
 11
1.5441170693755499
 21
0.9354488668772018
 31
0.0
  0
LINE
  5
1AF
  8
0
 10
1.544117069375551
 20
1.241851413132101
 30
0.0
 11
1.584912651627052
 21
1.241851413132101
 31
0.0
  0
LINE
  5
1B0
  8
0
 10
1.584912651627052
 20
1.241851413132101
 30
0.0
 11
1.5977017428884359
 21
1.241851413132101
 31
0.0
  0
LINE
  5
1B1
  8
0
 10
1.597701742888435
 20
0.935448866877201
 30
0.0
 11
1.5977017428884359
 21
1.241851413132101
 31
0.0
  0
LINE
  5
1B2
  8
0
 10
1.597701742888435
 20
0.935448866877201
 30
0.0
 11
1.584912651627052
 21
0.935448866877201
 31
0.0
  0
LINE
  5
1B3
  8
0
 10
1.5313279781141631
 20
0.2598423096825486
 30
0.0
 11
1.539098565209688
 21
0.2598423096825486
 31
0.0
  0
LINE
  5
1B4
  8
0
 10
1.5313279781141631
 20
0.3326076393729352
 30
0.0
 11
1.5313279781141631
 21
0.2598423096825486
 31
0.0
  0
LINE
  5
1B5
  8
0
 10
1.5390985652096889
 20
0.3367461516980026
 30
0.0
 11
1.539098565209688
 21
0.2598423096825486
 31
0.0
  0
LINE
  5
1B6
  8
0
 10
1.458478724093625
 20
0.2421681235360951
 30
0.0
 11
1.4722676166923161
 21
0.2559570161347864
 31
0.0
  0
LINE
  5
1B7
  8
0
 10
1.4722676166923161
 20
0.2559570161347864
 30
0.0
 11
1.5263094739483041
 21
0.2559570161347864
 31
0.0
  0
LINE
  5
1B8
  8
0
 10
1.5263094739483041
 20
0.1733945282448424
 30
0.0
 11
1.4722676166923161
 21
0.1733945282448429
 31
0.0
  0
LINE
  5
1B9
  8
0
 10
1.4722676166923161
 20
0.1733945282448429
 30
0.0
 11
1.458478724093625
 21
0.1871834208435337
 31
0.0
  0
LINE
  5
1BA
  8
0
 10
1.458478724093625
 20
0.1871834208435337
 30
0.0
 11
1.458478724093625
 21
0.2421681235360951
 31
0.0
  0
CIRCLE
  5
1BB
  8
0
 10
1.491804499249602
 20
0.2329427172936247
 30
0.0
 40
0.0101179519472976
  0
LINE
  5
1BC
  8
0
 10
1.539098565209688
 20
0.1733945282448424
 30
0.0
 11
1.5263094739483041
 21
0.1733945282448424
 31
0.0
  0
LINE
  5
1BD
  8
0
 10
1.5263094739483041
 20
0.2559570161347864
 30
0.0
 11
1.539098565209688
 21
0.2559570161347864
 31
0.0
  0
LINE
  5
1BE
  8
0
 10
1.539098565209688
 20
0.2559570161347864
 30
0.0
 11
1.539098565209688
 21
0.1733945282448424
 31
0.0
  0
ARC
  5
1BF
  8
0
 10
1.584912651627052
 20
1.817993701988877
 30
0.0
 40
0.0050185041658591
 50
0.0000000000004071
 51
90.0
  0
ARC
  5
1C0
  8
0
 10
1.584912651627052
 20
1.817993701988877
 30
0.0
 40
0.0127890912613836
 50
0.0000000000002036
 51
90.0
  0
LINE
  5
1C1
  8
0
 10
1.584912651627052
 20
1.8307827932502601
 30
0.0
 11
1.544117069375551
 21
1.8307827932502601
 31
0.0
  0
LINE
  5
1C2
  8
0
 10
1.584912651627052
 20
1.823012206154736
 30
0.0
 11
1.544117069375551
 21
1.823012206154736
 31
0.0
  0
LINE
  5
1C3
  8
0
 10
1.5899311557929121
 20
1.769292980879289
 30
0.0
 11
1.5899311557929121
 21
1.817993701988877
 31
0.0
  0
LINE
  5
1C4
  8
0
 10
1.5977017428884359
 20
1.7692929808792881
 30
0.0
 11
1.5977017428884359
 21
1.817993701988877
 31
0.0
  0
LINE
  5
1C5
  8
0
 10
1.5977017428884359
 20
1.7692929808792881
 30
0.0
 11
1.5899311557929121
 21
1.769292980879289
 31
0.0
  0
ARC
  5
1C6
  8
0
 10
1.544117069375551
 20
1.817993701988877
 30
0.0
 40
0.0127890912613832
 50
90.0
 51
113.1042324731241
  0
ARC
  5
1C7
  8
0
 10
1.544117069375551
 20
1.817993701988877
 30
0.0
 40
0.0050185041658591
 50
90.0
 51
179.9999999999992
  0
LINE
  5
1C8
  8
0
 10
1.5977017428884359
 20
1.7545976678626449
 30
0.0
 11
1.5899311557929121
 21
1.7545976678626449
 31
0.0
  0
LINE
  5
1C9
  8
0
 10
1.5899311557929121
 20
1.7545976678626449
 30
0.0
 11
1.5899311557929121
 21
1.769292980879289
 31
0.0
  0
LINE
  5
1CA
  8
0
 10
1.5977017428884359
 20
1.7545976678626449
 30
0.0
 11
1.5977017428884359
 21
1.7692929808792881
 31
0.0
  0
LINE
  5
1CB
  8
0
 10
1.5313279781141631
 20
0.2598423096825486
 30
0.0
 11
1.5313279781141631
 21
0.2559570161347864
 31
0.0
  0
LINE
  5
1CC
  8
0
 10
1.539098565209688
 20
0.2598423096825486
 30
0.0
 11
1.539098565209688
 21
0.2559570161347864
 31
0.0
  0
LINE
  5
1CD
  8
0
 10
1.5313279781141671
 20
1.861661668778146
 30
0.0
 11
1.5313279781141631
 21
0.3326076393729352
 31
0.0
  0
CIRCLE
  5
1CE
  8
0
 10
0.8014753142683513
 20
1.0847011614116371
 30
0.0
 40
0.0330615902000384
  0
POLYLINE
  5
1CF
  8
0
 66
     1
 10
0.0
 20
0.0
 30
0.0
  0
VERTEX
  5
9E6
  8
0
 10
0.7741709970865865
 20
0.6917402037265383
 30
0.0
  0
VERTEX
  5
9E7
  8
0
 10
0.7714398415635897
 20
0.7015619001804938
 30
0.0
  0
VERTEX
  5
9E8
  8
0
 10
0.7712823418537133
 20
0.7046459794851691
 30
0.0
  0
SEQEND
  5
9E9
  8
0
  0
LINE
  5
1D0
  8
0
 10
0.7712823418537133
 20
0.7046459794851691
 30
0.0
 11
0.7643938173261931
 21
0.8952313160607003
 31
0.0
  0
LINE
  5
1D1
  8
0
 10
0.7643938173261931
 20
0.8952313160607003
 30
0.0
 11
0.7656980704682344
 21
0.9086750480871337
 31
0.0
  0
ARC
  5
1D2
  8
0
 10
0.5205045336106303
 20
0.9659580428685158
 30
0.0
 40
0.2517959729778558
 50
346.850206810592
 51
18.302729732390858
  0
ARC
  5
1D3
  8
0
 10
0.8015708497426274
 20
1.08865001191299
 30
0.0
 40
0.0605582149961242
 50
132.8979246920442
 51
226.0771559343882
  0
ARC
  5
1D4
  8
0
 10
0.8015389082732674
 20
1.088649982400675
 30
0.0
 40
0.0605604826478961
 50
313.9251118988368
 51
47.099807474729822
  0
ARC
  5
1D5
  8
0
 10
1.0825647186133951
 20
0.9659600140295315
 30
0.0
 40
0.2517537649878674
 50
161.6945653812225
 51
193.1524977299627
  0
LINE
  5
1D6
  8
0
 10
0.8374149867512658
 20
0.908675049566834
 30
0.0
 11
0.8387192402390749
 21
0.8952313160606991
 31
0.0
  0
LINE
  5
1D7
  8
0
 10
0.8387192402390749
 20
0.8952313160606991
 30
0.0
 11
0.831830715711553
 21
0.7046459794851691
 31
0.0
  0
POLYLINE
  5
1D8
  8
0
 66
     1
 10
0.0
 20
0.0
 30
0.0
  0
VERTEX
  5
9EA
  8
0
 10
0.831830715711553
 20
0.7046459794851686
 30
0.0
  0
VERTEX
  5
9EB
  8
0
 10
0.8301154608749312
 20
0.6946003937902132
 30
0.0
  0
VERTEX
  5
9EC
  8
0
 10
0.8289420604786792
 20
0.6917402037265383
 30
0.0
  0
SEQEND
  5
9ED
  8
0
  0
POLYLINE
  5
1D9
  8
0
 66
     1
 10
0.0
 20
0.0
 30
0.0
  0
VERTEX
  5
9EE
  8
0
 10
0.8289420604786792
 20
0.6917402037265378
 30
0.0
  0
VERTEX
  5
9EF
  8
0
 10
0.8257737863809689
 20
0.6864786784026455
 30
0.0
  0
VERTEX
  5
9F0
  8
0
 10
0.8207114562721427
 20
0.681202107213744
 30
0.0
  0
VERTEX
  5
9F1
  8
0
 10
0.8129805352818026
 20
0.676609958552909
 30
0.0
  0
VERTEX
  5
9F2
  8
0
 10
0.8108022320445433
 20
0.6758181567196541
 30
0.0
  0
VERTEX
  5
9F3
  8
0
 10
0.808825347356405
 20
0.6752573648402286
 30
0.0
  0
VERTEX
  5
9F4
  8
0
 10
0.8081687436663319
 20
0.6751027059945925
 30
0.0
  0
VERTEX
  5
9F5
  8
0
 10
0.8079439902750301
 20
0.6750532991420442
 30
0.0
  0
VERTEX
  5
9F6
  8
0
 10
0.8079548387232636
 20
0.6750556754188885
 30
0.0
  0
SEQEND
  5
9F7
  8
0
  0
POLYLINE
  5
1DA
  8
0
 66
     1
 10
0.0
 20
0.0
 30
0.0
  0
VERTEX
  5
9F8
  8
0
 10
0.7951216545239174
 20
0.6750635727852077
 30
0.0
  0
VERTEX
  5
9F9
  8
0
 10
0.7951227640619254
 20
0.6750633314338904
 30
0.0
  0
VERTEX
  5
9FA
  8
0
 10
0.7946669254767526
 20
0.6751661599386584
 30
0.0
  0
VERTEX
  5
9FB
  8
0
 10
0.7927032299708311
 20
0.6756952369324092
 30
0.0
  0
VERTEX
  5
9FC
  8
0
 10
0.7853724030402891
 20
0.6790608183920006
 30
0.0
  0
VERTEX
  5
9FD
  8
0
 10
0.7782132739017345
 20
0.6853685614585594
 30
0.0
  0
VERTEX
  5
9FE
  8
0
 10
0.7748419320565795
 20
0.6904032018076394
 30
0.0
  0
VERTEX
  5
9FF
  8
0
 10
0.774170997086587
 20
0.6917402037265383
 30
0.0
  0
SEQEND
  5
A00
  8
0
  0
ARC
  5
1DB
  8
0
 10
0.7938821750393049
 20
1.1019425106033329
 30
0.0
 40
0.0050191415171626
 50
253.34175931137619
 51
346.658241772792
  0
ARC
  5
1DC
  8
0
 10
0.7916212052190859
 20
1.0943863017385309
 30
0.0
 40
0.0028680808669504
 50
73.341756329947685
 51
226.6582417727686
  0
ARC
  5
1DD
  8
0
 10
0.786207821295977
 20
1.0886501400046309
 30
0.0
 40
0.0050191415171623
 50
313.3417593113636
 51
46.658241772792387
  0
ARC
  5
1DE
  8
0
 10
0.7916212052190859
 20
1.08291397827073
 30
0.0
 40
0.0028680808669506
 50
133.34175632995229
 51
286.65824177277528
  0
ARC
  5
1DF
  8
0
 10
0.7938821750393049
 20
1.075357769405928
 30
0.0
 40
0.005019141517163
 50
13.341758227221661
 51
106.65824177278139
  0
CIRCLE
  5
1E0
  8
0
 10
0.8015565287826344
 20
1.0886501400046309
 30
0.0
 40
0.02740610606197
  0
ARC
  5
1E1
  8
0
 10
0.8092308825259635
 20
1.075357769405928
 30
0.0
 40
0.0050191415171628
 50
73.341759555037271
 51
166.6582417727783
  0
ARC
  5
1E2
  8
0
 10
0.8092308825259642
 20
1.1019425106033329
 30
0.0
 40
0.0050191415171632
 50
193.34175955503079
 51
286.65824177277779
  0
ARC
  5
1E3
  8
0
 10
0.8114918523461833
 20
1.0943863017385309
 30
0.0
 40
0.0028680808669508
 50
313.34175822722489
 51
106.6582417727854
  0
ARC
  5
1E4
  8
0
 10
0.8015565287826344
 20
1.0771778165368291
 30
0.0
 40
0.0028680808669508
 50
193.34175822721741
 51
346.65824177278148
  0
ARC
  5
1E5
  8
0
 10
0.8114918523461827
 20
1.08291397827073
 30
0.0
 40
0.0028680808669508
 50
253.3417559035436
 51
46.658241772775852
  0
ARC
  5
1E6
  8
0
 10
0.8015565287826344
 20
1.100122463472432
 30
0.0
 40
0.0028680808669509
 50
13.34175590354106
 51
166.65824177277199
  0
ARC
  5
1E7
  8
0
 10
0.8169052362692921
 20
1.0886501400046309
 30
0.0
 40
0.0050191415171622
 50
133.3417582272121
 51
226.6582417727885
  0
LINE
  5
1E8
  8
0
 10
0.7880326609930498
 20
1.147668870733431
 30
0.0
 11
0.8150803965722206
 21
1.147668870733431
 31
0.0
  0
ARC
  5
1E9
  8
0
 10
0.8015565287825488
 20
1.0886501400047921
 30
0.0
 40
0.0605483738576638
 50
102.90624832659491
 51
132.8880796980043
  0
ARC
  5
1EA
  8
0
 10
0.8015565287827289
 20
1.0886501400048061
 30
0.0
 40
0.0605483738576482
 50
47.111920301991617
 51
77.093751673408804
  0
LINE
  5
1EB
  8
0
 10
0.5683741610244512
 20
1.088650140004652
 30
0.0
 11
0.5683741610244539
 21
0.3480160574625088
 31
0.0
  0
LINE
  5
1EC
  8
0
 10
0.5683741610244539
 20
1.829284222546794
 30
0.0
 11
0.5683741610244512
 21
1.088650140004652
 31
0.0
  0
LINE
  5
1ED
  8
0
 10
0.2350483520727002
 20
1.088650140004652
 30
0.0
 11
0.2350483520727019
 21
1.7476069544664281
 31
0.0
  0
LINE
  5
1EE
  8
0
 10
0.2350483520727019
 20
0.4296933255428765
 30
0.0
 11
0.2350483520727002
 21
1.088650140004652
 31
0.0
  0
LINE
  5
1EF
  8
0
 10
0.6884545288035154
 20
0.8485303903228612
 30
0.0
 11
0.5683741610244512
 21
0.8485303903228612
 31
0.0
  0
LINE
  5
1F0
  8
0
 10
0.6884545288035154
 20
0.8485303903228612
 30
0.0
 11
0.6911656258568505
 21
0.8397679869022313
 31
0.0
  0
POLYLINE
  5
1F1
  8
0
 66
     1
 10
0.0
 20
0.0
 30
0.0
  0
VERTEX
  5
A01
  8
0
 10
0.6911656258568505
 20
0.8397679869022313
 30
0.0
  0
VERTEX
  5
A02
  8
0
 10
0.6911508745761813
 20
0.8391451440514153
 30
0.0
  0
VERTEX
  5
A03
  8
0
 10
0.688454528803516
 20
0.831005583481602
 30
0.0
  0
SEQEND
  5
A04
  8
0
  0
LINE
  5
1F2
  8
0
 10
0.688454528803516
 20
0.831005583481602
 30
0.0
 11
0.5683741610244512
 21
0.831005583481602
 31
0.0
  0
POLYLINE
  5
1F3
  8
0
 66
     1
 10
0.0
 20
0.0
 30
0.0
  0
VERTEX
  5
A05
  8
0
 10
0.6911656258568505
 20
0.8660551971641202
 30
0.0
  0
VERTEX
  5
A06
  8
0
 10
0.6910356673659337
 20
0.86235173225511
 30
0.0
  0
VERTEX
  5
A07
  8
0
 10
0.6884545288035154
 20
0.8485303903228612
 30
0.0
  0
SEQEND
  5
A08
  8
0
  0
LINE
  5
1F4
  8
0
 10
0.6884545288035154
 20
0.8835800040053793
 30
0.0
 11
0.5683741610244512
 21
0.8835800040053793
 31
0.0
  0
POLYLINE
  5
1F5
  8
0
 66
     1
 10
0.0
 20
0.0
 30
0.0
  0
VERTEX
  5
A09
  8
0
 10
0.6884545288035154
 20
0.8835800040053793
 30
0.0
  0
VERTEX
  5
A0A
  8
0
 10
0.6892895509310071
 20
0.8804713712596617
 30
0.0
  0
VERTEX
  5
A0B
  8
0
 10
0.6911656258568505
 20
0.8660551971641202
 30
0.0
  0
SEQEND
  5
A0C
  8
0
  0
POLYLINE
  5
1F6
  8
0
 66
     1
 10
0.0
 20
0.0
 30
0.0
  0
VERTEX
  5
A0D
  8
0
 10
0.6911656258568505
 20
0.8923424074260086
 30
0.0
  0
VERTEX
  5
A0E
  8
0
 10
0.6911508745761813
 20
0.891719564575192
 30
0.0
  0
VERTEX
  5
A0F
  8
0
 10
0.6884545288035154
 20
0.8835800040053793
 30
0.0
  0
SEQEND
  5
A10
  8
0
  0
LINE
  5
1F7
  8
0
 10
0.688454528803516
 20
0.9011048108466372
 30
0.0
 11
0.5683741610244512
 21
0.9011048108466372
 31
0.0
  0
LINE
  5
1F8
  8
0
 10
0.688454528803516
 20
0.9011048108466372
 30
0.0
 11
0.6911656258568505
 21
0.8923424074260086
 31
0.0
  0
LINE
  5
1F9
  8
0
 10
0.5683741610244512
 20
1.2761954691626689
 30
0.0
 11
0.6396692976258918
 21
1.2761954691626689
 31
0.0
  0
LINE
  5
1FA
  8
0
 10
0.5683741610244512
 20
1.2937202760039279
 30
0.0
 11
0.6396692976258918
 21
1.293720276003927
 31
0.0
  0
LINE
  5
1FB
  8
0
 10
0.5683741610244512
 20
1.3287698896864459
 30
0.0
 11
0.6396692976258918
 21
1.3287698896864459
 31
0.0
  0
LINE
  5
1FC
  8
0
 10
0.5683741610244512
 20
1.3462946965277049
 30
0.0
 11
0.6396692976258918
 21
1.3462946965277049
 31
0.0
  0
LINE
  5
1FF
  8
0
 10
0.6396692976258918
 20
1.1083419269003021
 30
0.0
 11
0.6396692976258941
 21
1.6118767121435551
 31
0.0
  0
LINE
  5
200
  8
0
 10
0.9634437599393985
 20
1.611876712143554
 30
0.0
 11
0.9634437599393969
 21
1.1083419269003021
 31
0.0
  0
ARC
  5
201
  8
0
 10
0.8015565287826442
 20
1.1083419269003021
 30
0.0
 40
0.1618872311567526
 50
179.9999999999996
 51
259.33377985989711
  0
ARC
  5
202
  8
0
 10
0.8015565287826442
 20
1.1083419269003021
 30
0.0
 40
0.1618872311567525
 50
280.73207993200378
 51
0.0000000000002036
  0
LINE
  5
203
  8
0
 10
0.9634437599393985
 20
1.6216944799264841
 30
0.0
 11
0.9634437599393985
 21
1.611876712143554
 31
0.0
  0
LINE
  5
204
  8
0
 10
0.6396692976258941
 20
1.6118767121435551
 30
0.0
 11
0.6396692976258941
 21
1.621694479926485
 31
0.0
  0
LINE
  5
205
  8
0
 10
0.6396692976258941
 20
1.621694479926485
 30
0.0
 11
0.6396692976258948
 21
2.1113153695198048
 31
0.0
  0
LINE
  5
206
  8
0
 10
0.963443759939399
 20
2.111315369519803
 30
0.0
 11
0.9634437599393985
 21
1.6216944799264841
 31
0.0
  0
LINE
  5
207
  8
0
 10
0.6396692976258948
 20
2.1113153695198048
 30
0.0
 11
0.6396692976258948
 21
2.1247284194078691
 31
0.0
  0
LINE
  5
208
  8
0
 10
0.6396692976258948
 20
2.1247284194078691
 30
0.0
 11
0.9634437599394004
 21
2.1247284194078668
 31
0.0
  0
LINE
  5
209
  8
0
 10
0.9634437599394004
 20
2.1247284194078668
 30
0.0
 11
0.963443759939399
 21
2.111315369519803
 31
0.0
  0
LINE
  5
20A
  8
0
 10
0.6591928977033863
 20
0.9462970889570475
 30
0.0
 11
0.6591928977033863
 21
0.9382488922096253
 31
0.0
  0
LINE
  5
20B
  8
0
 10
0.6591928977033863
 20
0.9688803577034136
 30
0.0
 11
0.6591928977033863
 21
0.966532992851641
 31
0.0
  0
LINE
  5
20C
  8
0
 10
0.655955153080252
 20
0.745692040799073
 30
0.0
 11
0.655955153080252
 21
0.7373006735336799
 31
0.0
  0
LINE
  5
20D
  8
0
 10
0.655955153080252
 20
0.7743728494685757
 30
0.0
 11
0.655955153080252
 21
0.7659279446936664
 31
0.0
  0
LINE
  5
20E
  8
0
 10
0.6575740253918191
 20
0.745692040799073
 30
0.0
 11
0.6575740253918191
 21
0.7373006735336799
 31
0.0
  0
LINE
  5
20F
  8
0
 10
0.6575740253918191
 20
0.7743728494685757
 30
0.0
 11
0.6575740253918191
 21
0.7659279446936664
 31
0.0
  0
LINE
  5
210
  8
0
 10
0.655955153080252
 20
0.7663036053209164
 30
0.0
 11
0.6559416625611302
 21
0.766255216105613
 31
0.0
  0
LINE
  5
211
  8
0
 10
0.655955153080252
 20
0.7404307057864781
 30
0.0
 11
0.6559416625611302
 21
0.7404993300803067
 31
0.0
  0
LINE
  5
212
  8
0
 10
0.6575740253918191
 20
0.9462970889570475
 30
0.0
 11
0.6575740253918191
 21
0.9378351127118383
 31
0.0
  0
LINE
  5
213
  8
0
 10
0.6575740253918191
 20
0.9672614853918464
 30
0.0
 11
0.6575740253918191
 21
0.966532992851641
 31
0.0
  0
LINE
  5
214
  8
0
 10
0.6559551530802593
 20
0.9378521841821378
 30
0.0
 11
0.6559551530802593
 21
0.9462970889570475
 31
0.0
  0
LINE
  5
215
  8
0
 10
0.6446977005594226
 20
0.9386822878129048
 30
0.0
 11
0.6446977005594226
 21
0.9424792563794157
 31
0.0
  0
ARC
  5
216
  8
0
 10
0.6592657888238042
 20
0.9495127919133704
 30
0.0
 40
0.0161771387391659
 50
194.94478034086521
 51
205.77144975172811
  0
LINE
  5
217
  8
0
 10
0.6436001712132567
 20
0.9455257903858099
 30
0.0
 11
0.6436358447409766
 21
0.9453409019634911
 31
0.0
  0
ARC
  5
218
  8
0
 10
0.6672242029678404
 20
0.9487780817738842
 30
0.0
 40
0.0238468504338523
 50
185.97177874820341
 51
187.83856666069249
  0
LINE
  5
219
  8
0
 10
0.6434587638394952
 20
0.9420506344024747
 30
0.0
 11
0.6434503545211177
 21
0.9420919407514173
 31
0.0
  0
ARC
  5
21A
  8
0
 10
0.6475182446089307
 20
0.9428795557187092
 30
0.0
 40
0.0041432468748464
 50
191.54079720353261
 51
198.9763476100994
  0
LINE
  5
21B
  8
0
 10
0.6436358447409766
 20
0.941412552467133
 30
0.0
 11
0.6436001712132567
 21
0.9415322637933874
 31
0.0
  0
ARC
  5
21C
  8
0
 10
0.6574330356885318
 20
0.9452069414246938
 30
0.0
 40
0.0143094327492238
 50
195.37687455252691
 51
207.12728016314969
  0
POLYLINE
  5
21D
  8
0
 66
     1
 10
0.0
 20
0.0
 30
0.0
  0
VERTEX
  5
A11
  8
0
 10
0.6575740253918191
 20
0.9424053934049389
 30
0.0
  0
VERTEX
  5
A12
  8
0
 10
0.6574784958027609
 20
0.9435322282042415
 30
0.0
  0
VERTEX
  5
A13
  8
0
 10
0.6572692425419748
 20
0.9462970889570475
 30
0.0
  0
SEQEND
  5
A14
  8
0
  0
LINE
  5
21E
  8
0
 10
0.5940332871628015
 20
1.10626907944598
 30
0.0
 11
0.5940332871628015
 21
1.1163870313932771
 31
0.0
  0
LINE
  5
21F
  8
0
 10
0.5940332871628015
 20
1.096151127498683
 30
0.0
 11
0.5940332871628015
 21
1.10626907944598
 31
0.0
  0
LINE
  5
220
  8
0
 10
0.5940332871628015
 20
1.16357715927547
 30
0.0
 11
0.5940332871628015
 21
1.1736951112227669
 31
0.0
  0
LINE
  5
221
  8
0
 10
0.5940332871628015
 20
1.153459207328174
 30
0.0
 11
0.5940332871628015
 21
1.16357715927547
 31
0.0
  0
LINE
  5
222
  8
0
 10
0.5940332871628015
 20
1.2208852391049601
 30
0.0
 11
0.5940332871628015
 21
1.231003191052257
 31
0.0
  0
LINE
  5
223
  8
0
 10
0.5940332871628015
 20
1.210767287157664
 30
0.0
 11
0.5940332871628015
 21
1.2208852391049601
 31
0.0
  0
LINE
  5
224
  8
0
 10
0.5940332871628015
 20
1.2680753669871541
 30
0.0
 11
0.5940332871628015
 21
1.2761954691626689
 31
0.0
  0
LINE
  5
225
  8
0
 10
0.5940332871628015
 20
1.392809478593432
 30
0.0
 11
0.5940332871628015
 21
1.4029274305407291
 31
0.0
  0
LINE
  5
226
  8
0
 10
0.5940332871628015
 20
1.382691526646135
 30
0.0
 11
0.5940332871628015
 21
1.392809478593432
 31
0.0
  0
LINE
  5
227
  8
0
 10
0.5940332871628015
 20
1.4501175584229229
 30
0.0
 11
0.5940332871628015
 21
1.46023551037022
 31
0.0
  0
LINE
  5
228
  8
0
 10
0.5940332871628015
 20
1.4399996064756251
 30
0.0
 11
0.5940332871628015
 21
1.4501175584229229
 31
0.0
  0
LINE
  5
229
  8
0
 10
0.5940332871628015
 20
1.5074256382524129
 30
0.0
 11
0.5940332871628015
 21
1.5175435901997101
 31
0.0
  0
LINE
  5
22A
  8
0
 10
0.5940332871628015
 20
1.4973076863051149
 30
0.0
 11
0.5940332871628015
 21
1.5074256382524129
 31
0.0
  0
LINE
  5
22B
  8
0
 10
0.5940332871628015
 20
1.564733718081903
 30
0.0
 11
0.5940332871628015
 21
1.5748516700291999
 31
0.0
  0
LINE
  5
22C
  8
0
 10
0.5940332871628015
 20
1.5546157661346069
 30
0.0
 11
0.5940332871628015
 21
1.564733718081903
 31
0.0
  0
LINE
  5
22D
  8
0
 10
0.5940332871628015
 20
1.1349498881154829
 30
0.0
 11
0.5940332871628015
 21
1.145067840062781
 31
0.0
  0
LINE
  5
22E
  8
0
 10
0.5940332871628015
 20
1.124831936168186
 30
0.0
 11
0.5940332871628015
 21
1.1349498881154829
 31
0.0
  0
LINE
  5
22F
  8
0
 10
0.5940332871628015
 20
1.1922579679449741
 30
0.0
 11
0.5940332871628015
 21
1.202375919892271
 31
0.0
  0
LINE
  5
230
  8
0
 10
0.5940332871628015
 20
1.182140015997676
 30
0.0
 11
0.5940332871628015
 21
1.1922579679449741
 31
0.0
  0
LINE
  5
231
  8
0
 10
0.5940332871628015
 20
1.2495660477744639
 30
0.0
 11
0.5940332871628015
 21
1.259683999721761
 31
0.0
  0
LINE
  5
232
  8
0
 10
0.5940332871628015
 20
1.239448095827167
 30
0.0
 11
0.5940332871628015
 21
1.2495660477744639
 31
0.0
  0
LINE
  5
233
  8
0
 10
0.5940332871628015
 20
1.3641822074334451
 30
0.0
 11
0.5940332871628015
 21
1.374300159380742
 31
0.0
  0
LINE
  5
234
  8
0
 10
0.5940332871628015
 20
1.3540642554861479
 30
0.0
 11
0.5940332871628015
 21
1.3641822074334451
 31
0.0
  0
LINE
  5
235
  8
0
 10
0.5940332871628015
 20
1.421490287262936
 30
0.0
 11
0.5940332871628015
 21
1.4316082392102321
 31
0.0
  0
LINE
  5
236
  8
0
 10
0.5940332871628015
 20
1.4113723353156391
 30
0.0
 11
0.5940332871628015
 21
1.421490287262936
 31
0.0
  0
LINE
  5
237
  8
0
 10
0.5940332871628015
 20
1.4787983670924261
 30
0.0
 11
0.5940332871628015
 21
1.4889163190397221
 31
0.0
  0
LINE
  5
238
  8
0
 10
0.5940332871628015
 20
1.4686804151451289
 30
0.0
 11
0.5940332871628015
 21
1.4787983670924261
 31
0.0
  0
LINE
  5
239
  8
0
 10
0.5940332871628015
 20
1.5361064469219159
 30
0.0
 11
0.5940332871628015
 21
1.5462243988692139
 31
0.0
  0
LINE
  5
23A
  8
0
 10
0.5940332871628015
 20
1.525988494974619
 30
0.0
 11
0.5940332871628015
 21
1.5361064469219159
 31
0.0
  0
LINE
  5
23B
  8
0
 10
0.6608117700149547
 20
0.5949208537313155
 30
0.0
 11
0.6911656258568458
 21
0.5949208537313155
 31
0.0
  0
LINE
  5
23C
  8
0
 10
0.6608117700149547
 20
0.5949208537313155
 30
0.0
 11
0.6608117700149547
 21
0.8310055834815963
 31
0.0
  0
LINE
  5
23D
  8
0
 10
0.6608117700149547
 20
0.9011048108466315
 30
0.0
 11
0.6608117700149547
 21
1.028351999465499
 31
0.0
  0
LINE
  5
23E
  8
0
 10
0.5940332871627941
 20
0.6310758811400912
 30
0.0
 11
0.5940332871627941
 21
0.6513117850346858
 31
0.0
  0
LINE
  5
23F
  8
0
 10
0.5940332871627941
 20
0.688383960969582
 30
0.0
 11
0.5940332871627941
 21
0.7086198648641761
 31
0.0
  0
LINE
  5
240
  8
0
 10
0.5940332871627941
 20
0.7456920407990717
 30
0.0
 11
0.5940332871627941
 21
0.7659279446936664
 31
0.0
  0
LINE
  5
241
  8
0
 10
0.5940332871627941
 20
0.8030001206285632
 30
0.0
 11
0.5940332871627941
 21
0.8232360245231566
 31
0.0
  0
LINE
  5
242
  8
0
 10
0.5940332871627941
 20
0.9176162802875436
 30
0.0
 11
0.5940332871627941
 21
0.9378521841821378
 31
0.0
  0
LINE
  5
243
  8
0
 10
0.5940332871627941
 20
0.974924360117034
 30
0.0
 11
0.5940332871627941
 21
0.9951602640116281
 31
0.0
  0
LINE
  5
244
  8
0
 10
0.5940332871627941
 20
1.0322324399465239
 30
0.0
 11
0.5940332871627941
 21
1.052468343841118
 31
0.0
  0
LINE
  5
245
  8
0
 10
0.5940332871627941
 20
0.6024486099801046
 30
0.0
 11
0.5940332871627941
 21
0.6226845138746981
 31
0.0
  0
LINE
  5
246
  8
0
 10
0.5940332871627941
 20
0.659756689809595
 30
0.0
 11
0.5940332871627941
 21
0.6799925937041884
 31
0.0
  0
LINE
  5
247
  8
0
 10
0.5940332871627941
 20
0.7170647696390854
 30
0.0
 11
0.5940332871627941
 21
0.7373006735336799
 31
0.0
  0
LINE
  5
248
  8
0
 10
0.5940332871627941
 20
0.7743728494685757
 30
0.0
 11
0.5940332871627941
 21
0.7946087533631702
 31
0.0
  0
LINE
  5
249
  8
0
 10
0.5940332871627941
 20
0.9011048108466329
 30
0.0
 11
0.5940332871627941
 21
0.9092249130221507
 31
0.0
  0
LINE
  5
24A
  8
0
 10
0.5940332871627941
 20
0.9462970889570475
 30
0.0
 11
0.5940332871627941
 21
0.966532992851641
 31
0.0
  0
LINE
  5
24B
  8
0
 10
0.5940332871627941
 20
1.003605168786537
 30
0.0
 11
0.5940332871627941
 21
1.0238410726811309
 31
0.0
  0
LINE
  5
24C
  8
0
 10
0.5940332871627941
 20
1.0609132486160271
 30
0.0
 11
0.5940332871627941
 21
1.0811491525106209
 31
0.0
  0
LINE
  5
24D
  8
0
 10
1.359759890534235
 20
1.088650140004652
 30
0.0
 11
1.359759890534239
 21
0.2531525229513434
 31
0.0
  0
LINE
  5
24E
  8
0
 10
1.359759890534239
 20
1.9241477570579619
 30
0.0
 11
1.359759890534235
 21
1.088650140004652
 31
0.0
  0
LINE
  5
24F
  8
0
 10
1.521647121690989
 20
1.088650140004652
 30
0.0
 11
1.521647121690991
 21
0.3136796784850669
 31
0.0
  0
LINE
  5
250
  8
0
 10
1.521647121690991
 20
1.863620601524238
 30
0.0
 11
1.521647121690989
 21
1.088650140004652
 31
0.0
  0
LINE
  5
251
  8
0
 10
0.70972572355203
 20
0.9750205901897189
 30
0.0
 11
0.709725723552033
 21
0.3387311445516943
 31
0.0
  0
LINE
  5
252
  8
0
 10
0.6911656258568487
 20
0.9899302544907387
 30
0.0
 11
0.6911656258568515
 21
0.380393503693862
 31
0.0
  0
LINE
  5
8C7
  8
0
 10
0.3970206557578964
 20
0.3483997948399799
 30
0.0
 11
0.3970206557578964
 21
1.8289004851693249
 31
0.0
  0
TEXT
  5
96D
  8
0
 10
1.8129758244858221
 20
1.02615014000465
 30
0.0
 40
0.125
  1
UV90
 41
0.7500000000000002
 51
15.0
  7
P125
 72
     2
 11
2.152261538771536
 21
1.08865014000465
 31
0.0
 73
     2
  0
ENDSEC
  0
EOF
